  0
SECTION
  2
HEADER
  9
$ACADVER
  1
AC1009
  9
$INSBASE
 10
0.0
 20
0.0
 30
0.0
  9
$EXTMIN
 10
0.0
 20
-1.4802182810368341
 30
0.0
  9
$EXTMAX
 10
163.5
 20
110.503257
 30
0.0
  9
$LIMMIN
 10
0.0
 20
0.0
  9
$LIMMAX
 10
187.5
 20
135.0
  9
$ORTHOMODE
 70
     1
  9
$REGENMODE
 70
     1
  9
$FILLMODE
 70
     1
  9
$QTEXTMODE
 70
     0
  9
$MIRRTEXT
 70
     0
  9
$DRAGMODE
 70
     2
  9
$LTSCALE
 40
5.0
  9
$OSMODE
 70
  3071
  9
$ATTMODE
 70
     1
  9
$TEXTSIZE
 40
4.0
  9
$TRACEWID
 40
0.05
  9
$TEXTSTYLE
  7
STANDARD
  9
$CLAYER
  8
0
  9
$CELTYPE
  6
BYLAYER
  9
$CECOLOR
 62
   256
  9
$DIMSCALE
 40
0.5
  9
$DIMASZ
 40
3.0
  9
$DIMEXO
 40
2.0
  9
$DIMDLI
 40
10.0
  9
$DIMRND
 40
0.0
  9
$DIMDLE
 40
0.0
  9
$DIMEXE
 40
2.0
  9
$DIMTP
 40
0.0
  9
$DIMTM
 40
0.0
  9
$DIMTXT
 40
3.2000000000000002
  9
$DIMCEN
 40
0.09
  9
$DIMTSZ
 40
0.0
  9
$DIMTOL
 70
     0
  9
$DIMLIM
 70
     0
  9
$DIMTIH
 70
     0
  9
$DIMTOH
 70
     0
  9
$DIMSE1
 70
     0
  9
$DIMSE2
 70
     0
  9
$DIMTAD
 70
     1
  9
$DIMZIN
 70
     0
  9
$DIMBLK
  1

  9
$DIMASO
 70
     0
  9
$DIMSHO
 70
     0
  9
$DIMPOST
  1

  9
$DIMAPOST
  1

  9
$DIMALT
 70
     0
  9
$DIMALTD
 70
     2
  9
$DIMALTF
 40
25.399999999999999
  9
$DIMLFAC
 40
1.0
  9
$DIMTOFL
 70
     1
  9
$DIMTVP
 40
1.6000000000000001
  9
$DIMTIX
 70
     1
  9
$DIMSOXD
 70
     0
  9
$DIMSAH
 70
     0
  9
$DIMBLK1
  1

  9
$DIMBLK2
  1

  9
$DIMSTYLE
  2
STANDARD
  9
$DIMCLRD
 70
     0
  9
$DIMCLRE
 70
     0
  9
$DIMCLRT
 70
     0
  9
$DIMTFAC
 40
1.0
  9
$DIMGAP
 40
0.09
  9
$LUNITS
 70
     2
  9
$LUPREC
 70
     4
  9
$SKETCHINC
 40
0.1
  9
$FILLETRAD
 40
0.0
  9
$AUNITS
 70
     0
  9
$AUPREC
 70
     0
  9
$MENU
  1
E:\r13\win\SUPPORT\ACAD
  9
$ELEVATION
 40
0.0
  9
$PELEVATION
 40
0.0
  9
$THICKNESS
 40
0.0
  9
$LIMCHECK
 70
     0
  9
$BLIPMODE
 70
     0
  9
$CHAMFERA
 40
0.0
  9
$CHAMFERB
 40
0.0
  9
$SKPOLY
 70
     0
  9
$TDCREATE
 40
2449840.5951620368
  9
$TDUPDATE
 40
2456597.7185356482
  9
$TDINDWG
 40
0.0003737269
  9
$TDUSRTIMER
 40
0.0003737269
  9
$USRTIMER
 70
     1
  9
$ANGBASE
 50
0.0
  9
$ANGDIR
 70
     0
  9
$PDMODE
 70
     0
  9
$PDSIZE
 40
0.0
  9
$PLINEWID
 40
0.0
  9
$COORDS
 70
     1
  9
$SPLFRAME
 70
     0
  9
$SPLINETYPE
 70
     6
  9
$SPLINESEGS
 70
     8
  9
$ATTDIA
 70
     0
  9
$ATTREQ
 70
     1
  9
$HANDLING
 70
     1
  9
$HANDSEED
  5
269
  9
$SURFTAB1
 70
     6
  9
$SURFTAB2
 70
     6
  9
$SURFTYPE
 70
     6
  9
$SURFU
 70
     6
  9
$SURFV
 70
     6
  9
$UCSNAME
  2

  9
$UCSORG
 10
0.0
 20
0.0
 30
0.0
  9
$UCSXDIR
 10
1.0
 20
0.0
 30
0.0
  9
$UCSYDIR
 10
0.0
 20
1.0
 30
0.0
  9
$PUCSNAME
  2

  9
$PUCSORG
 10
0.0
 20
0.0
 30
0.0
  9
$PUCSXDIR
 10
1.0
 20
0.0
 30
0.0
  9
$PUCSYDIR
 10
0.0
 20
1.0
 30
0.0
  9
$USERI1
 70
     0
  9
$USERI2
 70
     1
  9
$USERI3
 70
     0
  9
$USERI4
 70
     0
  9
$USERI5
 70
     0
  9
$USERR1
 40
0.0
  9
$USERR2
 40
0.0
  9
$USERR3
 40
0.0
  9
$USERR4
 40
0.0
  9
$USERR5
 40
0.0
  9
$WORLDVIEW
 70
     1
  9
$SHADEDGE
 70
     3
  9
$SHADEDIF
 70
    70
  9
$TILEMODE
 70
     1
  9
$MAXACTVP
 70
    16
  9
$PLIMCHECK
 70
     0
  9
$PEXTMIN
 10
1.0000000000000000E+020
 20
1.0000000000000000E+020
 30
1.0000000000000000E+020
  9
$PEXTMAX
 10
-1.0000000000000000E+020
 20
-1.0000000000000000E+020
 30
-1.0000000000000000E+020
  9
$PLIMMIN
 10
0.0
 20
0.0
  9
$PLIMMAX
 10
12.0
 20
9.0
  9
$UNITMODE
 70
     0
  9
$VISRETAIN
 70
     0
  9
$PLINEGEN
 70
     0
  9
$PSLTSCALE
 70
     0
  0
ENDSEC
  0
SECTION
  2
TABLES
  0
TABLE
  2
VPORT
 70
     1
  0
VPORT
  2
*ACTIVE
 70
     0
 10
0.0
 20
0.0
 11
1.0
 21
1.0
 12
93.747139195326156
 22
67.05183146954721
 13
0.0
 23
0.0
 14
5.0
 24
5.0
 15
5.0
 25
5.0
 16
0.0
 26
0.0
 36
1.0
 17
0.0
 27
0.0
 37
0.0
 40
138.6470298934976
 41
2.304913294797688
 42
50.0
 43
0.0
 44
0.0
 50
0.0
 51
0.0
 71
     0
 72
   100
 73
     1
 74
     0
 75
     0
 76
     0
 77
     0
 78
     0
  0
ENDTAB
  0
TABLE
  2
LTYPE
 70
     4
  0
LTYPE
  2
CONTINUOUS
 70
     0
  3
Solid Line
 72
    65
 73
     0
 40
0.0
  0
LTYPE
  2
CENTER
 70
     0
  3
____ _ ____ _ ____ _ ____ _ ____ _ ____ _ ____
 72
    65
 73
     4
 40
2.0
 49
1.25
 49
-0.25
 49
0.25
 49
-0.25
  0
LTYPE
  2
HIDDEN
 70
     0
  3
_ _ _ _ _ _ _ _ _ _ _ _ _ _ _ _ _ _ _ _ _ _ _
 72
    65
 73
     2
 40
0.375
 49
0.25
 49
-0.125
  0
LTYPE
  2
PHANTOM2
 70
     0
  3
___ _ _ ___ _ _ ___ _ _ ___ _ _
 72
    65
 73
     6
 40
1.25
 49
0.625
 49
-0.125
 49
0.125
 49
-0.125
 49
0.125
 49
-0.125
  0
ENDTAB
  0
TABLE
  2
LAYER
 70
     4
  0
LAYER
  2
0
 70
     0
 62
     7
  6
CONTINUOUS
  0
LAYER
  2
1
 70
     0
 62
     1
  6
CENTER
  0
LAYER
  2
2
 70
     0
 62
     2
  6
HIDDEN
  0
LAYER
  2
3
 70
     0
 62
     3
  6
CONTINUOUS
  0
ENDTAB
  0
TABLE
  2
STYLE
 70
     2
  0
STYLE
  2
STANDARD
 70
     0
 40
0.0
 41
1.0
 50
0.0
 71
     0
 42
4.0
  3
TXT
  4
BIGFONT
  0
STYLE
  2
STANDARD1
 70
     0
 40
0.0
 41
1.0
 50
0.0
 71
     0
 42
3.0
  3
txt
  4

  0
ENDTAB
  0
TABLE
  2
VIEW
 70
     1
  0
VIEW
  2
ALL
 70
     0
 40
135.0
 10
110.49579799999999
 20
67.5
 41
0.0
 11
0.0
 21
0.0
 31
1.0
 12
0.0
 22
0.0
 32
0.0
 42
0.0
 43
0.0
 44
0.0
 50
0.0
 71
     0
  0
ENDTAB
  0
TABLE
  2
UCS
 70
     0
  0
ENDTAB
  0
TABLE
  2
APPID
 70
     3
  0
APPID
  2
ACAD
 70
     0
  0
APPID
  2
ACAD_MLEADERVER
 70
     0
  0
APPID
  2
ACAD_NAV_VCDISPLAY
 70
     0
  0
ENDTAB
  0
TABLE
  2
DIMSTYLE
 70
     1
  0
DIMSTYLE
  2
STANDARD
 70
     0
  3

  4

  5

  6

  7

 40
1.0
 41
0.18
 42
0.0625
 43
0.38
 44
0.18
 45
0.0
 46
0.0
 47
0.0
 48
0.0
140
0.18
141
0.09
142
0.0
143
25.399999999999999
144
1.0
145
0.0
146
1.0
147
0.09
 71
     0
 72
     0
 73
     1
 74
     1
 75
     0
 76
     0
 77
     0
 78
     0
170
     0
171
     2
172
     0
173
     0
174
     0
175
     0
176
     0
177
     0
178
     0
  0
ENDTAB
  0
ENDSEC
  0
SECTION
  2
BLOCKS
  0
BLOCK
  8
0
  2
$MODEL_SPACE
 70
     0
 10
0.0
 20
0.0
 30
0.0
  3
$MODEL_SPACE
  1

  0
ENDBLK
  5
11B
  8
0
  0
BLOCK
 67
     1
  8
0
  2
$PAPER_SPACE
 70
     0
 10
0.0
 20
0.0
 30
0.0
  3
$PAPER_SPACE
  1

  0
ENDBLK
  5
119
 67
     1
  8
0
  0
ENDSEC
  0
SECTION
  2
ENTITIES
  0
LINE
  5
36
  8
1
 10
68.093567000000007
 20
69.210589999999996
 30
0.0
 11
123.09356699999999
 21
69.210589999999996
 31
0.0
  0
LINE
  5
37
  8
1
 10
155.0
 20
77.710589999999996
 30
0.0
 11
155.0
 21
60.710590000000003
 31
0.0
  0
CIRCLE
  5
38
  8
0
 10
155.0
 20
69.210589999999996
 30
0.0
 40
6.0
  0
CIRCLE
  5
39
  8
3
 10
155.0
 20
69.210589999999996
 30
0.0
 40
5.052999999999999
  0
LINE
  5
3A
  8
0
 10
152.0
 20
70.942641000000009
 30
0.0
 11
152.0
 21
67.478538999999984
 31
0.0
  0
LINE
  5
3B
  8
0
 10
155.0
 20
72.674691999999993
 30
0.0
 11
152.0
 21
70.942641000000009
 31
0.0
  0
LINE
  5
3C
  8
0
 10
158.0
 20
70.942641000000009
 30
0.0
 11
155.0
 21
72.674691999999993
 31
0.0
  0
LINE
  5
3D
  8
0
 10
158.0
 20
67.478538999999984
 30
0.0
 11
158.0
 21
70.942641000000009
 31
0.0
  0
LINE
  5
3E
  8
0
 10
155.0
 20
65.746487999999999
 30
0.0
 11
158.0
 21
67.478538999999984
 31
0.0
  0
LINE
  5
3F
  8
0
 10
152.0
 20
67.478538999999984
 30
0.0
 11
155.0
 21
65.746487999999999
 31
0.0
  0
LINE
  5
40
  8
1
 10
146.5
 20
69.210589999999996
 30
0.0
 11
163.5
 21
69.210589999999996
 31
0.0
  0
LINE
  5
41
  8
1
 10
26.5
 20
69.210589999999996
 30
0.0
 11
43.5
 21
69.210589999999996
 31
0.0
  0
CIRCLE
  5
42
  8
3
 10
35.0
 20
69.210589999999996
 30
0.0
 40
5.052999999999999
  0
CIRCLE
  5
43
  8
0
 10
35.0
 20
69.210589999999996
 30
0.0
 40
6.0
  0
LINE
  5
44
  8
1
 10
35.0
 20
77.710589999999996
 30
0.0
 11
35.0
 21
60.710590000000003
 31
0.0
  0
LINE
  5
45
  8
3
 10
37.541784999999997
 20
72.258589999999984
 30
0.0
 11
32.458215000000003
 21
72.258589999999984
 31
0.0
  0
CIRCLE
  5
46
  8
0
 10
35.0
 20
69.210589999999996
 30
0.0
 40
3.96875
  0
LINE
  5
47
  8
3
 10
38.048000000000002
 20
69.210589999999996
 30
0.0
 11
31.952000000000002
 21
69.210589999999996
 31
0.0
  0
LINE
  5
48
  8
3
 10
37.541784999999997
 20
66.162590000000009
 30
0.0
 11
32.458215000000003
 21
66.162590000000009
 31
0.0
  0
LINE
  5
49
  8
3
 10
31.952000000000002
 20
71.752375000000001
 30
0.0
 11
31.952000000000002
 21
66.668805000000006
 31
0.0
  0
LINE
  5
4A
  8
3
 10
35.0
 20
72.258589999999984
 30
0.0
 11
35.0
 21
66.162590000000009
 31
0.0
  0
LINE
  5
4B
  8
3
 10
38.048000000000002
 20
71.752375000000001
 30
0.0
 11
38.048000000000002
 21
66.668805000000006
 31
0.0
  0
LINE
  5
4C
  8
3
 10
35.0
 20
72.258589999999984
 30
0.0
 11
31.952000000000002
 21
69.210589999999996
 31
0.0
  0
LINE
  5
4D
  8
3
 10
37.806330000000003
 20
72.016919999999999
 30
0.0
 11
32.193669999999997
 21
66.404259999999994
 31
0.0
  0
LINE
  5
4E
  8
3
 10
38.048000000000002
 20
69.210589999999996
 30
0.0
 11
35.0
 21
66.162590000000009
 31
0.0
  0
LINE
  5
4F
  8
3
 10
35.0
 20
72.258589999999984
 30
0.0
 11
38.048000000000002
 21
69.210589999999996
 31
0.0
  0
LINE
  5
50
  8
3
 10
32.193669999999997
 20
72.016919999999999
 30
0.0
 11
37.806330000000003
 21
66.404259999999994
 31
0.0
  0
LINE
  5
51
  8
3
 10
31.952000000000002
 20
69.210589999999996
 30
0.0
 11
35.0
 21
66.162590000000009
 31
0.0
  0
LINE
  5
52
  8
2
 10
115.59356699999999
 20
36.917922999999988
 30
0.0
 11
115.59356699999999
 21
30.917922999999998
 31
0.0
  0
LINE
  5
53
  8
2
 10
120.59356699999999
 20
33.917923000000002
 30
0.0
 11
115.59356699999999
 21
33.917923000000002
 31
0.0
  0
LINE
  5
54
  8
2
 10
120.59356699999999
 20
36.917922999999988
 30
0.0
 11
115.59356699999999
 21
36.917922999999988
 31
0.0
  0
LINE
  5
55
  8
1
 10
68.093567000000007
 20
33.917923000000002
 30
0.0
 11
123.09356699999999
 21
33.917923000000002
 31
0.0
  0
LINE
  5
56
  8
2
 10
115.59356699999999
 20
36.917922999999988
 30
0.0
 11
113.59356699999999
 21
33.917923000000002
 31
0.0
  0
LINE
  5
57
  8
2
 10
120.59356699999999
 20
30.917922999999998
 30
0.0
 11
115.59356699999999
 21
30.917922999999998
 31
0.0
  0
LINE
  5
58
  8
2
 10
115.59356699999999
 20
30.917922999999998
 30
0.0
 11
113.59356699999999
 21
33.917923000000002
 31
0.0
  0
LINE
  5
59
  8
2
 10
71.863567000000003
 20
65.241839999999996
 30
0.0
 11
73.768567000000004
 21
65.241839999999996
 31
0.0
  0
LINE
  5
5A
  8
2
 10
71.863567000000003
 20
66.416589999999999
 30
0.0
 11
72.117567000000008
 21
66.162590000000009
 31
0.0
  0
LINE
  5
5B
  8
2
 10
72.117567000000008
 20
66.162590000000009
 30
0.0
 11
72.117567000000008
 21
65.241839999999996
 31
0.0
  0
LINE
  5
5C
  8
2
 10
72.117567000000008
 20
72.258589999999984
 30
0.0
 11
72.117567000000008
 21
73.179339999999996
 31
0.0
  0
LINE
  5
5D
  8
0
 10
70.593567000000007
 20
70.734589999999983
 30
0.0
 11
71.863567000000003
 21
69.464590000000001
 31
0.0
  0
LINE
  5
5E
  8
2
 10
72.117567000000008
 20
69.210589999999996
 30
0.0
 11
71.863567000000003
 21
68.956590000000006
 31
0.0
  0
LINE
  5
5F
  8
0
 10
71.863567000000003
 20
72.004590000000007
 30
0.0
 11
70.593567000000007
 21
70.734589999999983
 31
0.0
  0
LINE
  5
60
  8
2
 10
120.59356699999999
 20
65.746487999999999
 30
0.0
 11
115.59356699999999
 21
65.746487999999999
 31
0.0
  0
LINE
  5
61
  8
2
 10
115.59356699999999
 20
65.746487999999999
 30
0.0
 11
113.59356699999999
 21
69.210589999999996
 31
0.0
  0
LINE
  5
62
  8
2
 10
120.59356699999999
 20
67.478538999999984
 30
0.0
 11
115.59356699999999
 21
67.478538999999984
 31
0.0
  0
LINE
  5
63
  8
2
 10
115.59356699999999
 20
72.674691999999993
 30
0.0
 11
115.59356699999999
 21
65.746487999999999
 31
0.0
  0
LINE
  5
64
  8
2
 10
120.59356699999999
 20
70.942641000000009
 30
0.0
 11
115.59356699999999
 21
70.942641000000009
 31
0.0
  0
LINE
  5
65
  8
2
 10
115.59356699999999
 20
72.674691999999993
 30
0.0
 11
113.59356699999999
 21
69.210589999999996
 31
0.0
  0
LINE
  5
66
  8
2
 10
120.59356699999999
 20
72.674691999999993
 30
0.0
 11
115.59356699999999
 21
72.674691999999993
 31
0.0
  0
LINE
  5
67
  8
0
 10
119.59356699999999
 20
63.210590000000003
 30
0.0
 11
72.863567000000003
 21
63.210590000000003
 31
0.0
  0
LINE
  5
68
  8
0
 10
72.863567000000003
 20
63.210590000000003
 30
0.0
 11
71.863567000000003
 21
64.942641000000009
 31
0.0
  0
LINE
  5
69
  8
0
 10
119.59356699999999
 20
63.210590000000003
 30
0.0
 11
120.59356699999999
 21
64.942641000000009
 31
0.0
  0
LINE
  5
6A
  8
3
 10
120.14031799999999
 20
64.157589999999999
 30
0.0
 11
72.316817
 21
64.157589999999999
 31
0.0
  0
LINE
  5
6B
  8
2
 10
73.768567000000004
 20
73.179339999999996
 30
0.0
 11
73.768567000000004
 21
65.241839999999996
 31
0.0
  0
LINE
  5
6C
  8
2
 10
71.863567000000003
 20
72.004590000000007
 30
0.0
 11
72.117567000000008
 21
72.258589999999984
 31
0.0
  0
LINE
  5
6D
  8
0
 10
71.863567000000003
 20
66.416589999999999
 30
0.0
 11
70.593567000000007
 21
67.686589999999995
 31
0.0
  0
LINE
  5
6E
  8
2
 10
72.117567000000008
 20
69.210589999999996
 30
0.0
 11
71.863567000000003
 21
69.464590000000001
 31
0.0
  0
LINE
  5
6F
  8
0
 10
70.593567000000007
 20
67.686589999999995
 30
0.0
 11
71.863567000000003
 21
68.956590000000006
 31
0.0
  0
LINE
  5
70
  8
2
 10
71.863567000000003
 20
73.179339999999996
 30
0.0
 11
73.768567000000004
 21
73.179339999999996
 31
0.0
  0
LINE
  5
71
  8
3
 10
120.14031799999999
 20
74.263590000000008
 30
0.0
 11
72.316817
 21
74.263590000000008
 31
0.0
  0
LINE
  5
72
  8
0
 10
119.59356699999999
 20
75.210589999999996
 30
0.0
 11
120.59356699999999
 21
73.478538999999998
 31
0.0
  0
LINE
  5
73
  8
0
 10
72.863567000000003
 20
75.210589999999996
 30
0.0
 11
71.863567000000003
 21
73.478538999999998
 31
0.0
  0
LINE
  5
74
  8
0
 10
72.863567000000003
 20
75.210589999999996
 30
0.0
 11
72.863567000000003
 21
63.210590000000003
 31
0.0
  0
LINE
  5
75
  8
0
 10
71.863567000000003
 20
73.478538999999998
 30
0.0
 11
71.863567000000003
 21
64.942641000000009
 31
0.0
  0
LINE
  5
76
  8
0
 10
119.59356699999999
 20
75.210589999999996
 30
0.0
 11
119.59356699999999
 21
63.210590000000003
 31
0.0
  0
LINE
  5
77
  8
0
 10
119.59356699999999
 20
75.210589999999996
 30
0.0
 11
72.863567000000003
 21
75.210589999999996
 31
0.0
  0
LINE
  5
78
  8
0
 10
120.59356699999999
 20
73.478538999999998
 30
0.0
 11
120.59356699999999
 21
64.942641000000009
 31
0.0
  0
LINE
  5
79
  8
0
 10
120.59356699999999
 20
38.185871999999989
 30
0.0
 11
120.59356699999999
 21
29.649972999999999
 31
0.0
  0
LINE
  5
7A
  8
0
 10
119.59356699999999
 20
39.917923000000002
 30
0.0
 11
72.863567000000003
 21
39.917923000000002
 31
0.0
  0
LINE
  5
7B
  8
0
 10
119.59356699999999
 20
39.917923000000002
 30
0.0
 11
119.59356699999999
 21
27.917922999999998
 31
0.0
  0
LINE
  5
7C
  8
0
 10
71.863567000000003
 20
38.185871999999989
 30
0.0
 11
71.863567000000003
 21
29.649972999999999
 31
0.0
  0
LINE
  5
7D
  8
0
 10
72.863567000000003
 20
39.917923000000002
 30
0.0
 11
72.863567000000003
 21
27.917922999999998
 31
0.0
  0
LINE
  5
7E
  8
0
 10
72.863567000000003
 20
39.917923000000002
 30
0.0
 11
71.863567000000003
 21
38.185871999999989
 31
0.0
  0
LINE
  5
7F
  8
0
 10
119.59356699999999
 20
39.917923000000002
 30
0.0
 11
120.59356699999999
 21
38.185871999999989
 31
0.0
  0
LINE
  5
80
  8
3
 10
120.14031799999999
 20
38.970922999999999
 30
0.0
 11
72.316817
 21
38.970922999999999
 31
0.0
  0
LINE
  5
81
  8
2
 10
71.863567000000003
 20
37.886673000000002
 30
0.0
 11
73.768567000000004
 21
37.886673000000002
 31
0.0
  0
LINE
  5
82
  8
0
 10
70.593567000000007
 20
32.393923000000001
 30
0.0
 11
71.863567000000003
 21
33.663922999999997
 31
0.0
  0
LINE
  5
83
  8
2
 10
72.117567000000008
 20
33.917923000000002
 30
0.0
 11
71.863567000000003
 21
34.171923
 31
0.0
  0
LINE
  5
84
  8
0
 10
71.863567000000003
 20
31.123923000000001
 30
0.0
 11
70.593567000000007
 21
32.393923000000001
 31
0.0
  0
LINE
  5
85
  8
2
 10
71.863567000000003
 20
36.711922999999999
 30
0.0
 11
72.117567000000008
 21
36.965922999999997
 31
0.0
  0
LINE
  5
86
  8
2
 10
73.768567000000004
 20
37.886673000000002
 30
0.0
 11
73.768567000000004
 21
29.949172999999998
 31
0.0
  0
LINE
  5
87
  8
3
 10
120.14031799999999
 20
28.864923000000001
 30
0.0
 11
72.316817
 21
28.864923000000001
 31
0.0
  0
LINE
  5
88
  8
0
 10
119.59356699999999
 20
27.917922999999998
 30
0.0
 11
120.59356699999999
 21
29.649972999999999
 31
0.0
  0
LINE
  5
89
  8
0
 10
72.863567000000003
 20
27.917922999999998
 30
0.0
 11
71.863567000000003
 21
29.649972999999999
 31
0.0
  0
LINE
  5
8A
  8
0
 10
119.59356699999999
 20
27.917922999999998
 30
0.0
 11
72.863567000000003
 21
27.917922999999998
 31
0.0
  0
LINE
  5
8B
  8
0
 10
71.863567000000003
 20
36.711922999999999
 30
0.0
 11
70.593567000000007
 21
35.441923000000003
 31
0.0
  0
LINE
  5
8C
  8
2
 10
72.117567000000008
 20
33.917923000000002
 30
0.0
 11
71.863567000000003
 21
33.663922999999997
 31
0.0
  0
LINE
  5
8D
  8
0
 10
70.593567000000007
 20
35.441923000000003
 30
0.0
 11
71.863567000000003
 21
34.171923
 31
0.0
  0
LINE
  5
8E
  8
2
 10
72.117567000000008
 20
36.965922999999997
 30
0.0
 11
72.117567000000008
 21
37.886673000000002
 31
0.0
  0
LINE
  5
8F
  8
2
 10
72.117567000000008
 20
30.869923
 30
0.0
 11
72.117567000000008
 21
29.949172999999998
 31
0.0
  0
LINE
  5
90
  8
2
 10
71.863567000000003
 20
31.123923000000001
 30
0.0
 11
72.117567000000008
 21
30.869923
 31
0.0
  0
LINE
  5
91
  8
2
 10
71.863567000000003
 20
29.949172999999998
 30
0.0
 11
73.768567000000004
 21
29.949172999999998
 31
0.0
  0
LINE
  5
92
  8
2
 10
71.863567000000003
 20
108.472007
 30
0.0
 11
73.768567000000004
 21
108.472007
 31
0.0
  0
LINE
  5
93
  8
2
 10
71.863567000000003
 20
107.297257
 30
0.0
 11
72.117567000000008
 21
107.55125700000001
 31
0.0
  0
LINE
  5
94
  8
2
 10
72.117567000000008
 20
107.55125700000001
 30
0.0
 11
72.117567000000008
 21
108.472007
 31
0.0
  0
LINE
  5
95
  8
2
 10
72.117567000000008
 20
101.455257
 30
0.0
 11
72.117567000000008
 21
100.534507
 31
0.0
  0
LINE
  5
96
  8
0
 10
70.593567000000007
 20
102.979257
 30
0.0
 11
71.863567000000003
 21
104.249257
 31
0.0
  0
LINE
  5
97
  8
2
 10
72.117567000000008
 20
104.503257
 30
0.0
 11
71.863567000000003
 21
104.757257
 31
0.0
  0
LINE
  5
98
  8
0
 10
71.863567000000003
 20
101.70925699999999
 30
0.0
 11
70.593567000000007
 21
102.979257
 31
0.0
  0
LINE
  5
99
  8
0
 10
119.59356699999999
 20
110.503257
 30
0.0
 11
72.863567000000003
 21
110.503257
 31
0.0
  0
LINE
  5
9A
  8
0
 10
72.863567000000003
 20
110.503257
 30
0.0
 11
71.863567000000003
 21
108.771207
 31
0.0
  0
LINE
  5
9B
  8
0
 10
119.59356699999999
 20
110.503257
 30
0.0
 11
120.59356699999999
 21
108.771207
 31
0.0
  0
LINE
  5
9C
  8
3
 10
120.14031799999999
 20
109.556257
 30
0.0
 11
72.316817
 21
109.556257
 31
0.0
  0
LINE
  5
9D
  8
2
 10
73.768567000000004
 20
100.534507
 30
0.0
 11
73.768567000000004
 21
108.472007
 31
0.0
  0
LINE
  5
9E
  8
2
 10
71.863567000000003
 20
101.70925699999999
 30
0.0
 11
72.117567000000008
 21
101.455257
 31
0.0
  0
LINE
  5
9F
  8
0
 10
71.863567000000003
 20
107.297257
 30
0.0
 11
70.593567000000007
 21
106.02725700000001
 31
0.0
  0
LINE
  5
A0
  8
2
 10
72.117567000000008
 20
104.503257
 30
0.0
 11
71.863567000000003
 21
104.249257
 31
0.0
  0
LINE
  5
A1
  8
0
 10
70.593567000000007
 20
106.02725700000001
 30
0.0
 11
71.863567000000003
 21
104.757257
 31
0.0
  0
LINE
  5
A2
  8
2
 10
71.863567000000003
 20
100.534507
 30
0.0
 11
73.768567000000004
 21
100.534507
 31
0.0
  0
LINE
  5
A3
  8
3
 10
120.14031799999999
 20
99.450256999999993
 30
0.0
 11
72.316817
 21
99.450256999999993
 31
0.0
  0
LINE
  5
A4
  8
0
 10
119.59356699999999
 20
98.503256999999991
 30
0.0
 11
120.59356699999999
 21
100.235308
 31
0.0
  0
LINE
  5
A5
  8
0
 10
72.863567000000003
 20
98.503256999999991
 30
0.0
 11
71.863567000000003
 21
100.235308
 31
0.0
  0
LINE
  5
A6
  8
0
 10
72.863567000000003
 20
98.503256999999991
 30
0.0
 11
72.863567000000003
 21
110.503257
 31
0.0
  0
LINE
  5
A7
  8
0
 10
71.863567000000003
 20
100.235308
 30
0.0
 11
71.863567000000003
 21
108.771207
 31
0.0
  0
LINE
  5
A8
  8
0
 10
119.59356699999999
 20
98.503256999999991
 30
0.0
 11
119.59356699999999
 21
110.503257
 31
0.0
  0
LINE
  5
A9
  8
0
 10
119.59356699999999
 20
98.503256999999991
 30
0.0
 11
72.863567000000003
 21
98.503256999999991
 31
0.0
  0
LINE
  5
AA
  8
0
 10
120.59356699999999
 20
100.235308
 30
0.0
 11
120.59356699999999
 21
108.771207
 31
0.0
  0
LINE
  5
AB
  8
2
 10
115.59356699999999
 20
107.503257
 30
0.0
 11
113.59356699999999
 21
104.503257
 31
0.0
  0
LINE
  5
AC
  8
2
 10
120.59356699999999
 20
107.503257
 30
0.0
 11
115.59356699999999
 21
107.503257
 31
0.0
  0
LINE
  5
AD
  8
2
 10
115.59356699999999
 20
101.503257
 30
0.0
 11
113.59356699999999
 21
104.503257
 31
0.0
  0
LINE
  5
AE
  8
1
 10
68.093567000000007
 20
104.503257
 30
0.0
 11
123.09356699999999
 21
104.503257
 31
0.0
  0
LINE
  5
AF
  8
2
 10
120.59356699999999
 20
101.503257
 30
0.0
 11
115.59356699999999
 21
101.503257
 31
0.0
  0
LINE
  5
B0
  8
2
 10
120.59356699999999
 20
104.503257
 30
0.0
 11
115.59356699999999
 21
104.503257
 31
0.0
  0
LINE
  5
B1
  8
2
 10
115.59356699999999
 20
101.503257
 30
0.0
 11
115.59356699999999
 21
107.503257
 31
0.0
  0
TEXT
  5
1D0
  8
0
 62
     3
 10
0.0
 20
0.0
 30
0.0
 40
5.0
  1
PG-12175X50-4
  7
STANDARD1
  0
ENDSEC
  0
EOF
