  0
SECTION
  2
HEADER
  9
$ACADVER
  1
AC1009
  9
$INSBASE
 10
0.0
 20
0.0
 30
0.0
  9
$EXTMIN
 10
0.0
 20
-1.4802182810368341
 30
0.0
  9
$EXTMAX
 10
164.90928700000001
 20
107.927902
 30
0.0
  9
$LIMMIN
 10
0.0
 20
0.0
  9
$LIMMAX
 10
187.5
 20
135.0
  9
$ORTHOMODE
 70
     1
  9
$REGENMODE
 70
     1
  9
$FILLMODE
 70
     1
  9
$QTEXTMODE
 70
     0
  9
$MIRRTEXT
 70
     0
  9
$DRAGMODE
 70
     2
  9
$LTSCALE
 40
5.0
  9
$OSMODE
 70
  3071
  9
$ATTMODE
 70
     1
  9
$TEXTSIZE
 40
4.0
  9
$TRACEWID
 40
0.05
  9
$TEXTSTYLE
  7
STANDARD
  9
$CLAYER
  8
0
  9
$CELTYPE
  6
BYLAYER
  9
$CECOLOR
 62
   256
  9
$DIMSCALE
 40
0.5
  9
$DIMASZ
 40
3.0
  9
$DIMEXO
 40
2.0
  9
$DIMDLI
 40
10.0
  9
$DIMRND
 40
0.0
  9
$DIMDLE
 40
0.0
  9
$DIMEXE
 40
2.0
  9
$DIMTP
 40
0.0
  9
$DIMTM
 40
0.0
  9
$DIMTXT
 40
3.2000000000000002
  9
$DIMCEN
 40
0.09
  9
$DIMTSZ
 40
0.0
  9
$DIMTOL
 70
     0
  9
$DIMLIM
 70
     0
  9
$DIMTIH
 70
     0
  9
$DIMTOH
 70
     0
  9
$DIMSE1
 70
     0
  9
$DIMSE2
 70
     0
  9
$DIMTAD
 70
     1
  9
$DIMZIN
 70
     0
  9
$DIMBLK
  1

  9
$DIMASO
 70
     0
  9
$DIMSHO
 70
     0
  9
$DIMPOST
  1

  9
$DIMAPOST
  1

  9
$DIMALT
 70
     0
  9
$DIMALTD
 70
     2
  9
$DIMALTF
 40
25.399999999999999
  9
$DIMLFAC
 40
1.0
  9
$DIMTOFL
 70
     1
  9
$DIMTVP
 40
1.6000000000000001
  9
$DIMTIX
 70
     1
  9
$DIMSOXD
 70
     0
  9
$DIMSAH
 70
     0
  9
$DIMBLK1
  1

  9
$DIMBLK2
  1

  9
$DIMSTYLE
  2
STANDARD
  9
$DIMCLRD
 70
     0
  9
$DIMCLRE
 70
     0
  9
$DIMCLRT
 70
     0
  9
$DIMTFAC
 40
1.0
  9
$DIMGAP
 40
0.09
  9
$LUNITS
 70
     2
  9
$LUPREC
 70
     4
  9
$SKETCHINC
 40
0.1
  9
$FILLETRAD
 40
0.0
  9
$AUNITS
 70
     0
  9
$AUPREC
 70
     0
  9
$MENU
  1
E:\r13\win\SUPPORT\ACAD
  9
$ELEVATION
 40
0.0
  9
$PELEVATION
 40
0.0
  9
$THICKNESS
 40
0.0
  9
$LIMCHECK
 70
     0
  9
$BLIPMODE
 70
     0
  9
$CHAMFERA
 40
0.0
  9
$CHAMFERB
 40
0.0
  9
$SKPOLY
 70
     0
  9
$TDCREATE
 40
2449840.5952546299
  9
$TDUPDATE
 40
2456597.718566447
  9
$TDINDWG
 40
0.0002547917
  9
$TDUSRTIMER
 40
0.0002547917
  9
$USRTIMER
 70
     1
  9
$ANGBASE
 50
0.0
  9
$ANGDIR
 70
     0
  9
$PDMODE
 70
     0
  9
$PDSIZE
 40
0.0
  9
$PLINEWID
 40
0.0
  9
$COORDS
 70
     1
  9
$SPLFRAME
 70
     0
  9
$SPLINETYPE
 70
     6
  9
$SPLINESEGS
 70
     8
  9
$ATTDIA
 70
     0
  9
$ATTREQ
 70
     1
  9
$HANDLING
 70
     1
  9
$HANDSEED
  5
26F
  9
$SURFTAB1
 70
     6
  9
$SURFTAB2
 70
     6
  9
$SURFTYPE
 70
     6
  9
$SURFU
 70
     6
  9
$SURFV
 70
     6
  9
$UCSNAME
  2

  9
$UCSORG
 10
0.0
 20
0.0
 30
0.0
  9
$UCSXDIR
 10
1.0
 20
0.0
 30
0.0
  9
$UCSYDIR
 10
0.0
 20
1.0
 30
0.0
  9
$PUCSNAME
  2

  9
$PUCSORG
 10
0.0
 20
0.0
 30
0.0
  9
$PUCSXDIR
 10
1.0
 20
0.0
 30
0.0
  9
$PUCSYDIR
 10
0.0
 20
1.0
 30
0.0
  9
$USERI1
 70
     0
  9
$USERI2
 70
     1
  9
$USERI3
 70
     0
  9
$USERI4
 70
     0
  9
$USERI5
 70
     0
  9
$USERR1
 40
0.0
  9
$USERR2
 40
0.0
  9
$USERR3
 40
0.0
  9
$USERR4
 40
0.0
  9
$USERR5
 40
0.0
  9
$WORLDVIEW
 70
     1
  9
$SHADEDGE
 70
     3
  9
$SHADEDIF
 70
    70
  9
$TILEMODE
 70
     1
  9
$MAXACTVP
 70
    16
  9
$PLIMCHECK
 70
     0
  9
$PEXTMIN
 10
1.0000000000000000E+020
 20
1.0000000000000000E+020
 30
1.0000000000000000E+020
  9
$PEXTMAX
 10
-1.0000000000000000E+020
 20
-1.0000000000000000E+020
 30
-1.0000000000000000E+020
  9
$PLIMMIN
 10
0.0
 20
0.0
  9
$PLIMMAX
 10
12.0
 20
9.0
  9
$UNITMODE
 70
     0
  9
$VISRETAIN
 70
     0
  9
$PLINEGEN
 70
     0
  9
$PSLTSCALE
 70
     0
  0
ENDSEC
  0
SECTION
  2
TABLES
  0
TABLE
  2
VPORT
 70
     1
  0
VPORT
  2
*ACTIVE
 70
     0
 10
0.0
 20
0.0
 11
1.0
 21
1.0
 12
93.747139195326156
 22
67.05183146954721
 13
0.0
 23
0.0
 14
5.0
 24
5.0
 15
5.0
 25
5.0
 16
0.0
 26
0.0
 36
1.0
 17
0.0
 27
0.0
 37
0.0
 40
138.6470298934976
 41
2.304913294797688
 42
50.0
 43
0.0
 44
0.0
 50
0.0
 51
0.0
 71
     0
 72
   100
 73
     1
 74
     0
 75
     0
 76
     0
 77
     0
 78
     0
  0
ENDTAB
  0
TABLE
  2
LTYPE
 70
     4
  0
LTYPE
  2
CONTINUOUS
 70
     0
  3
Solid Line
 72
    65
 73
     0
 40
0.0
  0
LTYPE
  2
CENTER
 70
     0
  3
____ _ ____ _ ____ _ ____ _ ____ _ ____ _ ____
 72
    65
 73
     4
 40
2.0
 49
1.25
 49
-0.25
 49
0.25
 49
-0.25
  0
LTYPE
  2
HIDDEN
 70
     0
  3
_ _ _ _ _ _ _ _ _ _ _ _ _ _ _ _ _ _ _ _ _ _ _
 72
    65
 73
     2
 40
0.375
 49
0.25
 49
-0.125
  0
LTYPE
  2
PHANTOM2
 70
     0
  3
___ _ _ ___ _ _ ___ _ _ ___ _ _
 72
    65
 73
     6
 40
1.25
 49
0.625
 49
-0.125
 49
0.125
 49
-0.125
 49
0.125
 49
-0.125
  0
ENDTAB
  0
TABLE
  2
LAYER
 70
     5
  0
LAYER
  2
0
 70
     0
 62
     7
  6
CONTINUOUS
  0
LAYER
  2
1
 70
     0
 62
     1
  6
CENTER
  0
LAYER
  2
2
 70
     0
 62
     2
  6
HIDDEN
  0
LAYER
  2
3
 70
     0
 62
     3
  6
CONTINUOUS
  0
LAYER
  2
4
 70
     0
 62
     4
  6
CONTINUOUS
  0
ENDTAB
  0
TABLE
  2
STYLE
 70
     2
  0
STYLE
  2
STANDARD
 70
     0
 40
0.0
 41
1.0
 50
0.0
 71
     0
 42
4.0
  3
TXT
  4
BIGFONT
  0
STYLE
  2
STANDARD1
 70
     0
 40
0.0
 41
1.0
 50
0.0
 71
     0
 42
3.0
  3
txt
  4

  0
ENDTAB
  0
TABLE
  2
VIEW
 70
     1
  0
VIEW
  2
ALL
 70
     0
 40
135.0
 10
110.49579799999999
 20
67.5
 41
0.0
 11
0.0
 21
0.0
 31
1.0
 12
0.0
 22
0.0
 32
0.0
 42
0.0
 43
0.0
 44
0.0
 50
0.0
 71
     0
  0
ENDTAB
  0
TABLE
  2
UCS
 70
     0
  0
ENDTAB
  0
TABLE
  2
APPID
 70
     3
  0
APPID
  2
ACAD
 70
     0
  0
APPID
  2
ACAD_MLEADERVER
 70
     0
  0
APPID
  2
ACAD_NAV_VCDISPLAY
 70
     0
  0
ENDTAB
  0
TABLE
  2
DIMSTYLE
 70
     1
  0
DIMSTYLE
  2
STANDARD
 70
     0
  3

  4

  5

  6

  7

 40
1.0
 41
0.18
 42
0.0625
 43
0.38
 44
0.18
 45
0.0
 46
0.0
 47
0.0
 48
0.0
140
0.18
141
0.09
142
0.0
143
25.399999999999999
144
1.0
145
0.0
146
1.0
147
0.09
 71
     0
 72
     0
 73
     1
 74
     1
 75
     0
 76
     0
 77
     0
 78
     0
170
     0
171
     2
172
     0
173
     0
174
     0
175
     0
176
     0
177
     0
178
     0
  0
ENDTAB
  0
ENDSEC
  0
SECTION
  2
BLOCKS
  0
BLOCK
  8
0
  2
$MODEL_SPACE
 70
     0
 10
0.0
 20
0.0
 30
0.0
  3
$MODEL_SPACE
  1

  0
ENDBLK
  5
11F
  8
0
  0
BLOCK
 67
     1
  8
0
  2
$PAPER_SPACE
 70
     0
 10
0.0
 20
0.0
 30
0.0
  3
$PAPER_SPACE
  1

  0
ENDBLK
  5
11D
 67
     1
  8
0
  0
BLOCK
  8
4
  2
99
 70
     0
 10
160.0
 20
33.254173999999999
 30
0.0
  3
99
  1

  0
LINE
  5
2E
  8
2
 10
154.0
 20
29.254173999999999
 30
0.0
 11
151.33333300000001
 21
33.254173999999999
 31
0.0
  0
LINE
  5
2F
  8
2
 10
160.0
 20
29.254173999999999
 30
0.0
 11
154.0
 21
29.254173999999999
 31
0.0
  0
LINE
  5
30
  8
2
 10
154.0
 20
37.254173999999999
 30
0.0
 11
151.33333300000001
 21
33.254173999999999
 31
0.0
  0
LINE
  5
31
  8
2
 10
154.0
 20
37.254173999999999
 30
0.0
 11
154.0
 21
29.254173999999999
 31
0.0
  0
LINE
  5
32
  8
2
 10
160.0
 20
37.254173999999999
 30
0.0
 11
154.0
 21
37.254173999999999
 31
0.0
  0
LINE
  5
33
  8
2
 10
160.0
 20
33.254173999999999
 30
0.0
 11
154.0
 21
33.254173999999999
 31
0.0
  0
ENDBLK
  5
34
  8
4
  0
ENDSEC
  0
SECTION
  2
ENTITIES
  0
LINE
  5
40
  8
1
 10
154.40928700000001
 20
76.050306000000006
 30
0.0
 11
154.40928700000001
 21
55.050306000000013
 31
0.0
  0
LINE
  5
41
  8
1
 10
67.5
 20
65.550306000000006
 30
0.0
 11
122.5
 21
65.550306000000006
 31
0.0
  0
CIRCLE
  5
42
  8
0
 10
154.40928700000001
 20
65.550306000000006
 30
0.0
 40
8.0
  0
CIRCLE
  5
43
  8
3
 10
154.40928700000001
 20
65.550306000000006
 30
0.0
 40
6.9175000000000004
  0
LINE
  5
44
  8
0
 10
150.40928700000001
 20
67.859707
 30
0.0
 11
150.40928700000001
 21
63.240904999999998
 31
0.0
  0
LINE
  5
45
  8
0
 10
154.40928700000001
 20
70.169107999999994
 30
0.0
 11
150.40928700000001
 21
67.859707
 31
0.0
  0
LINE
  5
46
  8
0
 10
158.40928700000001
 20
67.859707
 30
0.0
 11
154.40928700000001
 21
70.169107999999994
 31
0.0
  0
LINE
  5
47
  8
0
 10
158.40928700000001
 20
63.240904999999998
 30
0.0
 11
158.40928700000001
 21
67.859707
 31
0.0
  0
LINE
  5
48
  8
0
 10
154.40928700000001
 20
60.931503999999997
 30
0.0
 11
158.40928700000001
 21
63.240904999999998
 31
0.0
  0
LINE
  5
49
  8
0
 10
150.40928700000001
 20
63.240904999999998
 30
0.0
 11
154.40928700000001
 21
60.931503999999997
 31
0.0
  0
LINE
  5
4A
  8
1
 10
143.90928700000001
 20
65.550306000000006
 30
0.0
 11
164.90928700000001
 21
65.550306000000006
 31
0.0
  0
LINE
  5
4B
  8
1
 10
24.5
 20
65.550306000000006
 30
0.0
 11
45.499999999999993
 21
65.550306000000006
 31
0.0
  0
CIRCLE
  5
4C
  8
3
 10
35.0
 20
65.550306000000006
 30
0.0
 40
6.9175000000000004
  0
CIRCLE
  5
4D
  8
0
 10
35.0
 20
65.550306000000006
 30
0.0
 40
8.0
  0
LINE
  5
4E
  8
1
 10
35.0
 20
76.050306000000006
 30
0.0
 11
35.0
 21
55.050306000000013
 31
0.0
  0
LINE
  5
4F
  8
3
 10
38.048000000000002
 20
68.598306000000008
 30
0.0
 11
31.952000000000002
 21
68.598306000000008
 31
0.0
  0
LINE
  5
50
  8
3
 10
38.048000000000002
 20
65.550306000000006
 30
0.0
 11
31.952000000000002
 21
65.550306000000006
 31
0.0
  0
LINE
  5
51
  8
3
 10
38.048000000000002
 20
62.502305999999997
 30
0.0
 11
31.952000000000002
 21
62.502305999999997
 31
0.0
  0
CIRCLE
  5
52
  8
0
 10
35.0
 20
65.550306000000006
 30
0.0
 40
5.5562500000000004
  0
LINE
  5
53
  8
3
 10
38.048000000000002
 20
68.598306000000008
 30
0.0
 11
38.048000000000002
 21
62.502305999999997
 31
0.0
  0
LINE
  5
54
  8
3
 10
35.0
 20
68.598306000000008
 30
0.0
 11
35.0
 21
62.502305999999997
 31
0.0
  0
LINE
  5
55
  8
3
 10
31.952000000000002
 20
68.598306000000008
 30
0.0
 11
31.952000000000002
 21
62.502305999999997
 31
0.0
  0
LINE
  5
56
  8
3
 10
38.048000000000002
 20
68.598306000000008
 30
0.0
 11
31.952000000000002
 21
62.502305999999997
 31
0.0
  0
LINE
  5
57
  8
3
 10
35.0
 20
68.598306000000008
 30
0.0
 11
31.952000000000002
 21
65.550306000000006
 31
0.0
  0
LINE
  5
58
  8
3
 10
38.048000000000002
 20
65.550306000000006
 30
0.0
 11
35.0
 21
62.502305999999997
 31
0.0
  0
LINE
  5
59
  8
3
 10
31.952000000000002
 20
68.598306000000008
 30
0.0
 11
38.048000000000002
 21
62.502305999999997
 31
0.0
  0
LINE
  5
5A
  8
3
 10
38.048000000000002
 20
65.550306000000006
 30
0.0
 11
35.0
 21
68.598306000000008
 31
0.0
  0
LINE
  5
5B
  8
3
 10
31.952000000000002
 20
65.550306000000006
 30
0.0
 11
35.0
 21
62.502305999999997
 31
0.0
  0
LINE
  5
5C
  8
1
 10
67.5
 20
31.172709999999999
 30
0.0
 11
122.5
 21
31.172709999999999
 31
0.0
  0
INSERT
  5
5D
  8
4
  2
99
 10
120.0
 20
31.172709999999999
 30
0.0
  0
LINE
  5
5E
  8
2
 10
71.269999999999996
 20
59.994056000000008
 30
0.0
 11
73.174999999999983
 21
59.994056000000008
 31
0.0
  0
LINE
  5
5F
  8
2
 10
71.269999999999996
 20
62.756306000000002
 30
0.0
 11
71.524000000000001
 21
62.502305999999997
 31
0.0
  0
LINE
  5
60
  8
2
 10
71.524000000000001
 20
62.502305999999997
 30
0.0
 11
71.524000000000001
 21
59.994056000000008
 31
0.0
  0
LINE
  5
61
  8
2
 10
71.524000000000001
 20
68.598306000000008
 30
0.0
 11
71.524000000000001
 21
71.106556000000012
 31
0.0
  0
LINE
  5
62
  8
0
 10
71.269999999999996
 20
65.296306000000001
 30
0.0
 11
70.0
 21
64.026306000000005
 31
0.0
  0
LINE
  5
63
  8
0
 10
70.0
 20
64.026306000000005
 30
0.0
 11
71.269999999999996
 21
62.756306000000002
 31
0.0
  0
LINE
  5
64
  8
2
 10
71.269999999999996
 20
68.344306000000003
 30
0.0
 11
71.524000000000001
 21
68.598306000000008
 31
0.0
  0
LINE
  5
65
  8
2
 10
71.524000000000001
 20
65.550306000000006
 30
0.0
 11
71.269999999999996
 21
65.804306000000011
 31
0.0
  0
LINE
  5
66
  8
2
 10
120.0
 20
60.931503999999997
 30
0.0
 11
114.0
 21
60.931503999999997
 31
0.0
  0
LINE
  5
67
  8
2
 10
120.0
 20
63.240904999999998
 30
0.0
 11
114.0
 21
63.240904999999998
 31
0.0
  0
LINE
  5
68
  8
0
 10
118.90000000000001
 20
57.550306000000013
 30
0.0
 11
72.370000000000005
 21
57.550306000000013
 31
0.0
  0
LINE
  5
69
  8
3
 10
119.52498199999999
 20
58.632806000000002
 30
0.0
 11
71.745018000000002
 21
58.632806000000002
 31
0.0
  0
LINE
  5
6A
  8
2
 10
71.524000000000001
 20
65.550306000000006
 30
0.0
 11
71.269999999999996
 21
65.296306000000001
 31
0.0
  0
LINE
  5
6B
  8
2
 10
114.0
 20
60.931503999999997
 30
0.0
 11
111.333333
 21
65.550306000000006
 31
0.0
  0
LINE
  5
6C
  8
0
 10
118.90000000000001
 20
57.550306000000013
 30
0.0
 11
120.0
 21
59.455562
 31
0.0
  0
LINE
  5
6D
  8
0
 10
72.370000000000005
 20
57.550306000000013
 30
0.0
 11
71.269999999999996
 21
59.455562
 31
0.0
  0
LINE
  5
6E
  8
2
 10
71.269999999999996
 20
71.106556000000012
 30
0.0
 11
73.174999999999983
 21
71.106556000000012
 31
0.0
  0
LINE
  5
6F
  8
0
 10
70.0
 20
67.074306000000007
 30
0.0
 11
71.269999999999996
 21
68.344306000000003
 31
0.0
  0
LINE
  5
70
  8
0
 10
72.370000000000005
 20
73.550306000000006
 30
0.0
 11
71.269999999999996
 21
71.645049999999998
 31
0.0
  0
LINE
  5
71
  8
0
 10
72.370000000000005
 20
73.550306000000006
 30
0.0
 11
72.370000000000005
 21
57.550306000000013
 31
0.0
  0
LINE
  5
72
  8
2
 10
73.174999999999983
 20
71.106556000000012
 30
0.0
 11
73.174999999999983
 21
59.994056000000008
 31
0.0
  0
LINE
  5
73
  8
0
 10
71.269999999999996
 20
71.645049999999998
 30
0.0
 11
71.269999999999996
 21
59.455562
 31
0.0
  0
LINE
  5
74
  8
0
 10
118.90000000000001
 20
73.550306000000006
 30
0.0
 11
120.0
 21
71.645049999999998
 31
0.0
  0
LINE
  5
75
  8
2
 10
114.0
 20
70.169107999999994
 30
0.0
 11
111.333333
 21
65.550306000000006
 31
0.0
  0
LINE
  5
76
  8
0
 10
71.269999999999996
 20
65.804306000000011
 30
0.0
 11
70.0
 21
67.074306000000007
 31
0.0
  0
LINE
  5
77
  8
3
 10
119.52498199999999
 20
72.46780600000001
 30
0.0
 11
71.745018000000002
 21
72.46780600000001
 31
0.0
  0
LINE
  5
78
  8
0
 10
118.90000000000001
 20
73.550306000000006
 30
0.0
 11
72.370000000000005
 21
73.550306000000006
 31
0.0
  0
LINE
  5
79
  8
2
 10
120.0
 20
67.859707
 30
0.0
 11
114.0
 21
67.859707
 31
0.0
  0
LINE
  5
7A
  8
2
 10
120.0
 20
70.169107999999994
 30
0.0
 11
114.0
 21
70.169107999999994
 31
0.0
  0
LINE
  5
7B
  8
2
 10
114.0
 20
70.169107999999994
 30
0.0
 11
114.0
 21
60.931503999999997
 31
0.0
  0
LINE
  5
7C
  8
0
 10
118.90000000000001
 20
73.550306000000006
 30
0.0
 11
118.90000000000001
 21
57.550306000000013
 31
0.0
  0
LINE
  5
7D
  8
0
 10
120.0
 20
71.645049999999998
 30
0.0
 11
120.0
 21
59.455562
 31
0.0
  0
LINE
  5
7E
  8
0
 10
120.0
 20
37.267454000000001
 30
0.0
 11
120.0
 21
25.077964999999999
 31
0.0
  0
LINE
  5
7F
  8
0
 10
118.90000000000001
 20
39.172709999999988
 30
0.0
 11
118.90000000000001
 21
23.172709999999999
 31
0.0
  0
LINE
  5
80
  8
0
 10
118.90000000000001
 20
39.172709999999988
 30
0.0
 11
72.370000000000005
 21
39.172709999999988
 31
0.0
  0
LINE
  5
81
  8
3
 10
119.52498199999999
 20
38.090209999999999
 30
0.0
 11
71.745018000000002
 21
38.090209999999999
 31
0.0
  0
LINE
  5
82
  8
0
 10
71.269999999999996
 20
31.42671
 30
0.0
 11
70.0
 21
32.696710000000003
 31
0.0
  0
LINE
  5
83
  8
0
 10
118.90000000000001
 20
39.172709999999988
 30
0.0
 11
120.0
 21
37.267454000000001
 31
0.0
  0
LINE
  5
84
  8
0
 10
71.269999999999996
 20
37.267454000000001
 30
0.0
 11
71.269999999999996
 21
25.077964999999999
 31
0.0
  0
LINE
  5
85
  8
2
 10
73.174999999999983
 20
36.728960000000001
 30
0.0
 11
73.174999999999983
 21
25.61646
 31
0.0
  0
LINE
  5
86
  8
0
 10
72.370000000000005
 20
39.172709999999988
 30
0.0
 11
72.370000000000005
 21
23.172709999999999
 31
0.0
  0
LINE
  5
87
  8
0
 10
72.370000000000005
 20
39.172709999999988
 30
0.0
 11
71.269999999999996
 21
37.267454000000001
 31
0.0
  0
LINE
  5
88
  8
0
 10
70.0
 20
32.696710000000003
 30
0.0
 11
71.269999999999996
 21
33.966709999999999
 31
0.0
  0
LINE
  5
89
  8
2
 10
71.269999999999996
 20
36.728960000000001
 30
0.0
 11
73.174999999999983
 21
36.728960000000001
 31
0.0
  0
LINE
  5
8A
  8
0
 10
72.370000000000005
 20
23.172709999999999
 30
0.0
 11
71.269999999999996
 21
25.077964999999999
 31
0.0
  0
LINE
  5
8B
  8
0
 10
118.90000000000001
 20
23.172709999999999
 30
0.0
 11
120.0
 21
25.077964999999999
 31
0.0
  0
LINE
  5
8C
  8
2
 10
71.524000000000001
 20
31.172709999999999
 30
0.0
 11
71.269999999999996
 21
30.918710000000001
 31
0.0
  0
LINE
  5
8D
  8
3
 10
119.52498199999999
 20
24.255210000000002
 30
0.0
 11
71.745018000000002
 21
24.255210000000002
 31
0.0
  0
LINE
  5
8E
  8
0
 10
118.90000000000001
 20
23.172709999999999
 30
0.0
 11
72.370000000000005
 21
23.172709999999999
 31
0.0
  0
LINE
  5
8F
  8
2
 10
71.524000000000001
 20
31.172709999999999
 30
0.0
 11
71.269999999999996
 21
31.42671
 31
0.0
  0
LINE
  5
90
  8
2
 10
71.269999999999996
 20
33.966709999999999
 30
0.0
 11
71.524000000000001
 21
34.220709999999997
 31
0.0
  0
LINE
  5
91
  8
0
 10
70.0
 20
29.648710000000001
 30
0.0
 11
71.269999999999996
 21
28.378710000000002
 31
0.0
  0
LINE
  5
92
  8
0
 10
71.269999999999996
 20
30.918710000000001
 30
0.0
 11
70.0
 21
29.648710000000001
 31
0.0
  0
LINE
  5
93
  8
2
 10
71.524000000000001
 20
34.220709999999997
 30
0.0
 11
71.524000000000001
 21
36.728960000000001
 31
0.0
  0
LINE
  5
94
  8
2
 10
71.524000000000001
 20
28.12471
 30
0.0
 11
71.524000000000001
 21
25.61646
 31
0.0
  0
LINE
  5
95
  8
2
 10
71.269999999999996
 20
28.378710000000002
 30
0.0
 11
71.524000000000001
 21
28.12471
 31
0.0
  0
LINE
  5
96
  8
2
 10
71.269999999999996
 20
25.61646
 30
0.0
 11
73.174999999999983
 21
25.61646
 31
0.0
  0
LINE
  5
97
  8
2
 10
71.269999999999996
 20
105.48415199999999
 30
0.0
 11
73.174999999999983
 21
105.48415199999999
 31
0.0
  0
LINE
  5
98
  8
2
 10
71.269999999999996
 20
102.721902
 30
0.0
 11
71.524000000000001
 21
102.975902
 31
0.0
  0
LINE
  5
99
  8
2
 10
71.524000000000001
 20
102.975902
 30
0.0
 11
71.524000000000001
 21
105.48415199999999
 31
0.0
  0
LINE
  5
9A
  8
2
 10
71.524000000000001
 20
96.879902000000016
 30
0.0
 11
71.524000000000001
 21
94.371651999999997
 31
0.0
  0
LINE
  5
9B
  8
0
 10
71.269999999999996
 20
100.18190199999999
 30
0.0
 11
70.0
 21
101.451902
 31
0.0
  0
LINE
  5
9C
  8
0
 10
70.0
 20
101.451902
 30
0.0
 11
71.269999999999996
 21
102.721902
 31
0.0
  0
LINE
  5
9D
  8
2
 10
71.269999999999996
 20
97.133902000000006
 30
0.0
 11
71.524000000000001
 21
96.879902000000016
 31
0.0
  0
LINE
  5
9E
  8
2
 10
71.524000000000001
 20
99.927902000000003
 30
0.0
 11
71.269999999999996
 21
99.673901999999998
 31
0.0
  0
LINE
  5
9F
  8
0
 10
118.90000000000001
 20
107.927902
 30
0.0
 11
72.370000000000005
 21
107.927902
 31
0.0
  0
LINE
  5
A0
  8
3
 10
119.52498199999999
 20
106.84540200000001
 30
0.0
 11
71.745018000000002
 21
106.84540200000001
 31
0.0
  0
LINE
  5
A1
  8
2
 10
71.524000000000001
 20
99.927902000000003
 30
0.0
 11
71.269999999999996
 21
100.18190199999999
 31
0.0
  0
LINE
  5
A2
  8
0
 10
118.90000000000001
 20
107.927902
 30
0.0
 11
120.0
 21
106.02264599999999
 31
0.0
  0
LINE
  5
A3
  8
0
 10
72.370000000000005
 20
107.927902
 30
0.0
 11
71.269999999999996
 21
106.02264599999999
 31
0.0
  0
LINE
  5
A4
  8
2
 10
71.269999999999996
 20
94.371651999999997
 30
0.0
 11
73.174999999999983
 21
94.371651999999997
 31
0.0
  0
LINE
  5
A5
  8
0
 10
70.0
 20
98.403902000000016
 30
0.0
 11
71.269999999999996
 21
97.133902000000006
 31
0.0
  0
LINE
  5
A6
  8
0
 10
72.370000000000005
 20
91.927902000000003
 30
0.0
 11
71.269999999999996
 21
93.833157999999997
 31
0.0
  0
LINE
  5
A7
  8
0
 10
72.370000000000005
 20
91.927902000000003
 30
0.0
 11
72.370000000000005
 21
107.927902
 31
0.0
  0
LINE
  5
A8
  8
2
 10
73.174999999999983
 20
94.371651999999997
 30
0.0
 11
73.174999999999983
 21
105.48415199999999
 31
0.0
  0
LINE
  5
A9
  8
0
 10
71.269999999999996
 20
93.833157999999997
 30
0.0
 11
71.269999999999996
 21
106.02264599999999
 31
0.0
  0
LINE
  5
AA
  8
0
 10
118.90000000000001
 20
91.927902000000003
 30
0.0
 11
120.0
 21
93.833157999999997
 31
0.0
  0
LINE
  5
AB
  8
0
 10
71.269999999999996
 20
99.673901999999998
 30
0.0
 11
70.0
 21
98.403902000000016
 31
0.0
  0
LINE
  5
AC
  8
3
 10
119.52498199999999
 20
93.010401999999999
 30
0.0
 11
71.745018000000002
 21
93.010401999999999
 31
0.0
  0
LINE
  5
AD
  8
0
 10
118.90000000000001
 20
91.927902000000003
 30
0.0
 11
72.370000000000005
 21
91.927902000000003
 31
0.0
  0
LINE
  5
AE
  8
0
 10
118.90000000000001
 20
91.927902000000003
 30
0.0
 11
118.90000000000001
 21
107.927902
 31
0.0
  0
LINE
  5
AF
  8
0
 10
120.0
 20
93.833157999999997
 30
0.0
 11
120.0
 21
106.02264599999999
 31
0.0
  0
INSERT
  5
B0
  8
4
  2
99
 10
120.0
 20
99.927902000000003
 30
0.0
 41
-1.0
 50
180.0
  0
LINE
  5
B1
  8
1
 10
67.5
 20
99.927902000000003
 30
0.0
 11
122.5
 21
99.927902000000003
 31
0.0
  0
TEXT
  5
1D4
  8
0
 62
     3
 10
0.0
 20
0.0
 30
0.0
 40
5.0
  1
PG-16200X50-4
  7
STANDARD1
  0
ENDSEC
  0
EOF
