  0
SECTION
  2
HEADER
  9
$ACADVER
  1
AC1009
  9
$INSBASE
 10
0.0
 20
0.0
 30
0.0
  9
$EXTMIN
 10
0.0
 20
-1.4802182810368341
 30
0.0
  9
$EXTMAX
 10
150.738687
 20
119.320875
 30
0.0
  9
$LIMMIN
 10
0.0
 20
0.0
  9
$LIMMAX
 10
187.5
 20
135.0
  9
$ORTHOMODE
 70
     1
  9
$REGENMODE
 70
     1
  9
$FILLMODE
 70
     1
  9
$QTEXTMODE
 70
     0
  9
$MIRRTEXT
 70
     0
  9
$DRAGMODE
 70
     2
  9
$LTSCALE
 40
5.0
  9
$OSMODE
 70
  3071
  9
$ATTMODE
 70
     1
  9
$TEXTSIZE
 40
4.0
  9
$TRACEWID
 40
0.05
  9
$TEXTSTYLE
  7
STANDARD
  9
$CLAYER
  8
0
  9
$CELTYPE
  6
BYLAYER
  9
$CECOLOR
 62
   256
  9
$DIMSCALE
 40
0.5
  9
$DIMASZ
 40
3.0
  9
$DIMEXO
 40
2.0
  9
$DIMDLI
 40
10.0
  9
$DIMRND
 40
0.0
  9
$DIMDLE
 40
0.0
  9
$DIMEXE
 40
2.0
  9
$DIMTP
 40
0.0
  9
$DIMTM
 40
0.0
  9
$DIMTXT
 40
3.2000000000000002
  9
$DIMCEN
 40
0.09
  9
$DIMTSZ
 40
0.0
  9
$DIMTOL
 70
     0
  9
$DIMLIM
 70
     0
  9
$DIMTIH
 70
     0
  9
$DIMTOH
 70
     0
  9
$DIMSE1
 70
     0
  9
$DIMSE2
 70
     0
  9
$DIMTAD
 70
     1
  9
$DIMZIN
 70
     0
  9
$DIMBLK
  1

  9
$DIMASO
 70
     0
  9
$DIMSHO
 70
     0
  9
$DIMPOST
  1

  9
$DIMAPOST
  1

  9
$DIMALT
 70
     0
  9
$DIMALTD
 70
     2
  9
$DIMALTF
 40
25.399999999999999
  9
$DIMLFAC
 40
1.0
  9
$DIMTOFL
 70
     1
  9
$DIMTVP
 40
1.6000000000000001
  9
$DIMTIX
 70
     1
  9
$DIMSOXD
 70
     0
  9
$DIMSAH
 70
     0
  9
$DIMBLK1
  1

  9
$DIMBLK2
  1

  9
$DIMSTYLE
  2
STANDARD
  9
$DIMCLRD
 70
     0
  9
$DIMCLRE
 70
     0
  9
$DIMCLRT
 70
     0
  9
$DIMTFAC
 40
1.0
  9
$DIMGAP
 40
0.09
  9
$LUNITS
 70
     2
  9
$LUPREC
 70
     4
  9
$SKETCHINC
 40
0.1
  9
$FILLETRAD
 40
0.0
  9
$AUNITS
 70
     0
  9
$AUPREC
 70
     0
  9
$MENU
  1
E:\r13\win\SUPPORT\ACAD
  9
$ELEVATION
 40
0.0
  9
$PELEVATION
 40
0.0
  9
$THICKNESS
 40
0.0
  9
$LIMCHECK
 70
     0
  9
$BLIPMODE
 70
     0
  9
$CHAMFERA
 40
0.0
  9
$CHAMFERB
 40
0.0
  9
$SKPOLY
 70
     0
  9
$TDCREATE
 40
2449840.5953240739
  9
$TDUPDATE
 40
2456597.718581852
  9
$TDINDWG
 40
0.0002013889
  9
$TDUSRTIMER
 40
0.0002013889
  9
$USRTIMER
 70
     1
  9
$ANGBASE
 50
0.0
  9
$ANGDIR
 70
     0
  9
$PDMODE
 70
     0
  9
$PDSIZE
 40
0.0
  9
$PLINEWID
 40
0.0
  9
$COORDS
 70
     1
  9
$SPLFRAME
 70
     0
  9
$SPLINETYPE
 70
     6
  9
$SPLINESEGS
 70
     8
  9
$ATTDIA
 70
     0
  9
$ATTREQ
 70
     1
  9
$HANDLING
 70
     1
  9
$HANDSEED
  5
26F
  9
$SURFTAB1
 70
     6
  9
$SURFTAB2
 70
     6
  9
$SURFTYPE
 70
     6
  9
$SURFU
 70
     6
  9
$SURFV
 70
     6
  9
$UCSNAME
  2

  9
$UCSORG
 10
0.0
 20
0.0
 30
0.0
  9
$UCSXDIR
 10
1.0
 20
0.0
 30
0.0
  9
$UCSYDIR
 10
0.0
 20
1.0
 30
0.0
  9
$PUCSNAME
  2

  9
$PUCSORG
 10
0.0
 20
0.0
 30
0.0
  9
$PUCSXDIR
 10
1.0
 20
0.0
 30
0.0
  9
$PUCSYDIR
 10
0.0
 20
1.0
 30
0.0
  9
$USERI1
 70
     0
  9
$USERI2
 70
     1
  9
$USERI3
 70
     0
  9
$USERI4
 70
     0
  9
$USERI5
 70
     0
  9
$USERR1
 40
0.0
  9
$USERR2
 40
0.0
  9
$USERR3
 40
0.0
  9
$USERR4
 40
0.0
  9
$USERR5
 40
0.0
  9
$WORLDVIEW
 70
     1
  9
$SHADEDGE
 70
     3
  9
$SHADEDIF
 70
    70
  9
$TILEMODE
 70
     1
  9
$MAXACTVP
 70
    16
  9
$PLIMCHECK
 70
     0
  9
$PEXTMIN
 10
1.0000000000000000E+020
 20
1.0000000000000000E+020
 30
1.0000000000000000E+020
  9
$PEXTMAX
 10
-1.0000000000000000E+020
 20
-1.0000000000000000E+020
 30
-1.0000000000000000E+020
  9
$PLIMMIN
 10
0.0
 20
0.0
  9
$PLIMMAX
 10
12.0
 20
9.0
  9
$UNITMODE
 70
     0
  9
$VISRETAIN
 70
     0
  9
$PLINEGEN
 70
     0
  9
$PSLTSCALE
 70
     0
  0
ENDSEC
  0
SECTION
  2
TABLES
  0
TABLE
  2
VPORT
 70
     1
  0
VPORT
  2
*ACTIVE
 70
     0
 10
0.0
 20
0.0
 11
1.0
 21
1.0
 12
93.747139195326156
 22
67.05183146954721
 13
0.0
 23
0.0
 14
5.0
 24
5.0
 15
5.0
 25
5.0
 16
0.0
 26
0.0
 36
1.0
 17
0.0
 27
0.0
 37
0.0
 40
138.6470298934976
 41
2.304913294797688
 42
50.0
 43
0.0
 44
0.0
 50
0.0
 51
0.0
 71
     0
 72
   100
 73
     1
 74
     0
 75
     0
 76
     0
 77
     0
 78
     0
  0
ENDTAB
  0
TABLE
  2
LTYPE
 70
     4
  0
LTYPE
  2
CONTINUOUS
 70
     0
  3
Solid Line
 72
    65
 73
     0
 40
0.0
  0
LTYPE
  2
CENTER
 70
     0
  3
____ _ ____ _ ____ _ ____ _ ____ _ ____ _ ____
 72
    65
 73
     4
 40
2.0
 49
1.25
 49
-0.25
 49
0.25
 49
-0.25
  0
LTYPE
  2
HIDDEN
 70
     0
  3
_ _ _ _ _ _ _ _ _ _ _ _ _ _ _ _ _ _ _ _ _ _ _
 72
    65
 73
     2
 40
0.375
 49
0.25
 49
-0.125
  0
LTYPE
  2
PHANTOM2
 70
     0
  3
___ _ _ ___ _ _ ___ _ _ ___ _ _
 72
    65
 73
     6
 40
1.25
 49
0.625
 49
-0.125
 49
0.125
 49
-0.125
 49
0.125
 49
-0.125
  0
ENDTAB
  0
TABLE
  2
LAYER
 70
     5
  0
LAYER
  2
0
 70
     0
 62
     7
  6
CONTINUOUS
  0
LAYER
  2
1
 70
     0
 62
     1
  6
CENTER
  0
LAYER
  2
2
 70
     0
 62
     2
  6
HIDDEN
  0
LAYER
  2
3
 70
     0
 62
     3
  6
CONTINUOUS
  0
LAYER
  2
4
 70
     0
 62
     4
  6
CONTINUOUS
  0
ENDTAB
  0
TABLE
  2
STYLE
 70
     2
  0
STYLE
  2
STANDARD
 70
     0
 40
0.0
 41
1.0
 50
0.0
 71
     0
 42
4.0
  3
TXT
  4
BIGFONT
  0
STYLE
  2
STANDARD1
 70
     0
 40
0.0
 41
1.0
 50
0.0
 71
     0
 42
3.0
  3
txt
  4

  0
ENDTAB
  0
TABLE
  2
VIEW
 70
     1
  0
VIEW
  2
ALL
 70
     0
 40
135.0
 10
110.49579799999999
 20
67.5
 41
0.0
 11
0.0
 21
0.0
 31
1.0
 12
0.0
 22
0.0
 32
0.0
 42
0.0
 43
0.0
 44
0.0
 50
0.0
 71
     0
  0
ENDTAB
  0
TABLE
  2
UCS
 70
     0
  0
ENDTAB
  0
TABLE
  2
APPID
 70
     3
  0
APPID
  2
ACAD
 70
     0
  0
APPID
  2
ACAD_MLEADERVER
 70
     0
  0
APPID
  2
ACAD_NAV_VCDISPLAY
 70
     0
  0
ENDTAB
  0
TABLE
  2
DIMSTYLE
 70
     1
  0
DIMSTYLE
  2
STANDARD
 70
     0
  3

  4

  5

  6

  7

 40
1.0
 41
0.18
 42
0.0625
 43
0.38
 44
0.18
 45
0.0
 46
0.0
 47
0.0
 48
0.0
140
0.18
141
0.09
142
0.0
143
25.399999999999999
144
1.0
145
0.0
146
1.0
147
0.09
 71
     0
 72
     0
 73
     1
 74
     1
 75
     0
 76
     0
 77
     0
 78
     0
170
     0
171
     2
172
     0
173
     0
174
     0
175
     0
176
     0
177
     0
178
     0
  0
ENDTAB
  0
ENDSEC
  0
SECTION
  2
BLOCKS
  0
BLOCK
  8
0
  2
$MODEL_SPACE
 70
     0
 10
0.0
 20
0.0
 30
0.0
  3
$MODEL_SPACE
  1

  0
ENDBLK
  5
11F
  8
0
  0
BLOCK
 67
     1
  8
0
  2
$PAPER_SPACE
 70
     0
 10
0.0
 20
0.0
 30
0.0
  3
$PAPER_SPACE
  1

  0
ENDBLK
  5
11D
 67
     1
  8
0
  0
BLOCK
  8
4
  2
66
 70
     0
 10
150.0
 20
38.744599999999998
 30
0.0
  3
66
  1

  0
LINE
  5
2E
  8
2
 10
142.0
 20
33.744599999999998
 30
0.0
 11
138.66666699999999
 21
38.744599999999998
 31
0.0
  0
LINE
  5
2F
  8
2
 10
150.0
 20
33.744599999999998
 30
0.0
 11
142.0
 21
33.744599999999998
 31
0.0
  0
LINE
  5
30
  8
2
 10
142.0
 20
43.744599999999998
 30
0.0
 11
138.66666699999999
 21
38.744599999999998
 31
0.0
  0
LINE
  5
31
  8
2
 10
142.0
 20
33.744599999999998
 30
0.0
 11
142.0
 21
43.744599999999998
 31
0.0
  0
LINE
  5
32
  8
2
 10
150.0
 20
43.744599999999998
 30
0.0
 11
142.0
 21
43.744599999999998
 31
0.0
  0
LINE
  5
33
  8
2
 10
150.0
 20
38.744599999999998
 30
0.0
 11
142.0
 21
38.744599999999998
 31
0.0
  0
ENDBLK
  5
34
  8
4
  0
ENDSEC
  0
SECTION
  2
ENTITIES
  0
LINE
  5
40
  8
1
 10
138.238687
 20
83.358350000000016
 30
0.0
 11
138.238687
 21
58.358350000000002
 31
0.0
  0
LINE
  5
41
  8
1
 10
77.5
 20
70.858350000000002
 30
0.0
 11
107.5
 21
70.858350000000002
 31
0.0
  0
CIRCLE
  5
42
  8
0
 10
138.238687
 20
70.858350000000002
 30
0.0
 40
10.0
  0
CIRCLE
  5
43
  8
3
 10
138.238687
 20
70.858350000000002
 30
0.0
 40
8.6470000000000002
  0
LINE
  5
44
  8
1
 10
125.738687
 20
70.858350000000002
 30
0.0
 11
150.738687
 21
70.858350000000002
 31
0.0
  0
LINE
  5
45
  8
0
 10
133.238687
 20
73.745101000000005
 30
0.0
 11
133.238687
 21
67.971598
 31
0.0
  0
LINE
  5
46
  8
0
 10
138.238687
 20
76.631851999999995
 30
0.0
 11
133.238687
 21
73.745101000000005
 31
0.0
  0
LINE
  5
47
  8
0
 10
143.238687
 20
73.745101000000005
 30
0.0
 11
138.238687
 21
76.631851999999995
 31
0.0
  0
LINE
  5
48
  8
0
 10
143.238687
 20
67.971598
 30
0.0
 11
143.238687
 21
73.745101000000005
 31
0.0
  0
LINE
  5
49
  8
0
 10
138.238687
 20
65.084846999999996
 30
0.0
 11
143.238687
 21
67.971598
 31
0.0
  0
LINE
  5
4A
  8
0
 10
133.238687
 20
67.971598
 30
0.0
 11
138.238687
 21
65.084846999999996
 31
0.0
  0
LINE
  5
4B
  8
1
 10
32.5
 20
70.858350000000002
 30
0.0
 11
57.5
 21
70.858350000000002
 31
0.0
  0
CIRCLE
  5
4C
  8
3
 10
45.0
 20
70.858350000000002
 30
0.0
 40
8.6470000000000002
  0
CIRCLE
  5
4D
  8
0
 10
45.0
 20
70.858350000000002
 30
0.0
 40
10.0
  0
LINE
  5
4E
  8
1
 10
45.0
 20
83.358350000000016
 30
0.0
 11
45.0
 21
58.358350000000002
 31
0.0
  0
LINE
  5
4F
  8
3
 10
48.048000000000002
 20
73.906350000000003
 30
0.0
 11
41.951999999999991
 21
73.906350000000003
 31
0.0
  0
LINE
  5
50
  8
3
 10
48.048000000000002
 20
70.858350000000002
 30
0.0
 11
41.951999999999991
 21
70.858350000000002
 31
0.0
  0
LINE
  5
51
  8
3
 10
48.048000000000002
 20
67.81035
 30
0.0
 11
41.951999999999991
 21
67.81035
 31
0.0
  0
CIRCLE
  5
52
  8
0
 10
45.0
 20
70.858350000000002
 30
0.0
 40
6.3499999999999988
  0
LINE
  5
53
  8
3
 10
48.048000000000002
 20
73.906350000000003
 30
0.0
 11
48.048000000000002
 21
67.81035
 31
0.0
  0
LINE
  5
54
  8
3
 10
45.0
 20
73.906350000000003
 30
0.0
 11
45.0
 21
67.81035
 31
0.0
  0
LINE
  5
55
  8
3
 10
41.951999999999991
 20
73.906350000000003
 30
0.0
 11
41.951999999999991
 21
67.81035
 31
0.0
  0
LINE
  5
56
  8
3
 10
48.048000000000002
 20
73.906350000000003
 30
0.0
 11
41.951999999999991
 21
67.81035
 31
0.0
  0
LINE
  5
57
  8
3
 10
41.951999999999991
 20
70.858350000000002
 30
0.0
 11
45.0
 21
73.906350000000003
 31
0.0
  0
LINE
  5
58
  8
3
 10
48.048000000000002
 20
70.858350000000002
 30
0.0
 11
45.0
 21
67.81035
 31
0.0
  0
LINE
  5
59
  8
3
 10
41.951999999999991
 20
73.906350000000003
 30
0.0
 11
48.048000000000002
 21
67.81035
 31
0.0
  0
LINE
  5
5A
  8
3
 10
48.048000000000002
 20
70.858350000000002
 30
0.0
 11
45.0
 21
73.906350000000003
 31
0.0
  0
LINE
  5
5B
  8
3
 10
41.951999999999991
 20
70.858350000000002
 30
0.0
 11
45.0
 21
67.81035
 31
0.0
  0
LINE
  5
5C
  8
1
 10
77.5
 20
32.395823999999998
 30
0.0
 11
107.5
 21
32.395823999999998
 31
0.0
  0
INSERT
  5
5D
  8
4
  2
66
 10
105.0
 20
32.395823999999998
 30
0.0
  0
LINE
  5
5E
  8
2
 10
83.174999999999997
 20
64.508349999999993
 30
0.0
 11
81.269999999999996
 21
64.508349999999993
 31
0.0
  0
LINE
  5
5F
  8
2
 10
81.269999999999996
 20
68.064350000000005
 30
0.0
 11
81.524000000000001
 21
67.81035
 31
0.0
  0
LINE
  5
60
  8
2
 10
81.524000000000001
 20
67.81035
 30
0.0
 11
81.524000000000001
 21
64.508349999999993
 31
0.0
  0
LINE
  5
61
  8
2
 10
81.524000000000001
 20
73.906350000000003
 30
0.0
 11
81.524000000000001
 21
77.208349999999996
 31
0.0
  0
LINE
  5
62
  8
0
 10
81.269999999999996
 20
70.604349999999997
 30
0.0
 11
80.0
 21
69.334350000000001
 31
0.0
  0
LINE
  5
63
  8
0
 10
80.0
 20
69.334350000000001
 30
0.0
 11
81.269999999999996
 21
68.064350000000005
 31
0.0
  0
LINE
  5
64
  8
2
 10
81.269999999999996
 20
73.652349999999998
 30
0.0
 11
81.524000000000001
 21
73.906350000000003
 31
0.0
  0
LINE
  5
65
  8
2
 10
81.524000000000001
 20
70.858350000000002
 30
0.0
 11
81.269999999999996
 21
71.112350000000006
 31
0.0
  0
LINE
  5
66
  8
0
 10
103.8
 20
60.858350000000002
 30
0.0
 11
82.469999999999985
 21
60.858350000000002
 31
0.0
  0
LINE
  5
67
  8
3
 10
104.581155
 20
62.211350000000003
 30
0.0
 11
81.688845000000001
 21
62.211350000000003
 31
0.0
  0
LINE
  5
68
  8
2
 10
81.524000000000001
 20
70.858350000000002
 30
0.0
 11
81.269999999999996
 21
70.604349999999997
 31
0.0
  0
LINE
  5
69
  8
0
 10
103.8
 20
60.858350000000002
 30
0.0
 11
105.0
 21
62.936810999999999
 31
0.0
  0
LINE
  5
6A
  8
0
 10
82.469999999999985
 20
60.858350000000002
 30
0.0
 11
81.269999999999996
 21
62.936810999999999
 31
0.0
  0
LINE
  5
6B
  8
2
 10
105.0
 20
65.084846999999996
 30
0.0
 11
97.0
 21
65.084846999999996
 31
0.0
  0
LINE
  5
6C
  8
2
 10
97.0
 20
65.084846999999996
 30
0.0
 11
93.666667000000004
 21
70.858350000000002
 31
0.0
  0
LINE
  5
6D
  8
2
 10
105.0
 20
67.971598
 30
0.0
 11
97.0
 21
67.971598
 31
0.0
  0
LINE
  5
6E
  8
2
 10
105.0
 20
73.745101000000005
 30
0.0
 11
97.0
 21
73.745101000000005
 31
0.0
  0
LINE
  5
6F
  8
2
 10
97.0
 20
76.631851999999995
 30
0.0
 11
93.666667000000004
 21
70.858350000000002
 31
0.0
  0
LINE
  5
70
  8
2
 10
105.0
 20
76.631851999999995
 30
0.0
 11
97.0
 21
76.631851999999995
 31
0.0
  0
LINE
  5
71
  8
2
 10
83.174999999999997
 20
77.208349999999996
 30
0.0
 11
81.269999999999996
 21
77.208349999999996
 31
0.0
  0
LINE
  5
72
  8
0
 10
80.0
 20
72.382350000000002
 30
0.0
 11
81.269999999999996
 21
73.652349999999998
 31
0.0
  0
LINE
  5
73
  8
0
 10
82.469999999999985
 20
80.858350000000016
 30
0.0
 11
81.269999999999996
 21
78.779888999999997
 31
0.0
  0
LINE
  5
74
  8
0
 10
82.469999999999985
 20
60.858350000000002
 30
0.0
 11
82.469999999999985
 21
80.858350000000016
 31
0.0
  0
LINE
  5
75
  8
0
 10
103.8
 20
80.858350000000016
 30
0.0
 11
105.0
 21
78.779888999999997
 31
0.0
  0
LINE
  5
76
  8
2
 10
83.174999999999997
 20
64.508349999999993
 30
0.0
 11
83.174999999999997
 21
77.208349999999996
 31
0.0
  0
LINE
  5
77
  8
0
 10
81.269999999999996
 20
62.936810999999999
 30
0.0
 11
81.269999999999996
 21
78.779888999999997
 31
0.0
  0
LINE
  5
78
  8
0
 10
81.269999999999996
 20
71.112350000000006
 30
0.0
 11
80.0
 21
72.382350000000002
 31
0.0
  0
LINE
  5
79
  8
2
 10
97.0
 20
65.084846999999996
 30
0.0
 11
97.0
 21
76.631851999999995
 31
0.0
  0
LINE
  5
7A
  8
0
 10
103.8
 20
60.858350000000002
 30
0.0
 11
103.8
 21
80.858350000000016
 31
0.0
  0
LINE
  5
7B
  8
3
 10
104.581155
 20
79.505350000000007
 30
0.0
 11
81.688845000000001
 21
79.505350000000007
 31
0.0
  0
LINE
  5
7C
  8
0
 10
103.8
 20
80.858350000000016
 30
0.0
 11
82.469999999999985
 21
80.858350000000016
 31
0.0
  0
LINE
  5
7D
  8
0
 10
105.0
 20
62.936810999999999
 30
0.0
 11
105.0
 21
78.779888999999997
 31
0.0
  0
LINE
  5
7E
  8
0
 10
105.0
 20
24.474284999999998
 30
0.0
 11
105.0
 21
40.317363
 31
0.0
  0
LINE
  5
7F
  8
0
 10
103.8
 20
42.39582399999999
 30
0.0
 11
82.469999999999985
 21
42.39582399999999
 31
0.0
  0
LINE
  5
80
  8
3
 10
104.581155
 20
41.042823999999989
 30
0.0
 11
81.688845000000001
 21
41.042823999999989
 31
0.0
  0
LINE
  5
81
  8
0
 10
103.8
 20
22.395824000000001
 30
0.0
 11
103.8
 21
42.39582399999999
 31
0.0
  0
LINE
  5
82
  8
0
 10
81.269999999999996
 20
32.649824000000002
 30
0.0
 11
80.0
 21
33.919823999999998
 31
0.0
  0
LINE
  5
83
  8
0
 10
81.269999999999996
 20
24.474284999999998
 30
0.0
 11
81.269999999999996
 21
40.317363
 31
0.0
  0
LINE
  5
84
  8
2
 10
83.174999999999997
 20
26.045824
 30
0.0
 11
83.174999999999997
 21
38.745823999999999
 31
0.0
  0
LINE
  5
85
  8
0
 10
103.8
 20
42.39582399999999
 30
0.0
 11
105.0
 21
40.317363
 31
0.0
  0
LINE
  5
86
  8
0
 10
82.469999999999985
 20
22.395824000000001
 30
0.0
 11
82.469999999999985
 21
42.39582399999999
 31
0.0
  0
LINE
  5
87
  8
0
 10
82.469999999999985
 20
42.39582399999999
 30
0.0
 11
81.269999999999996
 21
40.317363
 31
0.0
  0
LINE
  5
88
  8
0
 10
80.0
 20
33.919823999999998
 30
0.0
 11
81.269999999999996
 21
35.189824000000002
 31
0.0
  0
LINE
  5
89
  8
2
 10
83.174999999999997
 20
38.745823999999999
 30
0.0
 11
81.269999999999996
 21
38.745823999999999
 31
0.0
  0
LINE
  5
8A
  8
0
 10
82.469999999999985
 20
22.395824000000001
 30
0.0
 11
81.269999999999996
 21
24.474284999999998
 31
0.0
  0
LINE
  5
8B
  8
0
 10
103.8
 20
22.395824000000001
 30
0.0
 11
105.0
 21
24.474284999999998
 31
0.0
  0
LINE
  5
8C
  8
2
 10
81.524000000000001
 20
32.395823999999998
 30
0.0
 11
81.269999999999996
 21
32.141824
 31
0.0
  0
LINE
  5
8D
  8
3
 10
104.581155
 20
23.748823999999999
 30
0.0
 11
81.688845000000001
 21
23.748823999999999
 31
0.0
  0
LINE
  5
8E
  8
0
 10
103.8
 20
22.395824000000001
 30
0.0
 11
82.469999999999985
 21
22.395824000000001
 31
0.0
  0
LINE
  5
8F
  8
2
 10
81.524000000000001
 20
32.395823999999998
 30
0.0
 11
81.269999999999996
 21
32.649824000000002
 31
0.0
  0
LINE
  5
90
  8
2
 10
81.269999999999996
 20
35.189824000000002
 30
0.0
 11
81.524000000000001
 21
35.443823999999999
 31
0.0
  0
LINE
  5
91
  8
0
 10
80.0
 20
30.871824
 30
0.0
 11
81.269999999999996
 21
29.601824000000001
 31
0.0
  0
LINE
  5
92
  8
0
 10
81.269999999999996
 20
32.141824
 30
0.0
 11
80.0
 21
30.871824
 31
0.0
  0
LINE
  5
93
  8
2
 10
81.524000000000001
 20
35.443823999999999
 30
0.0
 11
81.524000000000001
 21
38.745823999999999
 31
0.0
  0
LINE
  5
94
  8
2
 10
81.524000000000001
 20
29.347823999999999
 30
0.0
 11
81.524000000000001
 21
26.045824
 31
0.0
  0
LINE
  5
95
  8
2
 10
81.269999999999996
 20
29.601824000000001
 30
0.0
 11
81.524000000000001
 21
29.347823999999999
 31
0.0
  0
LINE
  5
96
  8
2
 10
83.174999999999997
 20
26.045824
 30
0.0
 11
81.269999999999996
 21
26.045824
 31
0.0
  0
LINE
  5
97
  8
2
 10
83.174999999999997
 20
115.670875
 30
0.0
 11
81.269999999999996
 21
115.670875
 31
0.0
  0
LINE
  5
98
  8
2
 10
81.269999999999996
 20
112.114875
 30
0.0
 11
81.524000000000001
 21
112.368875
 31
0.0
  0
LINE
  5
99
  8
2
 10
81.524000000000001
 20
112.368875
 30
0.0
 11
81.524000000000001
 21
115.670875
 31
0.0
  0
LINE
  5
9A
  8
2
 10
81.524000000000001
 20
106.272875
 30
0.0
 11
81.524000000000001
 21
102.97087500000001
 31
0.0
  0
LINE
  5
9B
  8
0
 10
81.269999999999996
 20
109.57487500000001
 30
0.0
 11
80.0
 21
110.844875
 31
0.0
  0
LINE
  5
9C
  8
0
 10
80.0
 20
110.844875
 30
0.0
 11
81.269999999999996
 21
112.114875
 31
0.0
  0
LINE
  5
9D
  8
2
 10
81.269999999999996
 20
106.526875
 30
0.0
 11
81.524000000000001
 21
106.272875
 31
0.0
  0
LINE
  5
9E
  8
2
 10
81.524000000000001
 20
109.320875
 30
0.0
 11
81.269999999999996
 21
109.066875
 31
0.0
  0
LINE
  5
9F
  8
0
 10
103.8
 20
119.320875
 30
0.0
 11
82.469999999999985
 21
119.320875
 31
0.0
  0
LINE
  5
A0
  8
3
 10
104.581155
 20
117.96787500000001
 30
0.0
 11
81.688845000000001
 21
117.96787500000001
 31
0.0
  0
LINE
  5
A1
  8
2
 10
81.524000000000001
 20
109.320875
 30
0.0
 11
81.269999999999996
 21
109.57487500000001
 31
0.0
  0
LINE
  5
A2
  8
0
 10
103.8
 20
119.320875
 30
0.0
 11
105.0
 21
117.242414
 31
0.0
  0
LINE
  5
A3
  8
0
 10
82.469999999999985
 20
119.320875
 30
0.0
 11
81.269999999999996
 21
117.242414
 31
0.0
  0
LINE
  5
A4
  8
2
 10
83.174999999999997
 20
102.97087500000001
 30
0.0
 11
81.269999999999996
 21
102.97087500000001
 31
0.0
  0
LINE
  5
A5
  8
0
 10
80.0
 20
107.796875
 30
0.0
 11
81.269999999999996
 21
106.526875
 31
0.0
  0
LINE
  5
A6
  8
0
 10
82.469999999999985
 20
99.320875000000015
 30
0.0
 11
81.269999999999996
 21
101.39933600000001
 31
0.0
  0
LINE
  5
A7
  8
0
 10
82.469999999999985
 20
119.320875
 30
0.0
 11
82.469999999999985
 21
99.320875000000015
 31
0.0
  0
LINE
  5
A8
  8
0
 10
103.8
 20
99.320875000000015
 30
0.0
 11
105.0
 21
101.39933600000001
 31
0.0
  0
LINE
  5
A9
  8
2
 10
83.174999999999997
 20
115.670875
 30
0.0
 11
83.174999999999997
 21
102.97087500000001
 31
0.0
  0
LINE
  5
AA
  8
0
 10
81.269999999999996
 20
117.242414
 30
0.0
 11
81.269999999999996
 21
101.39933600000001
 31
0.0
  0
LINE
  5
AB
  8
0
 10
81.269999999999996
 20
109.066875
 30
0.0
 11
80.0
 21
107.796875
 31
0.0
  0
LINE
  5
AC
  8
0
 10
103.8
 20
119.320875
 30
0.0
 11
103.8
 21
99.320875000000015
 31
0.0
  0
LINE
  5
AD
  8
3
 10
104.581155
 20
100.673875
 30
0.0
 11
81.688845000000001
 21
100.673875
 31
0.0
  0
LINE
  5
AE
  8
0
 10
105.0
 20
117.242414
 30
0.0
 11
105.0
 21
101.39933600000001
 31
0.0
  0
INSERT
  5
AF
  8
4
  2
66
 10
105.0
 20
109.320875
 30
0.0
 41
-1.0
 50
180.0
  0
LINE
  5
B0
  8
1
 10
77.5
 20
109.320875
 30
0.0
 11
107.5
 21
109.320875
 31
0.0
  0
LINE
  5
B1
  8
0
 10
103.8
 20
99.320875000000015
 30
0.0
 11
82.469999999999985
 21
99.320875000000015
 31
0.0
  0
TEXT
  5
1D4
  8
0
 62
     3
 10
0.0
 20
0.0
 30
0.0
 40
5.0
  1
PG-20250-4
  7
STANDARD1
  0
ENDSEC
  0
EOF
