  0
SECTION
  2
HEADER
  9
$ACADVER
  1
AC1009
  9
$INSBASE
 10
0.0
 20
0.0
 30
0.0
  9
$EXTMIN
 10
0.0
 20
-2.960436562073669
 30
0.0
  9
$EXTMAX
 10
328.5
 20
205.7767310713537938
 30
0.0
  9
$LIMMIN
 10
0.0
 20
0.0
  9
$LIMMAX
 10
375.0
 20
270.0
  9
$ORTHOMODE
 70
     1
  9
$REGENMODE
 70
     1
  9
$FILLMODE
 70
     1
  9
$QTEXTMODE
 70
     0
  9
$MIRRTEXT
 70
     0
  9
$DRAGMODE
 70
     2
  9
$LTSCALE
 40
10.0
  9
$OSMODE
 70
    37
  9
$ATTMODE
 70
     1
  9
$TEXTSIZE
 40
0.2
  9
$TRACEWID
 40
0.05
  9
$TEXTSTYLE
  7
STANDARD
  9
$CLAYER
  8
DEFPOINTS
  9
$CELTYPE
  6
BYLAYER
  9
$CECOLOR
 62
   256
  9
$DIMSCALE
 40
1.0
  9
$DIMASZ
 40
3.0
  9
$DIMEXO
 40
2.0
  9
$DIMDLI
 40
0.38
  9
$DIMRND
 40
0.0
  9
$DIMDLE
 40
0.0
  9
$DIMEXE
 40
2.0
  9
$DIMTP
 40
0.0
  9
$DIMTM
 40
0.0
  9
$DIMTXT
 40
3.2000000000000002
  9
$DIMCEN
 40
0.0
  9
$DIMTSZ
 40
0.0
  9
$DIMTOL
 70
     0
  9
$DIMLIM
 70
     0
  9
$DIMTIH
 70
     0
  9
$DIMTOH
 70
     0
  9
$DIMSE1
 70
     0
  9
$DIMSE2
 70
     0
  9
$DIMTAD
 70
     1
  9
$DIMZIN
 70
     0
  9
$DIMBLK
  1

  9
$DIMASO
 70
     1
  9
$DIMSHO
 70
     0
  9
$DIMPOST
  1

  9
$DIMAPOST
  1

  9
$DIMALT
 70
     0
  9
$DIMALTD
 70
     2
  9
$DIMALTF
 40
25.3999999999999986
  9
$DIMLFAC
 40
1.0
  9
$DIMTOFL
 70
     1
  9
$DIMTVP
 40
1.6000000000000001
  9
$DIMTIX
 70
     1
  9
$DIMSOXD
 70
     0
  9
$DIMSAH
 70
     0
  9
$DIMBLK1
  1

  9
$DIMBLK2
  1

  9
$DIMSTYLE
  2
STANDARD
  9
$DIMCLRD
 70
     0
  9
$DIMCLRE
 70
     0
  9
$DIMCLRT
 70
     0
  9
$DIMTFAC
 40
1.0
  9
$DIMGAP
 40
0.09
  9
$LUNITS
 70
     2
  9
$LUPREC
 70
     8
  9
$SKETCHINC
 40
0.1
  9
$FILLETRAD
 40
0.0
  9
$AUNITS
 70
     0
  9
$AUPREC
 70
     8
  9
$MENU
  1
E:\r13\win\SUPPORT\ACAD
  9
$ELEVATION
 40
0.0
  9
$PELEVATION
 40
0.0
  9
$THICKNESS
 40
0.0
  9
$LIMCHECK
 70
     0
  9
$BLIPMODE
 70
     0
  9
$CHAMFERA
 40
0.0
  9
$CHAMFERB
 40
0.0
  9
$SKPOLY
 70
     0
  9
$TDCREATE
 40
2449840.6315162042155862
  9
$TDUPDATE
 40
2460151.4372569448314607
  9
$TDINDWG
 40
0.0825228935
  9
$TDUSRTIMER
 40
0.0825228935
  9
$USRTIMER
 70
     1
  9
$ANGBASE
 50
0.0
  9
$ANGDIR
 70
     0
  9
$PDMODE
 70
     0
  9
$PDSIZE
 40
0.0
  9
$PLINEWID
 40
0.0
  9
$COORDS
 70
     1
  9
$SPLFRAME
 70
     0
  9
$SPLINETYPE
 70
     6
  9
$SPLINESEGS
 70
     8
  9
$ATTDIA
 70
     1
  9
$ATTREQ
 70
     1
  9
$HANDLING
 70
     1
  9
$HANDSEED
  5
631
  9
$SURFTAB1
 70
     6
  9
$SURFTAB2
 70
     6
  9
$SURFTYPE
 70
     6
  9
$SURFU
 70
     6
  9
$SURFV
 70
     6
  9
$UCSNAME
  2

  9
$UCSORG
 10
0.0
 20
0.0
 30
0.0
  9
$UCSXDIR
 10
1.0
 20
0.0
 30
0.0
  9
$UCSYDIR
 10
0.0
 20
1.0
 30
0.0
  9
$PUCSNAME
  2

  9
$PUCSORG
 10
0.0
 20
0.0
 30
0.0
  9
$PUCSXDIR
 10
1.0
 20
0.0
 30
0.0
  9
$PUCSYDIR
 10
0.0
 20
1.0
 30
0.0
  9
$USERI1
 70
     0
  9
$USERI2
 70
     1
  9
$USERI3
 70
     1
  9
$USERI4
 70
     0
  9
$USERI5
 70
     0
  9
$USERR1
 40
0.0
  9
$USERR2
 40
0.0
  9
$USERR3
 40
0.0
  9
$USERR4
 40
0.0
  9
$USERR5
 40
0.0
  9
$WORLDVIEW
 70
     1
  9
$SHADEDGE
 70
     3
  9
$SHADEDIF
 70
    70
  9
$TILEMODE
 70
     1
  9
$MAXACTVP
 70
    16
  9
$PLIMCHECK
 70
     0
  9
$PEXTMIN
 10
1.0000000000000000E+20
 20
1.0000000000000000E+20
 30
1.0000000000000000E+20
  9
$PEXTMAX
 10
-1.0000000000000000E+20
 20
-1.0000000000000000E+20
 30
-1.0000000000000000E+20
  9
$PLIMMIN
 10
0.0
 20
0.0
  9
$PLIMMAX
 10
12.0
 20
9.0
  9
$UNITMODE
 70
     0
  9
$VISRETAIN
 70
     0
  9
$PLINEGEN
 70
     0
  9
$PSLTSCALE
 70
     0
  0
ENDSEC
  0
SECTION
  2
TABLES
  0
TABLE
  2
VPORT
 70
     1
  0
VPORT
  2
*ACTIVE
 70
     0
 10
0.0
 20
0.0
 11
1.0
 21
1.0
 12
325.5853658536585726
 22
140.0
 13
0.0
 23
0.0
 14
10.0
 24
10.0
 15
10.0
 25
10.0
 16
0.0
 26
0.0
 36
1.0
 17
0.0
 27
0.0
 37
0.0
 40
280.0
 41
2.325609756097561
 42
50.0
 43
0.0
 44
0.0
 50
0.0
 51
0.0
 71
     0
 72
   500
 73
     1
 74
     0
 75
     0
 76
     0
 77
     0
 78
     2
  0
ENDTAB
  0
TABLE
  2
LTYPE
 70
     8
  0
LTYPE
  2
CONTINUOUS
 70
     0
  3
Solid Line
 72
    65
 73
     0
 40
0.0
  0
LTYPE
  2
CENTER
 70
     0
  3
____ _ ____ _ ____ _ ____ _ ____ _ ____ _ ____
 72
    65
 73
     4
 40
2.0
 49
1.25
 49
-0.25
 49
0.25
 49
-0.25
  0
LTYPE
  2
HIDDEN
 70
     0
  3
_ _ _ _ _ _ _ _ _ _ _ _ _ _ _ _ _ _ _ _ _ _ _
 72
    65
 73
     2
 40
0.375
 49
0.25
 49
-0.125
  0
LTYPE
  2
PHANTOM2
 70
     0
  3
Phantom (.5x) ___ _ _ ___ _ _ ___ _ _ ___ _ _
 72
    65
 73
     6
 40
1.25
 49
0.625
 49
-0.125
 49
0.125
 49
-0.125
 49
0.125
 49
-0.125
  0
LTYPE
  2
CENTER2
 70
     0
  3
Center (.5x) ___ _ ___ _ ___ _ ___ _ ___ _ ___
 72
    65
 73
     4
 40
1.125
 49
0.75
 49
-0.125
 49
0.125
 49
-0.125
  0
LTYPE
  2
HIDDEN2
 70
     0
  3
Hidden (.5x) _ _ _ _ _ _ _ _ _ _ _ _ _ _ _ _ _
 72
    65
 73
     2
 40
0.1875
 49
0.125
 49
-0.0625
  0
LTYPE
  2
ACANSTGB
 70
     0
  3
__ . . __ . .
 72
    65
 73
     6
 40
0.35433070866
 49
0.15748031496
 49
-0.03937007874
 49
0.03937007874
 49
-0.03937007874
 49
0.03937007874
 49
-0.03937007874
  0
LTYPE
  2
ACANSTGL
 70
     0
  3
_ _ _ _ _
 72
    65
 73
     2
 40
0.11811023622
 49
0.07874015748
 49
-0.03937007874
  0
ENDTAB
  0
TABLE
  2
LAYER
 70
     5
  0
LAYER
  2
0
 70
     0
 62
     7
  6
CONTINUOUS
  0
LAYER
  2
1
 70
     0
 62
     1
  6
CENTER
  0
LAYER
  2
2
 70
     0
 62
     2
  6
HIDDEN
  0
LAYER
  2
3
 70
     0
 62
     3
  6
CONTINUOUS
  0
LAYER
  2
DEFPOINTS
 70
     0
 62
     7
  6
CONTINUOUS
  0
ENDTAB
  0
TABLE
  2
STYLE
 70
     3
  0
STYLE
  2
STANDARD
 70
     0
 40
0.0
 41
1.0
 50
0.0
 71
     0
 42
0.2
  3
TXT
  4
BIGFONT
  0
STYLE
  2
STANDARD1
 70
     0
 40
0.0
 41
1.0
 50
0.0
 71
     0
 42
3.0
  3
txt
  4

  0
STYLE
  2
ACANSGDT
 70
     0
 40
0.0
 41
1.0
 50
0.0
 71
     0
 42
0.2
  3
amgdt.shx
  4

  0
ENDTAB
  0
TABLE
  2
VIEW
 70
     1
  0
VIEW
  2
ALL
 70
     0
 40
270.0
 10
220.9915966386554942
 20
135.0
 41
0.0
 11
0.0
 21
0.0
 31
1.0
 12
0.0
 22
0.0
 32
0.0
 42
0.0
 43
0.0
 44
0.0
 50
0.0
 71
     0
  0
ENDTAB
  0
TABLE
  2
UCS
 70
     0
  0
ENDTAB
  0
TABLE
  2
APPID
 70
    12
  0
APPID
  2
ACAD
 70
     0
  0
APPID
  2
ACAD_MLEADERVER
 70
     0
  0
APPID
  2
MCAD_NO_VIS
 70
     0
  0
APPID
  2
ACAD_TEMP_GRAPHIC
 70
     0
  0
APPID
  2
ACATTRIBSERVICES
 70
     0
  0
APPID
  2
DESIGNERASSEMBLIES
 70
     0
  0
APPID
  2
ACAD_DSTYLE_DIMJAG
 70
     0
  0
APPID
  2
ACAD_DSTYLE_DIMBREAK
 70
     0
  0
APPID
  2
ACAD_NAV_VCDISPLAY
 70
     0
  0
APPID
  2
ACAD_EXEMPT_FROM_CAD_STANDARDS
 70
     0
  0
APPID
  2
ACAD_TC
 70
     0
  0
APPID
  2
ACAD_DSTYLE_DIMRADIAL_EXTENSION
 70
     0
  0
ENDTAB
  0
TABLE
  2
DIMSTYLE
 70
     7
  0
DIMSTYLE
  2
STANDARD
 70
     0
  3

  4

  5

  6

  7

 40
1.0
 41
0.18
 42
0.0625
 43
0.38
 44
0.18
 45
0.0
 46
0.0
 47
0.0
 48
0.0
140
0.18
141
0.09
142
0.0
143
25.3999999999999986
144
1.0
145
0.0
146
1.0
147
0.09
 71
     0
 72
     0
 73
     1
 74
     1
 75
     0
 76
     0
 77
     0
 78
     0
170
     0
171
     2
172
     0
173
     0
174
     0
175
     0
176
     0
177
     0
178
     0
  0
DIMSTYLE
  2
AM_ANSI
 70
     0
  3

  4
mm
  5

  6

  7

 40
1.0
 41
0.12
 42
0.05
 43
0.5
 44
0.1
 45
0.0
 46
0.0
 47
0.1
 48
0.1
140
0.12
141
0.0
142
0.0
143
25.3999999999999986
144
1.0
145
0.0
146
0.71
147
0.06
 71
     0
 72
     0
 73
     1
 74
     1
 75
     0
 76
     0
 77
     0
 78
     7
170
     0
171
     2
172
     0
173
     0
174
     0
175
     0
176
   256
177
   256
178
     2
  0
DIMSTYLE
  2
AM_ANSI$3
 70
     0
  3

  4
mm
  5

  6

  7

 40
1.0
 41
0.12
 42
0.05
 43
0.5
 44
0.1
 45
0.0
 46
0.0
 47
0.1
 48
0.1
140
0.12
141
0.0
142
0.0
143
25.3999999999999986
144
1.0
145
0.0
146
0.71
147
0.06
 71
     0
 72
     0
 73
     1
 74
     1
 75
     0
 76
     0
 77
     0
 78
     7
170
     0
171
     2
172
     0
173
     0
174
     0
175
     0
176
   256
177
   256
178
     2
  0
DIMSTYLE
  2
AM_ANSI$4
 70
     0
  3

  4
mm
  5

  6

  7

 40
1.0
 41
0.12
 42
0.05
 43
0.5
 44
0.1
 45
0.0
 46
0.0
 47
0.1
 48
0.1
140
0.12
141
0.0
142
0.0
143
25.3999999999999986
144
1.0
145
0.0
146
0.71
147
0.06
 71
     0
 72
     0
 73
     1
 74
     1
 75
     0
 76
     0
 77
     0
 78
     7
170
     0
171
     2
172
     0
173
     0
174
     0
175
     0
176
   256
177
   256
178
     2
  0
DIMSTYLE
  2
AM_ANSI$7
 70
     0
  3

  4
mm
  5

  6

  7

 40
1.0
 41
0.12
 42
0.05
 43
0.5
 44
0.1
 45
0.0
 46
0.0
 47
0.1
 48
0.1
140
0.12
141
0.0
142
0.0
143
25.3999999999999986
144
1.0
145
0.0
146
0.71
147
0.06
 71
     0
 72
     0
 73
     1
 74
     1
 75
     0
 76
     0
 77
     0
 78
     7
170
     0
171
     2
172
     0
173
     0
174
     0
175
     0
176
   256
177
   256
178
     2
  0
DIMSTYLE
  2
AM_ANSI$SF
 70
     0
  3

  4
mm
  5

  6

  7

 40
1.0
 41
0.12
 42
0.05
 43
0.5
 44
0.1
 45
0.0
 46
0.0
 47
0.1
 48
0.1
140
0.12
141
0.0
142
0.0
143
25.3999999999999986
144
1.0
145
0.0
146
0.71
147
0.06
 71
     0
 72
     0
 73
     1
 74
     1
 75
     1
 76
     1
 77
     0
 78
     7
170
     0
171
     2
172
     0
173
     0
174
     0
175
     0
176
   256
177
   256
178
     2
  0
DIMSTYLE
  2
AM_ANSI$SH
 70
     0
  3

  4
mm
  5

  6
GENAXEH
  7

 40
1.0
 41
0.12
 42
0.05
 43
0.5
 44
0.1
 45
0.0
 46
0.0
 47
0.1
 48
0.1
140
0.12
141
0.0
142
0.0
143
25.3999999999999986
144
1.0
145
0.0
146
0.71
147
0.06
 71
     0
 72
     0
 73
     1
 74
     1
 75
     1
 76
     1
 77
     0
 78
     7
170
     0
171
     2
172
     0
173
     1
174
     0
175
     0
176
   256
177
   256
178
     2
  0
ENDTAB
  0
ENDSEC
  0
SECTION
  2
BLOCKS
  0
BLOCK
  8
0
  2
$MODEL_SPACE
 70
     0
 10
0.0
 20
0.0
 30
0.0
  3
$MODEL_SPACE
  1

  0
ENDBLK
  5
B8
  8
0
  0
BLOCK
 67
     1
  8
0
  2
$PAPER_SPACE
 70
     0
 10
0.0
 20
0.0
 30
0.0
  3
$PAPER_SPACE
  1

  0
ENDBLK
  5
B6
 67
     1
  8
0
  0
BLOCK
  8
0
  2
*U0
 70
     1
 10
0.0
 20
0.0
 30
0.0
  3
*U0
  1

  0
ENDBLK
  5
219
  8
0
  0
BLOCK
  8
0
  2
GENAXEH
 70
     0
 10
0.0
 20
0.0
 30
0.0
  3
GENAXEH
  1

  0
LINE
  5
243
  8
0
 10
-1.0
 20
0.0
 30
0.0
 11
1.0
 21
0.0
 31
0.0
  0
ENDBLK
  5
245
  8
0
  0
ENDSEC
  0
SECTION
  2
ENTITIES
  0
TEXT
  5
1A4
  8
0
 62
     3
 10
0.0
 20
0.0
 30
0.0
 40
10.0
  1
PH1-70N
  7
STANDARD1
  0
ARC
  5
381
  8
0
 10
95.1575719109368237
 20
126.9733452860527052
 30
0.0
 40
0.1999999999999995
 50
83.9999999999966889
 51
171.9999999999992042
  0
LINE
  5
382
  8
0
 10
94.7491443994580891
 20
125.5042918439537942
 30
0.0
 11
94.9595182971885095
 21
127.0011799062446016
 31
0.0
  0
ARC
  5
383
  8
0
 10
93.956929944464818
 20
125.6156303247219057
 30
0.0
 40
0.8000000000000035
 50
275.3323895382206956
 51
351.9999999999992042
  0
LINE
  5
384
  8
0
 10
92.3743467679174302
 20
124.6644389441739946
 30
0.0
 11
94.031276712382251
 21
124.8190924674293001
 31
0.0
  0
ARC
  5
385
  8
0
 10
92.3000000000000256
 20
125.4609768014666003
 30
0.0
 40
0.799999999999999
 50
180.0
 51
275.332389538219104
  0
LINE
  5
386
  8
0
 10
91.5000000000000284
 20
131.876592741764199
 30
0.0
 11
91.5000000000000284
 21
125.4609768014666003
 31
0.0
  0
ARC
  5
387
  8
0
 10
92.3000000000000256
 20
131.876592741764199
 30
0.0
 40
0.8
 50
100.0000000000000995
 51
180.0
  0
ARC
  5
388
  8
0
 10
106.5
 20
134.685063851390197
 30
0.0
 40
0.5
 50
0.0
 51
100.0000000000000995
  0
LINE
  5
389
  8
0
 10
106.4131759111665048
 20
135.1774677278962997
 30
0.0
 11
92.161081457866473
 21
132.6644389441740088
 31
0.0
  0
LINE
  5
38A
  8
0
 10
107.0
 20
126.4850638513901941
 30
0.0
 11
107.0
 21
134.685063851390197
 31
0.0
  0
LINE
  5
38B
  8
0
 10
95.1784776035903235
 20
127.1722496651263015
 30
0.0
 11
106.4477357683662007
 21
125.9878029037060969
 31
0.0
  0
ARC
  5
38C
  8
0
 10
106.5
 20
126.4850638513901941
 30
0.0
 40
0.5000000000000029
 50
264.0000000000014779
 51
0.0
  0
LINE
  5
396
  8
0
 10
252.5
 20
124.6609768014666031
 30
0.0
 11
252.5
 21
135.185063851390197
 31
0.0
  0
LINE
  5
397
  8
0
 10
167.5
 20
124.6609768014666031
 30
0.0
 11
167.5
 21
135.1850638513903107
 31
0.0
  0
LINE
  5
3A7
  8
0
 10
313.0
 20
126.4850638513901941
 30
0.0
 11
313.0
 21
134.685063851390197
 31
0.0
  0
ARC
  5
3A8
  8
0
 10
313.5
 20
134.685063851390197
 30
0.0
 40
0.5
 50
79.999999999999801
 51
180.0
  0
LINE
  5
3A9
  8
0
 10
313.5868240888335094
 20
135.1774677278962997
 30
0.0
 11
327.8389185421336265
 21
132.6644389441740088
 31
0.0
  0
LINE
  5
3AA
  8
0
 10
328.5
 20
131.876592741764199
 30
0.0
 11
328.5
 21
125.4609768014666003
 31
0.0
  0
ARC
  5
3AB
  8
0
 10
327.6999999999999886
 20
125.4609768014666003
 30
0.0
 40
0.8000000000000113
 50
264.6676104617807823
 51
0.0
  0
LINE
  5
3AC
  8
0
 10
327.6256532320825841
 20
124.6644389441739946
 30
0.0
 11
325.96872328761782
 21
124.8190924674293001
 31
0.0
  0
ARC
  5
3AD
  8
0
 10
326.0430700555352246
 20
125.6156303247219057
 30
0.0
 40
0.800000000000028
 50
188.0000000000007105
 51
264.6676104617793044
  0
LINE
  5
3AE
  8
0
 10
325.2508556005420246
 20
125.5042918439537942
 30
0.0
 11
325.040481702811519
 21
127.0011799062446016
 31
0.0
  0
ARC
  5
3AF
  8
0
 10
324.842428089063219
 20
126.9733452860527052
 30
0.0
 40
0.2000000000000027
 50
8.0000000000007976
 51
96.0000000000115961
  0
LINE
  5
3B0
  8
0
 10
324.8215223964097049
 20
127.1722496651263015
 30
0.0
 11
313.5522642316337851
 21
125.9878029037060969
 31
0.0
  0
ARC
  5
3B1
  8
0
 10
313.5
 20
126.4850638513901941
 30
0.0
 40
0.5000000000000032
 50
180.0
 51
276.0000000000001137
  0
ARC
  5
3B2
  8
0
 10
327.6999999999999886
 20
131.876592741764199
 30
0.0
 40
0.8000000000000113
 50
0.0
 51
79.999999999999801
  0
LINE
  5
3B4
  8
0
 10
252.5
 20
185.2767310713537938
 30
0.0
 11
167.5
 21
185.2767310713537938
 31
0.0
  0
LINE
  5
3B8
  8
0
 10
252.5
 20
185.2767310713537938
 30
0.0
 11
252.5
 21
200.7767310713537938
 31
0.0
  0
LINE
  5
3B9
  8
0
 10
167.5
 20
185.2767310713537938
 30
0.0
 11
167.5
 21
200.7767310713537938
 31
0.0
  0
LINE
  5
3BA
  8
0
 10
252.5
 20
200.7767310713539075
 30
0.0
 11
167.5
 21
200.7767310713537938
 31
0.0
  0
LINE
  5
3BE
  8
0
 10
252.5
 20
59.2267310713536332
 30
0.0
 11
167.5
 21
59.2267310713536403
 31
0.0
  0
LINE
  5
3C4
  8
0
 10
252.5
 20
62.4758754708116584
 30
0.0
 11
167.5
 21
62.4758754708116726
 31
0.0
  0
LINE
  5
3CA
  8
0
 10
252.5
 20
74.7267310713536403
 30
0.0
 11
167.5
 21
74.7267310713536403
 31
0.0
  0
LINE
  5
3CE
  8
0
 10
252.5
 20
62.9052086749439283
 30
0.0
 11
167.5
 21
62.9052086749439283
 31
0.0
  0
LINE
  5
3CF
  8
0
 10
252.5
 20
59.2267310713536403
 30
0.0
 11
252.5
 21
74.7267310713536403
 31
0.0
  0
LINE
  5
3D0
  8
0
 10
167.5
 20
59.2267310713536403
 30
0.0
 11
167.5
 21
74.7267310713536403
 31
0.0
  0
LINE
  5
3EF
  8
2
 10
252.5
 20
197.2422914554821034
 30
0.0
 11
167.5
 21
197.2422914554821034
 31
0.0
  0
CIRCLE
  5
3F7
  8
0
 10
175.0
 20
130.5850638513902027
 30
0.0
 40
1.399999999999999
  0
CIRCLE
  5
3F8
  8
3
 10
175.0
 20
130.5850638513902027
 30
0.0
 40
2.0
  0
LINE
  5
3F9
  8
1
 10
170.0
 20
130.5850638513902027
 30
0.0
 11
180.0
 21
130.5850638513902027
 31
0.0
  0
LINE
  5
3FA
  8
1
 10
175.0
 20
135.5850638513902027
 30
0.0
 11
175.0
 21
125.5850638513902027
 31
0.0
  0
CIRCLE
  5
3FD
  8
3
 10
245.0
 20
130.5850638513902027
 30
0.0
 40
2.0
  0
CIRCLE
  5
3FE
  8
0
 10
245.0
 20
130.5850638513902027
 30
0.0
 40
1.399999999999999
  0
LINE
  5
3FF
  8
1
 10
210.0
 20
140.185063851390197
 30
0.0
 11
210.0
 21
119.6609768014666031
 31
0.0
  0
LINE
  5
409
  8
2
 10
323.5
 20
129.1850638513865874
 30
0.0
 11
324.3082903768706728
 21
130.5850638513902027
 31
0.0
  0
LINE
  5
40A
  8
2
 10
323.5
 20
131.9850638513989907
 30
0.0
 11
324.3082903768706728
 21
130.5850638513902027
 31
0.0
  0
LINE
  5
40B
  8
2
 10
314.0209999999960928
 20
129.1850638513865874
 30
0.0
 11
313.0
 21
128.1640638513904094
 31
0.0
  0
LINE
  5
40C
  8
2
 10
314.0209999999909769
 20
131.9850638513989054
 30
0.0
 11
314.0209999999960928
 21
129.1850638513865874
 31
0.0
  0
LINE
  5
40D
  8
2
 10
323.5
 20
131.9850638513989907
 30
0.0
 11
323.5
 21
129.1850638513865874
 31
0.0
  0
LINE
  5
40E
  8
2
 10
321.0
 20
132.5850638513902027
 30
0.0
 11
321.0
 21
128.5850638513902027
 31
0.0
  0
LINE
  5
40F
  8
2
 10
313.0
 20
133.0060638513899107
 30
0.0
 11
314.0209999999909769
 21
131.9850638513989907
 31
0.0
  0
LINE
  5
410
  8
2
 10
313.4209999999997081
 20
132.5850638513902027
 30
0.0
 11
321.0
 21
132.5850638513902027
 31
0.0
  0
LINE
  5
411
  8
2
 10
314.0209999999909769
 20
131.9850638513989907
 30
0.0
 11
323.5
 21
131.9850638513989907
 31
0.0
  0
LINE
  5
412
  8
2
 10
313.4209999999997081
 20
128.5850638513902027
 30
0.0
 11
321.0
 21
128.5850638513902027
 31
0.0
  0
LINE
  5
413
  8
2
 10
314.0209999999960928
 20
129.1850638513865874
 30
0.0
 11
323.5
 21
129.1850638513865874
 31
0.0
  0
LINE
  5
414
  8
1
 10
327.3082903768706728
 20
130.5850638513902027
 30
0.0
 11
310.0
 21
130.5850638513902027
 31
0.0
  0
LINE
  5
415
  8
1
 10
92.691709623129384
 20
130.5850638513902027
 30
0.0
 11
110.0
 21
130.5850638513902027
 31
0.0
  0
LINE
  5
416
  8
2
 10
105.979000000003893
 20
129.1850638513865874
 30
0.0
 11
96.4999999999999858
 21
129.1850638513865874
 31
0.0
  0
LINE
  5
417
  8
2
 10
106.5790000000003062
 20
128.5850638513902027
 30
0.0
 11
99.0000000000000284
 21
128.5850638513902027
 31
0.0
  0
LINE
  5
418
  8
2
 10
105.9790000000089947
 20
131.9850638513989907
 30
0.0
 11
96.4999999999999858
 21
131.9850638513989907
 31
0.0
  0
LINE
  5
419
  8
2
 10
106.5790000000003062
 20
132.5850638513902027
 30
0.0
 11
99.0000000000000284
 21
132.5850638513902027
 31
0.0
  0
LINE
  5
41A
  8
2
 10
107.0
 20
133.0060638513899107
 30
0.0
 11
105.9790000000089947
 21
131.9850638513989907
 31
0.0
  0
LINE
  5
41B
  8
2
 10
99.0000000000000284
 20
132.5850638513902027
 30
0.0
 11
99.0000000000000284
 21
128.5850638513902027
 31
0.0
  0
LINE
  5
41C
  8
2
 10
96.4999999999999858
 20
131.9850638513989907
 30
0.0
 11
96.4999999999999858
 21
129.1850638513865874
 31
0.0
  0
LINE
  5
41D
  8
2
 10
105.9790000000089947
 20
131.9850638513989054
 30
0.0
 11
105.979000000003893
 21
129.1850638513865874
 31
0.0
  0
LINE
  5
41E
  8
2
 10
105.979000000003893
 20
129.1850638513865874
 30
0.0
 11
107.0
 21
128.1640638513904094
 31
0.0
  0
LINE
  5
41F
  8
2
 10
96.4999999999999858
 20
131.9850638513989907
 30
0.0
 11
95.6917096231293556
 21
130.5850638513902027
 31
0.0
  0
LINE
  5
420
  8
2
 10
96.4999999999999858
 20
129.1850638513865874
 30
0.0
 11
95.6917096231293556
 21
130.5850638513902027
 31
0.0
  0
LINE
  5
421
  8
1
 10
210.0
 20
205.7767310713537938
 30
0.0
 11
210.0
 21
180.2767310713537938
 31
0.0
  0
LINE
  5
4CC
  8
1
 10
210.0
 20
54.2267310713536403
 30
0.0
 11
210.0
 21
79.7267310713536261
 31
0.0
  0
LINE
  5
501
  8
0
 10
167.5
 20
135.185063851390197
 30
0.0
 11
252.5
 21
135.185063851390197
 31
0.0
  0
LINE
  5
503
  8
2
 10
167.5
 20
127.1733452860526938
 30
0.0
 11
252.5
 21
127.1733452860526938
 31
0.0
  0
LINE
  5
505
  8
0
 10
167.5
 20
125.9850638513901941
 30
0.0
 11
252.5
 21
125.9850638513903931
 31
0.0
  0
LINE
  5
506
  8
0
 10
167.5
 20
124.6609768014666031
 30
0.0
 11
252.5
 21
124.6609768014666031
 31
0.0
  0
LINE
  5
5A7
  8
1
 10
175.0
 20
60.4184406944829533
 30
0.0
 11
175.0
 21
77.7267310713536261
 31
0.0
  0
LINE
  5
5A8
  8
1
 10
245.0
 20
60.4184406944829533
 30
0.0
 11
245.0
 21
77.7267310713536261
 31
0.0
  0
LINE
  5
5AA
  8
1
 10
240.0
 20
130.5850638513902027
 30
0.0
 11
250.0
 21
130.5850638513902027
 31
0.0
  0
LINE
  5
5AB
  8
1
 10
245.0
 20
135.5850638513902027
 30
0.0
 11
245.0
 21
125.5850638513902027
 31
0.0
  0
LINE
  5
5AD
  8
1
 10
175.0
 20
182.2767310713537938
 30
0.0
 11
175.0
 21
199.5850214482244951
 31
0.0
  0
LINE
  5
5AE
  8
1
 10
245.0
 20
182.2767310713537938
 30
0.0
 11
245.0
 21
199.5850214482244951
 31
0.0
  0
ENDSEC
  0
EOF
