  0
SECTION
  2
HEADER
  9
$ACADVER
  1
AC1009
  9
$INSBASE
 10
0.0
 20
0.0
 30
0.0
  9
$EXTMIN
 10
0.0
 20
-2.960436562073669
 30
0.0
  9
$EXTMAX
 10
300.0
 20
215.03207136064771
 30
0.0
  9
$LIMMIN
 10
0.0
 20
0.0
  9
$LIMMAX
 10
375.0
 20
270.0
  9
$ORTHOMODE
 70
     1
  9
$REGENMODE
 70
     1
  9
$FILLMODE
 70
     1
  9
$QTEXTMODE
 70
     0
  9
$MIRRTEXT
 70
     0
  9
$DRAGMODE
 70
     2
  9
$LTSCALE
 40
10.0
  9
$OSMODE
 70
  3071
  9
$ATTMODE
 70
     1
  9
$TEXTSIZE
 40
0.2
  9
$TRACEWID
 40
0.05
  9
$TEXTSTYLE
  7
STANDARD
  9
$CLAYER
  8
0
  9
$CELTYPE
  6
BYLAYER
  9
$CECOLOR
 62
   256
  9
$DIMSCALE
 40
1.0
  9
$DIMASZ
 40
3.0
  9
$DIMEXO
 40
2.0
  9
$DIMDLI
 40
0.38
  9
$DIMRND
 40
0.0
  9
$DIMDLE
 40
0.0
  9
$DIMEXE
 40
2.0
  9
$DIMTP
 40
0.0
  9
$DIMTM
 40
0.0
  9
$DIMTXT
 40
3.2000000000000002
  9
$DIMCEN
 40
0.0
  9
$DIMTSZ
 40
0.0
  9
$DIMTOL
 70
     0
  9
$DIMLIM
 70
     0
  9
$DIMTIH
 70
     0
  9
$DIMTOH
 70
     0
  9
$DIMSE1
 70
     0
  9
$DIMSE2
 70
     0
  9
$DIMTAD
 70
     1
  9
$DIMZIN
 70
     0
  9
$DIMBLK
  1

  9
$DIMASO
 70
     1
  9
$DIMSHO
 70
     0
  9
$DIMPOST
  1

  9
$DIMAPOST
  1

  9
$DIMALT
 70
     0
  9
$DIMALTD
 70
     2
  9
$DIMALTF
 40
25.399999999999999
  9
$DIMLFAC
 40
1.0
  9
$DIMTOFL
 70
     1
  9
$DIMTVP
 40
1.6000000000000001
  9
$DIMTIX
 70
     1
  9
$DIMSOXD
 70
     0
  9
$DIMSAH
 70
     0
  9
$DIMBLK1
  1

  9
$DIMBLK2
  1

  9
$DIMSTYLE
  2
STANDARD
  9
$DIMCLRD
 70
     0
  9
$DIMCLRE
 70
     0
  9
$DIMCLRT
 70
     0
  9
$DIMTFAC
 40
1.0
  9
$DIMGAP
 40
0.09
  9
$LUNITS
 70
     2
  9
$LUPREC
 70
     4
  9
$SKETCHINC
 40
0.1
  9
$FILLETRAD
 40
0.0
  9
$AUNITS
 70
     0
  9
$AUPREC
 70
     4
  9
$MENU
  1
E:\r13\win\SUPPORT\ACAD
  9
$ELEVATION
 40
0.0
  9
$PELEVATION
 40
0.0
  9
$THICKNESS
 40
0.0
  9
$LIMCHECK
 70
     0
  9
$BLIPMODE
 70
     0
  9
$CHAMFERA
 40
0.0
  9
$CHAMFERB
 40
0.0
  9
$SKPOLY
 70
     0
  9
$TDCREATE
 40
2449840.6316435179
  9
$TDUPDATE
 40
2456597.7190393871
  9
$TDINDWG
 40
0.0001582407
  9
$TDUSRTIMER
 40
0.0001582407
  9
$USRTIMER
 70
     1
  9
$ANGBASE
 50
0.0
  9
$ANGDIR
 70
     0
  9
$PDMODE
 70
     0
  9
$PDSIZE
 40
0.0
  9
$PLINEWID
 40
0.0
  9
$COORDS
 70
     1
  9
$SPLFRAME
 70
     0
  9
$SPLINETYPE
 70
     6
  9
$SPLINESEGS
 70
     8
  9
$ATTDIA
 70
     0
  9
$ATTREQ
 70
     1
  9
$HANDLING
 70
     1
  9
$HANDSEED
  5
261
  9
$SURFTAB1
 70
     6
  9
$SURFTAB2
 70
     6
  9
$SURFTYPE
 70
     6
  9
$SURFU
 70
     6
  9
$SURFV
 70
     6
  9
$UCSNAME
  2

  9
$UCSORG
 10
0.0
 20
0.0
 30
0.0
  9
$UCSXDIR
 10
1.0
 20
0.0
 30
0.0
  9
$UCSYDIR
 10
0.0
 20
1.0
 30
0.0
  9
$PUCSNAME
  2

  9
$PUCSORG
 10
0.0
 20
0.0
 30
0.0
  9
$PUCSXDIR
 10
1.0
 20
0.0
 30
0.0
  9
$PUCSYDIR
 10
0.0
 20
1.0
 30
0.0
  9
$USERI1
 70
     0
  9
$USERI2
 70
     1
  9
$USERI3
 70
     1
  9
$USERI4
 70
     0
  9
$USERI5
 70
     0
  9
$USERR1
 40
0.0
  9
$USERR2
 40
0.0
  9
$USERR3
 40
0.0
  9
$USERR4
 40
0.0
  9
$USERR5
 40
0.0
  9
$WORLDVIEW
 70
     1
  9
$SHADEDGE
 70
     3
  9
$SHADEDIF
 70
    70
  9
$TILEMODE
 70
     1
  9
$MAXACTVP
 70
    16
  9
$PLIMCHECK
 70
     0
  9
$PEXTMIN
 10
1.0000000000000000E+020
 20
1.0000000000000000E+020
 30
1.0000000000000000E+020
  9
$PEXTMAX
 10
-1.0000000000000000E+020
 20
-1.0000000000000000E+020
 30
-1.0000000000000000E+020
  9
$PLIMMIN
 10
0.0
 20
0.0
  9
$PLIMMAX
 10
12.0
 20
9.0
  9
$UNITMODE
 70
     0
  9
$VISRETAIN
 70
     0
  9
$PLINEGEN
 70
     0
  9
$PSLTSCALE
 70
     0
  0
ENDSEC
  0
SECTION
  2
TABLES
  0
TABLE
  2
VPORT
 70
     1
  0
VPORT
  2
*ACTIVE
 70
     0
 10
0.0
 20
0.0
 11
1.0
 21
1.0
 12
187.49427839065231
 22
134.10366293909439
 13
0.0
 23
0.0
 14
10.0
 24
10.0
 15
10.0
 25
10.0
 16
0.0
 26
0.0
 36
1.0
 17
0.0
 27
0.0
 37
0.0
 40
277.29405978699532
 41
2.304913294797688
 42
50.0
 43
0.0
 44
0.0
 50
0.0
 51
0.0
 71
     0
 72
   500
 73
     1
 74
     0
 75
     0
 76
     0
 77
     0
 78
     2
  0
ENDTAB
  0
TABLE
  2
LTYPE
 70
     4
  0
LTYPE
  2
CONTINUOUS
 70
     0
  3
Solid Line
 72
    65
 73
     0
 40
0.0
  0
LTYPE
  2
CENTER
 70
     0
  3
____ _ ____ _ ____ _ ____ _ ____ _ ____ _ ____
 72
    65
 73
     4
 40
2.0
 49
1.25
 49
-0.25
 49
0.25
 49
-0.25
  0
LTYPE
  2
HIDDEN
 70
     0
  3
_ _ _ _ _ _ _ _ _ _ _ _ _ _ _ _ _ _ _ _ _ _ _
 72
    65
 73
     2
 40
0.375
 49
0.25
 49
-0.125
  0
LTYPE
  2
PHANTOM2
 70
     0
  3
___ _ _ ___ _ _ ___ _ _ ___ _ _
 72
    65
 73
     6
 40
1.25
 49
0.625
 49
-0.125
 49
0.125
 49
-0.125
 49
0.125
 49
-0.125
  0
ENDTAB
  0
TABLE
  2
LAYER
 70
     4
  0
LAYER
  2
0
 70
     0
 62
     7
  6
CONTINUOUS
  0
LAYER
  2
1
 70
     0
 62
     1
  6
CENTER
  0
LAYER
  2
2
 70
     0
 62
     2
  6
HIDDEN
  0
LAYER
  2
3
 70
     0
 62
     3
  6
CONTINUOUS
  0
ENDTAB
  0
TABLE
  2
STYLE
 70
     2
  0
STYLE
  2
STANDARD
 70
     0
 40
0.0
 41
1.0
 50
0.0
 71
     0
 42
0.2
  3
TXT
  4
BIGFONT
  0
STYLE
  2
STANDARD1
 70
     0
 40
0.0
 41
1.0
 50
0.0
 71
     0
 42
3.0
  3
txt
  4

  0
ENDTAB
  0
TABLE
  2
VIEW
 70
     1
  0
VIEW
  2
ALL
 70
     0
 40
270.0
 10
220.99159663865549
 20
135.0
 41
0.0
 11
0.0
 21
0.0
 31
1.0
 12
0.0
 22
0.0
 32
0.0
 42
0.0
 43
0.0
 44
0.0
 50
0.0
 71
     0
  0
ENDTAB
  0
TABLE
  2
UCS
 70
     0
  0
ENDTAB
  0
TABLE
  2
APPID
 70
     3
  0
APPID
  2
ACAD
 70
     0
  0
APPID
  2
ACAD_MLEADERVER
 70
     0
  0
APPID
  2
ACAD_NAV_VCDISPLAY
 70
     0
  0
ENDTAB
  0
TABLE
  2
DIMSTYLE
 70
     1
  0
DIMSTYLE
  2
STANDARD
 70
     0
  3

  4

  5

  6

  7

 40
1.0
 41
0.18
 42
0.0625
 43
0.38
 44
0.18
 45
0.0
 46
0.0
 47
0.0
 48
0.0
140
0.18
141
0.09
142
0.0
143
25.399999999999999
144
1.0
145
0.0
146
1.0
147
0.09
 71
     0
 72
     0
 73
     1
 74
     1
 75
     0
 76
     0
 77
     0
 78
     0
170
     0
171
     2
172
     0
173
     0
174
     0
175
     0
176
     0
177
     0
178
     0
  0
ENDTAB
  0
ENDSEC
  0
SECTION
  2
BLOCKS
  0
BLOCK
  8
0
  2
$MODEL_SPACE
 70
     0
 10
0.0
 20
0.0
 30
0.0
  3
$MODEL_SPACE
  1

  0
ENDBLK
  5
DE
  8
0
  0
BLOCK
 67
     1
  8
0
  2
$PAPER_SPACE
 70
     0
 10
0.0
 20
0.0
 30
0.0
  3
$PAPER_SPACE
  1

  0
ENDBLK
  5
DC
 67
     1
  8
0
  0
ENDSEC
  0
SECTION
  2
ENTITIES
  0
LINE
  5
36
  8
1
 10
190.0
 20
147.69550368606059
 30
0.0
 11
190.0
 21
105.6955036860606
 31
0.0
  0
LINE
  5
37
  8
0
 10
212.5
 20
115.6955036860606
 30
0.0
 11
167.5
 21
115.6955036860606
 31
0.0
  0
LINE
  5
38
  8
0
 10
167.5
 20
115.6955036860606
 30
0.0
 11
167.5
 21
137.69550368606059
 31
0.0
  0
LINE
  5
39
  8
0
 10
167.5
 20
137.69550368606059
 30
0.0
 11
212.5
 21
137.69550368606059
 31
0.0
  0
LINE
  5
3A
  8
0
 10
212.5
 20
137.69550368606059
 30
0.0
 11
212.5
 21
115.6955036860606
 31
0.0
  0
LINE
  5
3B
  8
0
 10
300.0
 20
116.6955036860606
 30
0.0
 11
300.0
 21
127.86707656131441
 31
0.0
  0
LINE
  5
3C
  8
0
 10
290.17157287525379
 20
137.69550368606059
 30
0.0
 11
278.0
 21
137.69550368606059
 31
0.0
  0
LINE
  5
3D
  8
0
 10
278.0
 20
137.69550368606059
 30
0.0
 11
278.0
 21
129.69550368606059
 31
0.0
  0
LINE
  5
3E
  8
0
 10
278.0
 20
129.69550368606059
 30
0.0
 11
293.0
 21
129.69550368606059
 31
0.0
  0
LINE
  5
3F
  8
0
 10
212.5
 20
129.69550368606059
 30
0.0
 11
167.5
 21
129.69550368606059
 31
0.0
  0
CIRCLE
  5
40
  8
0
 10
205.0
 20
133.69550368606059
 30
0.0
 40
1.6209999999999991
  0
CIRCLE
  5
41
  8
3
 10
205.0
 20
133.69550368606059
 30
0.0
 40
2.0
  0
LINE
  5
42
  8
1
 10
212.0
 20
133.69550368606059
 30
0.0
 11
198.0
 21
133.69550368606059
 31
0.0
  0
LINE
  5
43
  8
1
 10
205.0
 20
140.69550368606059
 30
0.0
 11
205.0
 21
126.6955036860606
 31
0.0
  0
LINE
  5
44
  8
0
 10
296.5
 20
119.72019876265701
 30
0.0
 11
296.5
 21
120.17080860946579
 31
0.0
  0
LINE
  5
45
  8
0
 10
298.0
 20
115.6955036860606
 30
0.0
 11
299.0
 21
115.6955036860606
 31
0.0
  0
LINE
  5
46
  8
0
 10
297.0
 20
116.6955036860606
 30
0.0
 11
297.0
 21
118.6955036860606
 31
0.0
  0
ARC
  5
47
  8
0
 10
293.0
 20
125.6955036860606
 30
0.0
 40
4.0
 50
6.3685149935601357
 51
90.0
  0
ARC
  5
48
  8
0
 10
298.0
 20
116.6955036860606
 30
0.0
 40
1.0
 50
180.0
 51
269.99999999999989
  0
ARC
  5
49
  8
0
 10
299.0
 20
116.6955036860606
 30
0.0
 40
1.0
 50
270.0
 51
0.0
  0
ARC
  5
4A
  8
0
 10
296.20000000000039
 20
118.6955036860606
 30
0.0
 40
0.8
 50
0.0000000000010178
 51
52.020127555174057
  0
LINE
  5
4B
  8
0
 10
299.41421356237311
 20
129.28129012368751
 30
0.0
 11
291.58578643762689
 21
137.1097172484337
 31
0.0
  0
ARC
  5
4C
  8
0
 10
296.20000000000039
 20
121.1955036860606
 30
0.0
 40
0.8
 50
307.97987244487302
 51
52.020127555127019
  0
ARC
  5
4D
  8
0
 10
296.20000000000039
 20
123.6955036860606
 30
0.0
 40
0.8
 50
307.97987244487302
 51
52.020127555174057
  0
ARC
  5
4E
  8
0
 10
296.20000000000039
 20
126.1955036860606
 30
0.0
 40
0.8
 50
307.97987244483681
 51
338.12597780899381
  0
LINE
  5
4F
  8
0
 10
296.5
 20
124.72019876265701
 30
0.0
 11
296.5
 21
125.1708086094645
 31
0.0
  0
LINE
  5
50
  8
0
 10
296.5
 20
122.2201987626553
 30
0.0
 11
296.5
 21
122.67080860946579
 31
0.0
  0
ARC
  5
51
  8
0
 10
296.47840158116588
 20
126.0837335665986
 30
0.0
 40
0.5
 50
338.12597780899398
 51
6.368514993560674
  0
ARC
  5
52
  8
0
 10
297.0
 20
119.72019876265701
 30
0.0
 40
0.5
 50
180.0
 51
232.0201275551758
  0
ARC
  5
53
  8
0
 10
297.0
 20
120.17080860946579
 30
0.0
 40
0.5
 50
127.9798724448731
 51
180.0
  0
ARC
  5
54
  8
0
 10
297.0
 20
122.2201987626553
 30
0.0
 40
0.5
 50
180.0
 51
232.0201275551259
  0
ARC
  5
55
  8
0
 10
297.0
 20
122.67080860946579
 30
0.0
 40
0.5
 50
127.9798724448731
 51
180.0
  0
ARC
  5
56
  8
0
 10
297.0
 20
124.72019876265701
 30
0.0
 40
0.5
 50
180.0
 51
232.0201275551758
  0
ARC
  5
57
  8
0
 10
297.0
 20
125.1708086094645
 30
0.0
 40
0.5
 50
127.97987244483789
 51
180.0
  0
ARC
  5
58
  8
0
 10
298.0
 20
127.86707656131441
 30
0.0
 40
2.0
 50
0.0
 51
45.0
  0
ARC
  5
59
  8
0
 10
290.17157287525379
 20
135.69550368606059
 30
0.0
 40
2.0
 50
45.00000000000005
 51
90.0
  0
LINE
  5
5A
  8
0
 10
212.5
 20
118.6955036860606
 30
0.0
 11
167.5
 21
118.6955036860606
 31
0.0
  0
LINE
  5
5B
  8
0
 10
212.5
 20
121.1955036860606
 30
0.0
 11
167.5
 21
121.1955036860606
 31
0.0
  0
LINE
  5
5C
  8
0
 10
212.5
 20
123.6955036860606
 30
0.0
 11
167.5
 21
123.6955036860606
 31
0.0
  0
LINE
  5
5D
  8
0
 10
212.5
 20
126.1955036860606
 30
0.0
 11
167.5
 21
126.1955036860606
 31
0.0
  0
LINE
  5
5E
  8
1
 10
175.0
 20
140.69550368606059
 30
0.0
 11
175.0
 21
126.6955036860606
 31
0.0
  0
LINE
  5
5F
  8
1
 10
168.0
 20
133.69550368606059
 30
0.0
 11
182.0
 21
133.69550368606059
 31
0.0
  0
CIRCLE
  5
60
  8
3
 10
175.0
 20
133.69550368606059
 30
0.0
 40
2.0
  0
CIRCLE
  5
61
  8
0
 10
175.0
 20
133.69550368606059
 30
0.0
 40
1.6209999999999991
  0
LINE
  5
62
  8
1
 10
294.43588478635633
 20
133.69550368606059
 30
0.0
 11
273.0
 21
133.69550368606059
 31
0.0
  0
LINE
  5
63
  8
2
 10
278.80000000000001
 20
132.07450368606081
 30
0.0
 11
288.5
 21
132.07450368606081
 31
0.0
  0
LINE
  5
64
  8
2
 10
278.42099999999971
 20
131.69550368606059
 30
0.0
 11
286.0
 21
131.69550368606059
 31
0.0
  0
LINE
  5
65
  8
2
 10
278.80000000000001
 20
135.31650368606029
 30
0.0
 11
288.5
 21
135.31650368606029
 31
0.0
  0
LINE
  5
66
  8
2
 10
278.42099999999971
 20
135.69550368606059
 30
0.0
 11
286.0
 21
135.69550368606059
 31
0.0
  0
LINE
  5
67
  8
2
 10
278.0
 20
136.1165036860603
 30
0.0
 11
278.80000000000001
 21
135.31650368606029
 31
0.0
  0
LINE
  5
68
  8
2
 10
286.0
 20
135.69550368606059
 30
0.0
 11
286.0
 21
131.69550368606059
 31
0.0
  0
LINE
  5
69
  8
2
 10
288.5
 20
135.31650368606029
 30
0.0
 11
288.5
 21
132.07450368606081
 31
0.0
  0
LINE
  5
6A
  8
2
 10
278.80000000000001
 20
135.31650368606029
 30
0.0
 11
278.80000000000001
 21
132.07450368606081
 31
0.0
  0
LINE
  5
6B
  8
2
 10
278.80000000000001
 20
132.07450368606081
 30
0.0
 11
278.0
 21
131.2745036860608
 31
0.0
  0
LINE
  5
6C
  8
2
 10
288.5
 20
135.31650368606029
 30
0.0
 11
289.43588478635633
 21
133.69550368606059
 31
0.0
  0
LINE
  5
6D
  8
2
 10
288.5
 20
132.07450368606089
 30
0.0
 11
289.43588478635633
 21
133.69550368606059
 31
0.0
  0
LINE
  5
6E
  8
2
 10
91.5
 20
132.07450368606089
 30
0.0
 11
90.56411521364376
 21
133.69550368606059
 31
0.0
  0
LINE
  5
6F
  8
2
 10
91.5
 20
135.31650368606029
 30
0.0
 11
90.56411521364376
 21
133.69550368606059
 31
0.0
  0
LINE
  5
70
  8
2
 10
101.2
 20
132.07450368606081
 30
0.0
 11
102.0
 21
131.2745036860608
 31
0.0
  0
LINE
  5
71
  8
2
 10
101.2
 20
135.31650368606029
 30
0.0
 11
101.2
 21
132.07450368606081
 31
0.0
  0
LINE
  5
72
  8
2
 10
91.5
 20
135.31650368606029
 30
0.0
 11
91.5
 21
132.07450368606081
 31
0.0
  0
LINE
  5
73
  8
2
 10
94.0
 20
135.69550368606059
 30
0.0
 11
94.0
 21
131.69550368606059
 31
0.0
  0
LINE
  5
74
  8
2
 10
102.0
 20
136.1165036860603
 30
0.0
 11
101.2
 21
135.31650368606029
 31
0.0
  0
LINE
  5
75
  8
2
 10
101.57900000000021
 20
135.69550368606059
 30
0.0
 11
94.0
 21
135.69550368606059
 31
0.0
  0
LINE
  5
76
  8
2
 10
101.2
 20
135.31650368606029
 30
0.0
 11
91.5
 21
135.31650368606029
 31
0.0
  0
LINE
  5
77
  8
2
 10
101.57900000000021
 20
131.69550368606059
 30
0.0
 11
94.0
 21
131.69550368606059
 31
0.0
  0
LINE
  5
78
  8
2
 10
101.2
 20
132.07450368606081
 30
0.0
 11
91.5
 21
132.07450368606081
 31
0.0
  0
LINE
  5
79
  8
1
 10
85.564115213643717
 20
133.69550368606059
 30
0.0
 11
107.0
 21
133.69550368606059
 31
0.0
  0
ARC
  5
7A
  8
0
 10
89.828427124746213
 20
135.69550368606059
 30
0.0
 40
2.0
 50
90.000000000000028
 51
134.99999999999989
  0
ARC
  5
7B
  8
0
 10
82.0
 20
127.86707656131441
 30
0.0
 40
2.0
 50
135.0
 51
180.0
  0
ARC
  5
7C
  8
0
 10
83.0
 20
125.1708086094645
 30
0.0
 40
0.5
 50
0.0000000000000254
 51
52.02012755516207
  0
ARC
  5
7D
  8
0
 10
83.0
 20
124.72019876265701
 30
0.0
 40
0.5
 50
307.9798724448242
 51
0.0000000000000254
  0
ARC
  5
7E
  8
0
 10
83.0
 20
122.67080860946579
 30
0.0
 40
0.5
 50
0.0000000000000254
 51
52.020127555126869
  0
ARC
  5
7F
  8
0
 10
83.0
 20
122.2201987626553
 30
0.0
 40
0.5
 50
307.97987244487422
 51
0.0000000000000254
  0
ARC
  5
80
  8
0
 10
83.0
 20
120.17080860946579
 30
0.0
 40
0.5
 50
0.0000000000000254
 51
52.020127555126869
  0
ARC
  5
81
  8
0
 10
83.0
 20
119.72019876265701
 30
0.0
 40
0.5
 50
307.9798724448242
 51
0.0000000000000254
  0
ARC
  5
82
  8
0
 10
83.521598418834117
 20
126.0837335665986
 30
0.0
 40
0.5
 50
173.63148500643931
 51
201.87402219100599
  0
LINE
  5
83
  8
0
 10
83.499999999999986
 20
122.2201987626553
 30
0.0
 11
83.499999999999986
 21
122.67080860946579
 31
0.0
  0
LINE
  5
84
  8
0
 10
83.499999999999986
 20
124.72019876265701
 30
0.0
 11
83.499999999999986
 21
125.1708086094645
 31
0.0
  0
ARC
  5
85
  8
0
 10
83.799999999999656
 20
126.1955036860606
 30
0.0
 40
0.8
 50
201.87402219100619
 51
232.0201275551633
  0
ARC
  5
86
  8
0
 10
83.799999999999656
 20
123.6955036860606
 30
0.0
 40
0.8
 50
127.9798724448259
 51
232.020127555127
  0
ARC
  5
87
  8
0
 10
83.799999999999656
 20
121.1955036860606
 30
0.0
 40
0.8
 50
127.979872444873
 51
232.020127555127
  0
LINE
  5
88
  8
0
 10
80.585786437626894
 20
129.28129012368751
 30
0.0
 11
88.414213562373106
 21
137.1097172484337
 31
0.0
  0
ARC
  5
89
  8
0
 10
83.799999999999656
 20
118.6955036860606
 30
0.0
 40
0.8
 50
127.9798724448259
 51
179.99999999999901
  0
ARC
  5
8A
  8
0
 10
81.0
 20
116.6955036860606
 30
0.0
 40
1.0
 50
180.0
 51
270.00000000000011
  0
ARC
  5
8B
  8
0
 10
82.0
 20
116.6955036860606
 30
0.0
 40
1.0
 50
270.00000000000011
 51
0.0000000000000254
  0
ARC
  5
8C
  8
0
 10
87.0
 20
125.6955036860606
 30
0.0
 40
4.0
 50
90.000000000000028
 51
173.6314850064399
  0
LINE
  5
8D
  8
0
 10
83.0
 20
116.6955036860606
 30
0.0
 11
83.0
 21
118.6955036860606
 31
0.0
  0
LINE
  5
8E
  8
0
 10
82.0
 20
115.6955036860606
 30
0.0
 11
81.0
 21
115.6955036860606
 31
0.0
  0
LINE
  5
8F
  8
0
 10
83.499999999999986
 20
119.72019876265701
 30
0.0
 11
83.499999999999986
 21
120.17080860946579
 31
0.0
  0
LINE
  5
90
  8
0
 10
102.0
 20
129.69550368606059
 30
0.0
 11
87.0
 21
129.69550368606059
 31
0.0
  0
LINE
  5
91
  8
0
 10
102.0
 20
137.69550368606059
 30
0.0
 11
102.0
 21
129.69550368606059
 31
0.0
  0
LINE
  5
92
  8
0
 10
89.828427124746213
 20
137.69550368606059
 30
0.0
 11
102.0
 21
137.69550368606059
 31
0.0
  0
LINE
  5
93
  8
0
 10
80.0
 20
116.6955036860606
 30
0.0
 11
80.0
 21
127.86707656131441
 31
0.0
  0
LINE
  5
94
  8
0
 10
167.5
 20
193.03207136064771
 30
0.0
 11
167.5
 21
215.03207136064771
 31
0.0
  0
LINE
  5
95
  8
0
 10
212.5
 20
193.03207136064771
 30
0.0
 11
212.5
 21
215.03207136064771
 31
0.0
  0
LINE
  5
96
  8
0
 10
212.5
 20
193.03207136064771
 30
0.0
 11
167.5
 21
193.03207136064771
 31
0.0
  0
LINE
  5
97
  8
0
 10
212.5
 20
215.03207136064771
 30
0.0
 11
167.5
 21
215.03207136064771
 31
0.0
  0
LINE
  5
98
  8
1
 10
205.0
 20
44.924110414533999
 30
0.0
 11
205.0
 21
66.359995200890253
 31
0.0
  0
LINE
  5
99
  8
0
 10
167.5
 20
61.359995200890282
 30
0.0
 11
167.5
 21
39.359995200890289
 31
0.0
  0
LINE
  5
9A
  8
0
 10
212.5
 20
61.359995200890282
 30
0.0
 11
212.5
 21
39.359995200890289
 31
0.0
  0
LINE
  5
9B
  8
0
 10
212.5
 20
61.35999520089026
 30
0.0
 11
167.5
 21
61.359995200890282
 31
0.0
  0
LINE
  5
9C
  8
0
 10
212.5
 20
39.359995200890289
 30
0.0
 11
167.5
 21
39.359995200890289
 31
0.0
  0
LINE
  5
9D
  8
0
 10
212.5
 20
42.359995200890282
 30
0.0
 11
167.5
 21
42.359995200890282
 31
0.0
  0
LINE
  5
9E
  8
0
 10
212.5
 20
42.859995200890282
 30
0.0
 11
167.5
 21
42.859995200890282
 31
0.0
  0
LINE
  5
9F
  8
1
 10
175.0
 20
44.924110414533999
 30
0.0
 11
175.0
 21
66.359995200890253
 31
0.0
  0
LINE
  5
A0
  8
1
 10
205.0
 20
209.467956147004
 30
0.0
 11
205.0
 21
188.03207136064771
 31
0.0
  0
LINE
  5
A1
  8
1
 10
175.0
 20
209.467956147004
 30
0.0
 11
175.0
 21
188.03207136064771
 31
0.0
  0
TEXT
  5
1CA
  8
0
 62
     3
 10
0.0
 20
0.0
 30
0.0
 40
10.0
  1
PH2-30N
  7
STANDARD1
  0
ENDSEC
  0
EOF
