  0
SECTION
  2
HEADER
  9
$ACADVER
  1
AC1009
  9
$INSBASE
 10
0.0
 20
0.0
 30
0.0
  9
$EXTMIN
 10
0.0
 20
-2.960436562073669
 30
0.0
  9
$EXTMAX
 10
267.83049636415183
 20
209.81467124199099
 30
0.0
  9
$LIMMIN
 10
0.0
 20
0.0
  9
$LIMMAX
 10
385.0
 20
270.0
  9
$ORTHOMODE
 70
     1
  9
$REGENMODE
 70
     1
  9
$FILLMODE
 70
     1
  9
$QTEXTMODE
 70
     0
  9
$MIRRTEXT
 70
     0
  9
$DRAGMODE
 70
     2
  9
$LTSCALE
 40
10.0
  9
$OSMODE
 70
  3071
  9
$ATTMODE
 70
     1
  9
$TEXTSIZE
 40
4.0
  9
$TRACEWID
 40
0.05
  9
$TEXTSTYLE
  7
STANDARD
  9
$CLAYER
  8
0
  9
$CELTYPE
  6
BYLAYER
  9
$CECOLOR
 62
   256
  9
$DIMSCALE
 40
1.0
  9
$DIMASZ
 40
3.0
  9
$DIMEXO
 40
1.0
  9
$DIMDLI
 40
6.0
  9
$DIMRND
 40
0.0
  9
$DIMDLE
 40
0.0
  9
$DIMEXE
 40
1.0
  9
$DIMTP
 40
495.0
  9
$DIMTM
 40
0.0
  9
$DIMTXT
 40
3.0
  9
$DIMCEN
 40
0.0
  9
$DIMTSZ
 40
0.0
  9
$DIMTOL
 70
     0
  9
$DIMLIM
 70
     0
  9
$DIMTIH
 70
     0
  9
$DIMTOH
 70
     0
  9
$DIMSE1
 70
     0
  9
$DIMSE2
 70
     0
  9
$DIMTAD
 70
     1
  9
$DIMZIN
 70
     0
  9
$DIMBLK
  1

  9
$DIMASO
 70
     1
  9
$DIMSHO
 70
     0
  9
$DIMPOST
  1

  9
$DIMAPOST
  1

  9
$DIMALT
 70
     0
  9
$DIMALTD
 70
     2
  9
$DIMALTF
 40
25.399999999999999
  9
$DIMLFAC
 40
1.0
  9
$DIMTOFL
 70
     1
  9
$DIMTVP
 40
0.0
  9
$DIMTIX
 70
     1
  9
$DIMSOXD
 70
     0
  9
$DIMSAH
 70
     0
  9
$DIMBLK1
  1

  9
$DIMBLK2
  1

  9
$DIMSTYLE
  2
STANDARD
  9
$DIMCLRD
 70
     0
  9
$DIMCLRE
 70
     0
  9
$DIMCLRT
 70
     4
  9
$DIMTFAC
 40
1.0
  9
$DIMGAP
 40
1.0
  9
$LUNITS
 70
     2
  9
$LUPREC
 70
     4
  9
$SKETCHINC
 40
0.1
  9
$FILLETRAD
 40
0.0
  9
$AUNITS
 70
     0
  9
$AUPREC
 70
     0
  9
$MENU
  1
E:\r13\win\SUPPORT\ACAD
  9
$ELEVATION
 40
0.0
  9
$PELEVATION
 40
0.0
  9
$THICKNESS
 40
0.0
  9
$LIMCHECK
 70
     0
  9
$BLIPMODE
 70
     0
  9
$CHAMFERA
 40
0.0
  9
$CHAMFERB
 40
0.0
  9
$SKPOLY
 70
     0
  9
$TDCREATE
 40
2450462.5309673608
  9
$TDUPDATE
 40
2456597.7190927551
  9
$TDINDWG
 40
0.1272288194
  9
$TDUSRTIMER
 40
0.1272288194
  9
$USRTIMER
 70
     1
  9
$ANGBASE
 50
0.0
  9
$ANGDIR
 70
     0
  9
$PDMODE
 70
     0
  9
$PDSIZE
 40
0.0
  9
$PLINEWID
 40
0.0
  9
$COORDS
 70
     1
  9
$SPLFRAME
 70
     0
  9
$SPLINETYPE
 70
     6
  9
$SPLINESEGS
 70
     8
  9
$ATTDIA
 70
     0
  9
$ATTREQ
 70
     1
  9
$HANDLING
 70
     1
  9
$HANDSEED
  5
112B
  9
$SURFTAB1
 70
     6
  9
$SURFTAB2
 70
     6
  9
$SURFTYPE
 70
     6
  9
$SURFU
 70
     6
  9
$SURFV
 70
     6
  9
$UCSNAME
  2

  9
$UCSORG
 10
0.0
 20
0.0
 30
0.0
  9
$UCSXDIR
 10
1.0
 20
0.0
 30
0.0
  9
$UCSYDIR
 10
0.0
 20
1.0
 30
0.0
  9
$PUCSNAME
  2

  9
$PUCSORG
 10
0.0
 20
0.0
 30
0.0
  9
$PUCSXDIR
 10
1.0
 20
0.0
 30
0.0
  9
$PUCSYDIR
 10
0.0
 20
1.0
 30
0.0
  9
$USERI1
 70
     3
  9
$USERI2
 70
     1
  9
$USERI3
 70
     1
  9
$USERI4
 70
     0
  9
$USERI5
 70
     0
  9
$USERR1
 40
1.0
  9
$USERR2
 40
3.0
  9
$USERR3
 40
3.0
  9
$USERR4
 40
3.0
  9
$USERR5
 40
10.0
  9
$WORLDVIEW
 70
     1
  9
$SHADEDGE
 70
     3
  9
$SHADEDIF
 70
    70
  9
$TILEMODE
 70
     1
  9
$MAXACTVP
 70
    16
  9
$PLIMCHECK
 70
     0
  9
$PEXTMIN
 10
1.0000000000000000E+020
 20
1.0000000000000000E+020
 30
1.0000000000000000E+020
  9
$PEXTMAX
 10
-1.0000000000000000E+020
 20
-1.0000000000000000E+020
 30
-1.0000000000000000E+020
  9
$PLIMMIN
 10
0.0
 20
0.0
  9
$PLIMMAX
 10
12.0
 20
9.0
  9
$UNITMODE
 70
     0
  9
$VISRETAIN
 70
     0
  9
$PLINEGEN
 70
     0
  9
$PSLTSCALE
 70
     0
  0
ENDSEC
  0
SECTION
  2
TABLES
  0
TABLE
  2
VPORT
 70
     1
  0
VPORT
  2
*ACTIVE
 70
     0
 10
0.0
 20
0.0
 11
1.0
 21
1.0
 12
192.49412581440311
 22
134.10366293909439
 13
0.0
 23
0.0
 14
5.0
 24
5.0
 15
10.0
 25
10.0
 16
0.0
 26
0.0
 36
1.0
 17
0.0
 27
0.0
 37
0.0
 40
277.29405978699532
 41
2.304913294797688
 42
50.0
 43
0.0
 44
0.0
 50
0.0
 51
0.0
 71
     0
 72
   100
 73
     1
 74
     0
 75
     0
 76
     0
 77
     0
 78
     0
  0
ENDTAB
  0
TABLE
  2
LTYPE
 70
     4
  0
LTYPE
  2
CONTINUOUS
 70
     0
  3
Solid Line
 72
    65
 73
     0
 40
0.0
  0
LTYPE
  2
CENTER
 70
     0
  3
____ _ ____ _ ____ _ ____ _ ____ _ ____ _ ____
 72
    65
 73
     4
 40
2.0
 49
1.25
 49
-0.25
 49
0.25
 49
-0.25
  0
LTYPE
  2
HIDDEN
 70
     0
  3
_ _ _ _ _ _ _ _ _ _ _ _ _ _ _ _ _ _ _ _ _ _ _
 72
    65
 73
     2
 40
0.375
 49
0.25
 49
-0.125
  0
LTYPE
  2
PHANTOM2
 70
     0
  3
___ _ _ ___ _ _ ___ _ _ ___ _ _
 72
    65
 73
     6
 40
1.25
 49
0.625
 49
-0.125
 49
0.125
 49
-0.125
 49
0.125
 49
-0.125
  0
ENDTAB
  0
TABLE
  2
LAYER
 70
     4
  0
LAYER
  2
0
 70
     0
 62
     7
  6
CONTINUOUS
  0
LAYER
  2
2
 70
     0
 62
     2
  6
HIDDEN
  0
LAYER
  2
3
 70
     0
 62
     3
  6
CONTINUOUS
  0
LAYER
  2
1
 70
     0
 62
     1
  6
CENTER
  0
ENDTAB
  0
TABLE
  2
STYLE
 70
     2
  0
STYLE
  2
STANDARD
 70
     0
 40
0.0
 41
1.0
 50
0.0
 71
     0
 42
4.0
  3
simplex
  4
bigfont
  0
STYLE
  2
STANDARD1
 70
     0
 40
0.0
 41
1.0
 50
0.0
 71
     0
 42
3.0
  3
txt
  4

  0
ENDTAB
  0
TABLE
  2
VIEW
 70
     0
  0
ENDTAB
  0
TABLE
  2
UCS
 70
     0
  0
ENDTAB
  0
TABLE
  2
APPID
 70
     3
  0
APPID
  2
ACAD
 70
     0
  0
APPID
  2
ACAD_MLEADERVER
 70
     0
  0
APPID
  2
ACAD_NAV_VCDISPLAY
 70
     0
  0
ENDTAB
  0
TABLE
  2
DIMSTYLE
 70
     1
  0
DIMSTYLE
  2
STANDARD
 70
     0
  3

  4

  5

  6

  7

 40
1.0
 41
0.18
 42
0.0625
 43
0.38
 44
0.18
 45
0.0
 46
0.0
 47
0.0
 48
0.0
140
0.18
141
0.09
142
0.0
143
25.399999999999999
144
1.0
145
0.0
146
1.0
147
0.09
 71
     0
 72
     0
 73
     1
 74
     1
 75
     0
 76
     0
 77
     0
 78
     0
170
     0
171
     2
172
     0
173
     0
174
     0
175
     0
176
     0
177
     0
178
     0
  0
ENDTAB
  0
ENDSEC
  0
SECTION
  2
BLOCKS
  0
BLOCK
  8
0
  2
$MODEL_SPACE
 70
     0
 10
0.0
 20
0.0
 30
0.0
  3
$MODEL_SPACE
  1

  0
ENDBLK
  5
C2F
  8
0
  0
BLOCK
 67
     1
  8
0
  2
$PAPER_SPACE
 70
     0
 10
0.0
 20
0.0
 30
0.0
  3
$PAPER_SPACE
  1

  0
ENDBLK
  5
C2D
 67
     1
  8
0
  0
BLOCK
  8
0
  2
STDGX5
 70
     0
 10
0.0
 20
0.0
 30
0.0
  3
STDGX5
  1

  0
ENDBLK
  5
4F
  8
0
  0
ENDSEC
  0
SECTION
  2
ENTITIES
  0
INSERT
  5
DE
  8
0
  2
STDGX5
 10
0.0
 20
0.0
 30
0.0
  0
INSERT
  5
DF
  8
0
  2
STDGX5
 10
0.0
 20
0.0
 30
0.0
  0
INSERT
  5
15C
  8
0
  2
STDGX5
 10
275.0
 20
0.0
 30
0.0
  0
INSERT
  5
15D
  8
0
  2
STDGX5
 10
275.0
 20
0.0
 30
0.0
  0
INSERT
  5
83E
  8
0
  2
STDGX5
 10
32.495465175105778
 20
48.323863549924909
 30
0.0
  0
INSERT
  5
83F
  8
0
  2
STDGX5
 10
32.495465175105778
 20
48.323863549924909
 30
0.0
  0
INSERT
  5
840
  8
0
  2
STDGX5
 10
307.49546517510578
 20
48.323863549924909
 30
0.0
  0
INSERT
  5
841
  8
0
  2
STDGX5
 10
307.49546517510578
 20
48.323863549924909
 30
0.0
  0
INSERT
  5
A47
  8
0
  2
STDGX5
 10
41.706777971533938
 20
40.653408768729371
 30
0.0
  0
INSERT
  5
A48
  8
0
  2
STDGX5
 10
41.706777971533938
 20
40.653408768729371
 30
0.0
  0
INSERT
  5
A49
  8
0
  2
STDGX5
 10
316.70677797153388
 20
40.653408768729371
 30
0.0
  0
INSERT
  5
A4A
  8
0
  2
STDGX5
 10
316.70677797153388
 20
40.653408768729371
 30
0.0
  0
LINE
  5
A57
  8
0
 10
89.877599767174686
 20
146.42262571672299
 30
0.0
 11
89.877599767174686
 21
154.42262571672299
 31
0.0
  0
LINE
  5
A58
  8
0
 10
89.877599767174686
 20
154.42262571672299
 30
0.0
 11
109.63926280646839
 21
154.42262571672299
 31
0.0
  0
LINE
  5
A59
  8
0
 10
107.8775997671747
 20
128.42262571672299
 30
0.0
 11
109.63926280646839
 21
128.42262571672299
 31
0.0
  0
LINE
  5
A5A
  8
0
 10
107.8775997671747
 20
143.92262571672299
 30
0.0
 11
107.8775997671747
 21
135.2527527356452
 31
0.0
  0
LINE
  5
A5B
  8
0
 10
89.877599767174686
 20
146.42262571672299
 30
0.0
 11
105.3775997671746
 21
146.42262571672299
 31
0.0
  0
ARC
  5
A5C
  8
0
 10
105.3775997671746
 20
143.92262571672299
 30
0.0
 40
2.5
 50
0.0000000000000254
 51
89.999999999999943
  0
ARC
  5
A5D
  8
0
 10
107.8775997671747
 20
130.92262571672299
 30
0.0
 40
2.5
 50
120.0000000000001
 51
270.0
  0
ARC
  5
A5E
  8
0
 10
105.3775997671746
 20
135.2527527356452
 30
0.0
 40
2.5
 50
300.0
 51
0.0
  0
ARC
  5
A5F
  8
0
 10
90.877599767174672
 20
141.42262571672299
 30
0.0
 40
24.0
 50
17.193683661014049
 51
29.233640022610949
  0
ARC
  5
A60
  8
0
 10
109.63926280646839
 20
151.92262571672299
 30
0.0
 40
2.5
 50
29.233640022610881
 51
90.0
  0
ARC
  5
A61
  8
0
 10
109.6392628064683
 20
130.92262571672299
 30
0.0
 40
2.5
 50
270.00000000000028
 51
330.7663599773889
  0
ARC
  5
A62
  8
0
 10
114.64403341697231
 20
144.7627801397646
 30
0.0
 40
0.5
 50
98.596841830506563
 51
277.40315816949368
  0
ARC
  5
A63
  8
0
 10
113.9478804696943
 20
148.037922256331
 30
0.0
 40
0.5
 50
106.5968418305071
 51
285.40315816949322
  0
ARC
  5
A64
  8
0
 10
90.877599767174672
 20
141.42262571672299
 30
0.0
 40
24.0
 50
9.1936836610140773
 51
14.806316338985949
  0
ARC
  5
A65
  8
0
 10
90.877599767174672
 20
141.42262571672299
 30
0.0
 40
24.0
 50
1.193683661014028
 51
6.8063163389859946
  0
ARC
  5
A66
  8
0
 10
114.64403341697231
 20
138.08247129368141
 30
0.0
 40
0.5
 50
82.596841830506264
 51
261.40315816949351
  0
ARC
  5
A67
  8
0
 10
113.9478804696943
 20
134.80732917711501
 30
0.0
 40
0.5
 50
74.596841830506833
 51
253.40315816949291
  0
ARC
  5
A68
  8
0
 10
114.8775997671746
 20
141.42262571672299
 30
0.0
 40
0.5
 50
90.596841830506449
 51
269.40315816949351
  0
ARC
  5
A69
  8
0
 10
90.877599767174672
 20
141.42262571672299
 30
0.0
 40
24.0
 50
353.19368366101401
 51
358.80631633898599
  0
ARC
  5
A6A
  8
0
 10
90.877599767174672
 20
141.42262571672299
 30
0.0
 40
24.0
 50
345.19368366101412
 51
350.80631633898588
  0
ARC
  5
A6B
  8
0
 10
90.877599767174672
 20
141.42262571672299
 30
0.0
 40
24.0
 50
330.7663599773889
 51
342.80631633898588
  0
LINE
  5
A79
  8
1
 10
84.877599767174686
 20
150.42262571672299
 30
0.0
 11
106.8515948306181
 21
150.42262571672299
 31
0.0
  0
LINE
  5
A84
  8
0
 10
147.8304963641518
 20
128.42262571672299
 30
0.0
 11
267.83049636415183
 21
128.42262571672299
 31
0.0
  0
LINE
  5
A85
  8
0
 10
147.8304963641518
 20
154.42262571672299
 30
0.0
 11
267.83049636415183
 21
154.42262571672299
 31
0.0
  0
LINE
  5
A86
  8
0
 10
147.8304963641518
 20
154.42262571672299
 30
0.0
 11
147.8304963641518
 21
128.42262571672299
 31
0.0
  0
LINE
  5
A87
  8
0
 10
267.83049636415183
 20
154.42262571672299
 30
0.0
 11
267.83049636415183
 21
128.42262571672299
 31
0.0
  0
LINE
  5
A88
  8
2
 10
147.8304963641518
 20
146.42262571672299
 30
0.0
 11
267.83049636415183
 21
146.42262571672299
 31
0.0
  0
CIRCLE
  5
A89
  8
2
 10
260.33049636415183
 20
150.42262571672299
 30
0.0
 40
1.6209999999999991
  0
CIRCLE
  5
A8A
  8
2
 10
260.33049636415183
 20
150.42262571672299
 30
0.0
 40
2.0
  0
CIRCLE
  5
A8B
  8
2
 10
155.3304963641518
 20
150.42262571672299
 30
0.0
 40
1.6209999999999991
  0
CIRCLE
  5
A8C
  8
2
 10
155.3304963641518
 20
150.42262571672299
 30
0.0
 40
2.0
  0
LINE
  5
A8D
  8
1
 10
159.8304963641518
 20
150.42262571672299
 30
0.0
 11
150.8304963641518
 21
150.42262571672299
 31
0.0
  0
LINE
  5
A8E
  8
1
 10
155.3304963641518
 20
154.92262571672299
 30
0.0
 11
155.3304963641518
 21
145.92262571672299
 31
0.0
  0
LINE
  5
A8F
  8
1
 10
264.83049636415183
 20
150.42262571672299
 30
0.0
 11
255.8304963641518
 21
150.42262571672299
 31
0.0
  0
LINE
  5
A90
  8
1
 10
260.33049636415183
 20
154.92262571672299
 30
0.0
 11
260.33049636415183
 21
145.92262571672299
 31
0.0
  0
LINE
  5
A91
  8
3
 10
147.8304963641518
 20
134.32816001697381
 30
0.0
 11
267.83049636415183
 21
134.32816001697381
 31
0.0
  0
LINE
  5
A92
  8
3
 10
147.8304963641518
 20
135.28936955971261
 30
0.0
 11
267.83049636415183
 21
135.28936955971261
 31
0.0
  0
LINE
  5
A93
  8
3
 10
147.8304963641518
 20
137.5880889826808
 30
0.0
 11
267.83049636415183
 21
137.5880889826808
 31
0.0
  0
LINE
  5
A94
  8
3
 10
147.8304963641518
 20
138.5783033244837
 30
0.0
 11
267.83049636415183
 21
138.5783033244837
 31
0.0
  0
LINE
  5
A95
  8
3
 10
147.8304963641518
 20
140.922652844195
 30
0.0
 11
267.83049636415183
 21
140.922652844195
 31
0.0
  0
LINE
  5
A96
  8
3
 10
147.8304963641518
 20
141.92259858925101
 30
0.0
 11
267.83049636415183
 21
141.92259858925101
 31
0.0
  0
LINE
  5
A97
  8
3
 10
147.8304963641518
 20
144.26694810896231
 30
0.0
 11
267.83049636415183
 21
144.26694810896231
 31
0.0
  0
LINE
  5
A98
  8
3
 10
147.8304963641518
 20
145.25716245076521
 30
0.0
 11
267.83049636415183
 21
145.25716245076521
 31
0.0
  0
LINE
  5
A99
  8
3
 10
147.8304963641518
 20
147.55588187373331
 30
0.0
 11
267.83049636415183
 21
147.55588187373331
 31
0.0
  0
LINE
  5
A9A
  8
3
 10
147.8304963641518
 20
148.5170914164722
 30
0.0
 11
267.83049636415183
 21
148.5170914164722
 31
0.0
  0
LINE
  5
AC9
  8
0
 10
147.8304963641518
 20
179.81467124199099
 30
0.0
 11
267.83049636415183
 21
179.81467124199099
 31
0.0
  0
LINE
  5
ACA
  8
0
 10
147.8304963641518
 20
204.81467124199111
 30
0.0
 11
147.8304963641518
 21
179.81467124199099
 31
0.0
  0
LINE
  5
ACB
  8
0
 10
267.83049636415183
 20
204.81467124199111
 30
0.0
 11
267.83049636415183
 21
179.81467124199111
 31
0.0
  0
LINE
  5
ACC
  8
0
 10
147.8304963641518
 20
204.81467124199099
 30
0.0
 11
267.83049636415183
 21
204.81467124199111
 31
0.0
  0
LINE
  5
ACF
  8
1
 10
155.3304963641518
 20
187.84067617854751
 30
0.0
 11
155.3304963641518
 21
209.81467124199099
 31
0.0
  0
LINE
  5
AD1
  8
1
 10
260.33049636415183
 20
187.84067617854751
 30
0.0
 11
260.33049636415183
 21
209.81467124199099
 31
0.0
  0
LINE
  5
AF5
  8
3
 10
147.8304963641518
 20
183.64043024015899
 30
0.0
 11
267.83049636415183
 21
183.64043024015899
 31
0.0
  0
LINE
  5
AF6
  8
2
 10
153.3304963641518
 20
204.3936712419912
 30
0.0
 11
153.3304963641518
 21
196.81467124199099
 31
0.0
  0
LINE
  5
AF7
  8
2
 10
153.7094963641521
 20
204.01467124199101
 30
0.0
 11
153.7094963641521
 21
193.81467124199099
 31
0.0
  0
LINE
  5
AF8
  8
2
 10
157.3304963641518
 20
204.3936712419912
 30
0.0
 11
157.3304963641518
 21
196.81467124199099
 31
0.0
  0
LINE
  5
AF9
  8
2
 10
156.9514963641515
 20
204.01467124199101
 30
0.0
 11
156.9514963641515
 21
193.81467124199099
 31
0.0
  0
LINE
  5
AFA
  8
2
 10
153.3304963641518
 20
196.81467124199099
 30
0.0
 11
153.7094963641521
 21
196.15822398592189
 31
0.0
  0
LINE
  5
AFB
  8
2
 10
153.3304963641518
 20
196.81467124199099
 30
0.0
 11
157.3304963641518
 21
196.81467124199099
 31
0.0
  0
LINE
  5
AFC
  8
2
 10
153.70949636415219
 20
193.81467124199099
 30
0.0
 11
155.3304963641518
 21
192.84067617854751
 31
0.0
  0
LINE
  5
AFD
  8
2
 10
153.7094963641521
 20
193.81467124199099
 30
0.0
 11
156.9514963641515
 21
193.81467124199099
 31
0.0
  0
LINE
  5
AFE
  8
2
 10
156.9514963641515
 20
193.81467124199111
 30
0.0
 11
155.3304963641518
 21
192.84067617854751
 31
0.0
  0
LINE
  5
AFF
  8
2
 10
157.3304963641518
 20
196.81467124199099
 30
0.0
 11
156.9514963641515
 21
196.15822398592189
 31
0.0
  0
LINE
  5
B00
  8
2
 10
153.7094963641521
 20
204.01467124199101
 30
0.0
 11
152.90949636415201
 21
204.81467124199099
 31
0.0
  0
LINE
  5
B01
  8
2
 10
157.75149636415159
 20
204.81467124199099
 30
0.0
 11
156.9514963641515
 21
204.01467124199101
 31
0.0
  0
LINE
  5
B02
  8
2
 10
156.9514963641515
 20
204.01467124199101
 30
0.0
 11
153.7094963641521
 21
204.01467124199101
 31
0.0
  0
LINE
  5
B03
  8
2
 10
258.70949636415202
 20
204.01467124199101
 30
0.0
 11
258.70949636415202
 21
193.81467124199099
 31
0.0
  0
LINE
  5
B04
  8
2
 10
258.33049636415183
 20
204.3936712419912
 30
0.0
 11
258.33049636415183
 21
196.81467124199099
 31
0.0
  0
LINE
  5
B05
  8
2
 10
261.95149636415152
 20
204.01467124199101
 30
0.0
 11
261.95149636415152
 21
193.81467124199099
 31
0.0
  0
LINE
  5
B06
  8
2
 10
262.33049636415183
 20
204.3936712419912
 30
0.0
 11
262.33049636415183
 21
196.81467124199099
 31
0.0
  0
LINE
  5
B07
  8
2
 10
258.70949636415202
 20
193.81467124199111
 30
0.0
 11
260.33049636415183
 21
192.84067617854751
 31
0.0
  0
LINE
  5
B08
  8
2
 10
261.95149636415152
 20
193.81467124199099
 30
0.0
 11
258.70949636415202
 21
193.81467124199099
 31
0.0
  0
LINE
  5
B09
  8
2
 10
262.33049636415183
 20
196.81467124199099
 30
0.0
 11
258.33049636415183
 21
196.81467124199099
 31
0.0
  0
LINE
  5
B0A
  8
2
 10
261.95149636415141
 20
193.81467124199099
 30
0.0
 11
260.33049636415183
 21
192.84067617854751
 31
0.0
  0
LINE
  5
B0B
  8
2
 10
262.33049636415171
 20
196.81467124199099
 30
0.0
 11
261.95149636415152
 21
196.15822398592189
 31
0.0
  0
LINE
  5
B0C
  8
2
 10
258.33049636415183
 20
196.81467124199099
 30
0.0
 11
258.70949636415202
 21
196.15822398592189
 31
0.0
  0
LINE
  5
B0D
  8
2
 10
258.70949636415202
 20
204.01467124199101
 30
0.0
 11
261.95149636415152
 21
204.01467124199101
 31
0.0
  0
LINE
  5
B0E
  8
2
 10
261.95149636415152
 20
204.01467124199101
 30
0.0
 11
262.75149636415159
 21
204.81467124199099
 31
0.0
  0
LINE
  5
B0F
  8
2
 10
257.90949636415189
 20
204.81467124199099
 30
0.0
 11
258.70949636415202
 21
204.01467124199101
 31
0.0
  0
LINE
  5
B11
  8
0
 10
147.8304963641518
 20
75.923964320125862
 30
0.0
 11
267.83049636415183
 21
75.923964320125833
 31
0.0
  0
LINE
  5
B12
  8
0
 10
147.8304963641518
 20
100.9239643201258
 30
0.0
 11
267.83049636415183
 21
100.9239643201258
 31
0.0
  0
LINE
  5
B13
  8
0
 10
147.8304963641518
 20
75.923964320125833
 30
0.0
 11
147.8304963641518
 21
100.9239643201258
 31
0.0
  0
LINE
  5
B14
  8
1
 10
260.33049636415183
 20
92.897959383569315
 30
0.0
 11
260.33049636415183
 21
70.923964320125862
 31
0.0
  0
LINE
  5
B15
  8
1
 10
155.3304963641518
 20
92.897959383569315
 30
0.0
 11
155.3304963641518
 21
70.923964320125862
 31
0.0
  0
LINE
  5
B16
  8
0
 10
267.83049636415183
 20
75.923964320125833
 30
0.0
 11
267.83049636415183
 21
100.9239643201258
 31
0.0
  0
LINE
  5
B17
  8
2
 10
156.9514963641515
 20
76.723964320125901
 30
0.0
 11
156.9514963641515
 21
86.92396432012589
 31
0.0
  0
LINE
  5
B18
  8
2
 10
157.3304963641518
 20
76.344964320125655
 30
0.0
 11
157.3304963641518
 21
83.92396432012589
 31
0.0
  0
LINE
  5
B19
  8
2
 10
153.7094963641521
 20
76.723964320125901
 30
0.0
 11
153.7094963641521
 21
86.92396432012589
 31
0.0
  0
LINE
  5
B1A
  8
2
 10
153.3304963641518
 20
76.344964320125655
 30
0.0
 11
153.3304963641518
 21
83.92396432012589
 31
0.0
  0
LINE
  5
B1B
  8
2
 10
156.9514963641515
 20
86.923964320125776
 30
0.0
 11
155.3304963641518
 21
87.897959383569344
 31
0.0
  0
LINE
  5
B1C
  8
2
 10
153.7094963641521
 20
86.92396432012589
 30
0.0
 11
156.9514963641515
 21
86.92396432012589
 31
0.0
  0
LINE
  5
B1D
  8
2
 10
153.3304963641518
 20
83.92396432012589
 30
0.0
 11
157.3304963641518
 21
83.92396432012589
 31
0.0
  0
LINE
  5
B1E
  8
2
 10
153.70949636415219
 20
86.92396432012589
 30
0.0
 11
155.3304963641518
 21
87.897959383569344
 31
0.0
  0
LINE
  5
B1F
  8
2
 10
153.3304963641518
 20
83.92396432012589
 30
0.0
 11
153.7094963641521
 21
84.580411576194933
 31
0.0
  0
LINE
  5
B20
  8
2
 10
157.3304963641518
 20
83.92396432012589
 30
0.0
 11
156.9514963641515
 21
84.580411576194933
 31
0.0
  0
LINE
  5
B21
  8
2
 10
156.9514963641515
 20
76.723964320125901
 30
0.0
 11
153.7094963641521
 21
76.723964320125901
 31
0.0
  0
LINE
  5
B22
  8
2
 10
153.7094963641521
 20
76.723964320125901
 30
0.0
 11
152.90949636415201
 21
75.92396432012589
 31
0.0
  0
LINE
  5
B23
  8
2
 10
157.75149636415159
 20
75.92396432012589
 30
0.0
 11
156.9514963641515
 21
76.723964320125901
 31
0.0
  0
LINE
  5
B24
  8
2
 10
262.33049636415183
 20
76.344964320125655
 30
0.0
 11
262.33049636415183
 21
83.92396432012589
 31
0.0
  0
LINE
  5
B25
  8
2
 10
261.95149636415152
 20
76.723964320125901
 30
0.0
 11
261.95149636415152
 21
86.92396432012589
 31
0.0
  0
LINE
  5
B26
  8
2
 10
258.33049636415183
 20
76.344964320125655
 30
0.0
 11
258.33049636415183
 21
83.92396432012589
 31
0.0
  0
LINE
  5
B27
  8
2
 10
258.70949636415202
 20
76.723964320125901
 30
0.0
 11
258.70949636415202
 21
86.92396432012589
 31
0.0
  0
LINE
  5
B28
  8
2
 10
261.95149636415141
 20
86.92396432012589
 30
0.0
 11
260.33049636415183
 21
87.897959383569344
 31
0.0
  0
LINE
  5
B29
  8
2
 10
262.33049636415183
 20
83.92396432012589
 30
0.0
 11
258.33049636415183
 21
83.92396432012589
 31
0.0
  0
LINE
  5
B2A
  8
2
 10
261.95149636415152
 20
86.92396432012589
 30
0.0
 11
258.70949636415202
 21
86.92396432012589
 31
0.0
  0
LINE
  5
B2B
  8
2
 10
258.70949636415202
 20
86.923964320125776
 30
0.0
 11
260.33049636415183
 21
87.897959383569344
 31
0.0
  0
LINE
  5
B2C
  8
2
 10
258.33049636415183
 20
83.92396432012589
 30
0.0
 11
258.70949636415202
 21
84.580411576194933
 31
0.0
  0
LINE
  5
B2D
  8
2
 10
262.33049636415171
 20
83.92396432012589
 30
0.0
 11
261.95149636415152
 21
84.580411576194933
 31
0.0
  0
LINE
  5
B2E
  8
2
 10
258.70949636415202
 20
76.723964320125901
 30
0.0
 11
261.95149636415152
 21
76.723964320125901
 31
0.0
  0
LINE
  5
B2F
  8
2
 10
257.90949636415189
 20
75.92396432012589
 30
0.0
 11
258.70949636415202
 21
76.723964320125901
 31
0.0
  0
LINE
  5
B30
  8
2
 10
261.95149636415152
 20
76.723964320125901
 30
0.0
 11
262.75149636415159
 21
75.92396432012589
 31
0.0
  0
LINE
  5
B54
  8
3
 10
147.8304963641518
 20
97.098205321957906
 30
0.0
 11
267.83049636415183
 21
97.098205321957863
 31
0.0
  0
LINE
  5
B55
  8
0
 10
147.8304963641518
 20
91.423964320125876
 30
0.0
 11
267.83049636415183
 21
91.423964320125805
 31
0.0
  0
TEXT
  5
10C8
  8
0
 62
     3
 10
0.0
 20
0.0
 30
0.0
 40
10.0
  1
PH3-105N
  7
STANDARD1
  0
ENDSEC
  0
EOF
