  0
SECTION
  2
HEADER
  9
$ACADVER
  1
AC1009
  9
$INSBASE
 10
0.0
 20
0.0
 30
0.0
  9
$EXTMIN
 10
0.0
 20
-195.31252324934431
 30
0.0
  9
$EXTMAX
 10
354.99999999999989
 20
210.4999999999998
 30
0.0
  9
$LIMMIN
 10
0.0
 20
0.0
  9
$LIMMAX
 10
375.0
 20
270.0
  9
$ORTHOMODE
 70
     1
  9
$REGENMODE
 70
     1
  9
$FILLMODE
 70
     1
  9
$QTEXTMODE
 70
     0
  9
$MIRRTEXT
 70
     0
  9
$DRAGMODE
 70
     2
  9
$LTSCALE
 40
5.0
  9
$OSMODE
 70
    37
  9
$ATTMODE
 70
     1
  9
$TEXTSIZE
 40
6.0
  9
$TRACEWID
 40
0.05
  9
$TEXTSTYLE
  7
STANDARD
  9
$CLAYER
  8
0
  9
$CELTYPE
  6
BYLAYER
  9
$CECOLOR
 62
   256
  9
$DIMSCALE
 40
1.0
  9
$DIMASZ
 40
3.0
  9
$DIMEXO
 40
2.0
  9
$DIMDLI
 40
0.3799999999999999
  9
$DIMRND
 40
0.0
  9
$DIMDLE
 40
0.0
  9
$DIMEXE
 40
2.0
  9
$DIMTP
 40
0.0
  9
$DIMTM
 40
0.0
  9
$DIMTXT
 40
3.2000000000000002
  9
$DIMCEN
 40
0.09
  9
$DIMTSZ
 40
0.0
  9
$DIMTOL
 70
     0
  9
$DIMLIM
 70
     0
  9
$DIMTIH
 70
     0
  9
$DIMTOH
 70
     0
  9
$DIMSE1
 70
     0
  9
$DIMSE2
 70
     0
  9
$DIMTAD
 70
     1
  9
$DIMZIN
 70
     9
  9
$DIMBLK
  1

  9
$DIMASO
 70
     0
  9
$DIMSHO
 70
     0
  9
$DIMPOST
  1

  9
$DIMAPOST
  1

  9
$DIMALT
 70
     0
  9
$DIMALTD
 70
     2
  9
$DIMALTF
 40
25.399999999999999
  9
$DIMLFAC
 40
1.0
  9
$DIMTOFL
 70
     0
  9
$DIMTVP
 40
0.0
  9
$DIMTIX
 70
     0
  9
$DIMSOXD
 70
     0
  9
$DIMSAH
 70
     0
  9
$DIMBLK1
  1

  9
$DIMBLK2
  1

  9
$DIMSTYLE
  2
STANDARD
  9
$DIMCLRD
 70
     0
  9
$DIMCLRE
 70
     0
  9
$DIMCLRT
 70
     0
  9
$DIMTFAC
 40
1.0
  9
$DIMGAP
 40
0.09
  9
$LUNITS
 70
     2
  9
$LUPREC
 70
     4
  9
$SKETCHINC
 40
0.1
  9
$FILLETRAD
 40
20.0
  9
$AUNITS
 70
     0
  9
$AUPREC
 70
     3
  9
$MENU
  1
E:\r13\win\SUPPORT\ACAD
  9
$ELEVATION
 40
0.0
  9
$PELEVATION
 40
0.0
  9
$THICKNESS
 40
0.0
  9
$LIMCHECK
 70
     0
  9
$BLIPMODE
 70
     0
  9
$CHAMFERA
 40
0.0
  9
$CHAMFERB
 40
0.0
  9
$SKPOLY
 70
     0
  9
$TDCREATE
 40
2449840.6320370371
  9
$TDUPDATE
 40
2456610.6947934842
  9
$TDINDWG
 40
1.2428993749999999
  9
$TDUSRTIMER
 40
1.2428993749999999
  9
$USRTIMER
 70
     1
  9
$ANGBASE
 50
0.0
  9
$ANGDIR
 70
     0
  9
$PDMODE
 70
     0
  9
$PDSIZE
 40
0.0
  9
$PLINEWID
 40
0.0
  9
$COORDS
 70
     1
  9
$SPLFRAME
 70
     0
  9
$SPLINETYPE
 70
     6
  9
$SPLINESEGS
 70
     8
  9
$ATTDIA
 70
     0
  9
$ATTREQ
 70
     1
  9
$HANDLING
 70
     1
  9
$HANDSEED
  5
1647B
  9
$SURFTAB1
 70
     6
  9
$SURFTAB2
 70
     6
  9
$SURFTYPE
 70
     6
  9
$SURFU
 70
     6
  9
$SURFV
 70
     6
  9
$UCSNAME
  2

  9
$UCSORG
 10
0.0
 20
0.0
 30
0.0
  9
$UCSXDIR
 10
1.0
 20
0.0
 30
0.0
  9
$UCSYDIR
 10
0.0
 20
1.0
 30
0.0
  9
$PUCSNAME
  2

  9
$PUCSORG
 10
0.0
 20
0.0
 30
0.0
  9
$PUCSXDIR
 10
1.0
 20
0.0
 30
0.0
  9
$PUCSYDIR
 10
0.0
 20
1.0
 30
0.0
  9
$USERI1
 70
     0
  9
$USERI2
 70
     1
  9
$USERI3
 70
     0
  9
$USERI4
 70
     0
  9
$USERI5
 70
     0
  9
$USERR1
 40
0.0
  9
$USERR2
 40
0.0
  9
$USERR3
 40
0.0
  9
$USERR4
 40
0.0
  9
$USERR5
 40
0.0
  9
$WORLDVIEW
 70
     1
  9
$SHADEDGE
 70
     3
  9
$SHADEDIF
 70
    70
  9
$TILEMODE
 70
     1
  9
$MAXACTVP
 70
    16
  9
$PLIMCHECK
 70
     0
  9
$PEXTMIN
 10
1.0000000000000000E+020
 20
1.0000000000000000E+020
 30
1.0000000000000000E+020
  9
$PEXTMAX
 10
-1.0000000000000000E+020
 20
-1.0000000000000000E+020
 30
-1.0000000000000000E+020
  9
$PLIMMIN
 10
0.0
 20
0.0
  9
$PLIMMAX
 10
12.0
 20
9.0
  9
$UNITMODE
 70
     0
  9
$VISRETAIN
 70
     0
  9
$PLINEGEN
 70
     0
  9
$PSLTSCALE
 70
     0
  0
ENDSEC
  0
SECTION
  2
TABLES
  0
TABLE
  2
VPORT
 70
     1
  0
VPORT
  2
*ACTIVE
 70
     0
 10
0.0
 20
0.0
 11
1.0
 21
1.0
 12
166.32743362831849
 22
95.290378309769736
 13
0.0
 23
0.0
 14
10.0
 24
10.0
 15
10.0
 25
10.0
 16
0.0
 26
0.0
 36
1.0
 17
0.0
 27
0.0
 37
0.0
 40
190.5807566195395
 41
1.7454798331015291
 42
50.0
 43
0.0
 44
0.0
 50
0.0
 51
0.0
 71
     0
 72
   500
 73
     1
 74
     0
 75
     0
 76
     0
 77
     0
 78
     0
  0
ENDTAB
  0
TABLE
  2
LTYPE
 70
     4
  0
LTYPE
  2
CONTINUOUS
 70
     0
  3
Solid Line
 72
    65
 73
     0
 40
0.0
  0
LTYPE
  2
CENTER
 70
     0
  3
____ _ ____ _ ____ _ ____ _ ____ _ ____ _ ____
 72
    65
 73
     4
 40
2.0
 49
1.25
 49
-0.25
 49
0.25
 49
-0.25
  0
LTYPE
  2
PHANTOM2
 70
     0
  3
___ _ _ ___ _ _ ___ _ _ ___ _ _
 72
    65
 73
     6
 40
1.25
 49
0.625
 49
-0.125
 49
0.125
 49
-0.125
 49
0.125
 49
-0.125
  0
LTYPE
  2
PHANTOM
 70
     0
  3
_____ _ _ _____ _ _ _____ _ _ _____ _ _ ____
 72
    65
 73
     6
 40
2.5
 49
1.25
 49
-0.25
 49
0.25
 49
-0.25
 49
0.25
 49
-0.25
  0
ENDTAB
  0
TABLE
  2
LAYER
 70
     5
  0
LAYER
  2
0
 70
     0
 62
     7
  6
CONTINUOUS
  0
LAYER
  2
1
 70
     0
 62
     1
  6
CENTER
  0
LAYER
  2
DEFPOINTS
 70
     0
 62
     7
  6
CONTINUOUS
  0
LAYER
  2
3
 70
     0
 62
     3
  6
CONTINUOUS
  0
LAYER
  2
5
 70
     0
 62
     3
  6
PHANTOM
  0
ENDTAB
  0
TABLE
  2
STYLE
 70
     2
  0
STYLE
  2
STANDARD
 70
     0
 40
0.0
 41
1.0
 50
0.0
 71
     0
 42
6.0
  3
TXT
  4
BIGFONT
  0
STYLE
  2
STANDARD1
 70
     0
 40
0.0
 41
1.0
 50
0.0
 71
     0
 42
3.0
  3
txt
  4

  0
ENDTAB
  0
TABLE
  2
VIEW
 70
     1
  0
VIEW
  2
ALL
 70
     0
 40
270.0
 10
213.25689075630251
 20
135.0
 41
0.0
 11
0.0
 21
0.0
 31
1.0
 12
0.0
 22
0.0
 32
0.0
 42
0.0
 43
0.0
 44
0.0
 50
0.0
 71
     0
  0
ENDTAB
  0
TABLE
  2
UCS
 70
     0
  0
ENDTAB
  0
TABLE
  2
APPID
 70
     6
  0
APPID
  2
ACAD
 70
     0
  0
APPID
  2
ACAD_EXEMPT_FROM_CAD_STANDARDS
 70
     0
  0
APPID
  2
ACAD_MLEADERVER
 70
     0
  0
APPID
  2
ACAD_DSTYLE_DIMJAG
 70
     0
  0
APPID
  2
ACAD_DSTYLE_DIMTALN
 70
     0
  0
APPID
  2
ACAD_NAV_VCDISPLAY
 70
     0
  0
ENDTAB
  0
TABLE
  2
DIMSTYLE
 70
     1
  0
DIMSTYLE
  2
STANDARD
 70
     0
  3

  4

  5

  6

  7

 40
1.0
 41
0.18
 42
0.0625
 43
0.38
 44
0.18
 45
0.0
 46
0.0
 47
0.0
 48
0.0
140
0.18
141
0.09
142
0.0
143
25.399999999999999
144
1.0
145
0.0
146
1.0
147
0.09
 71
     0
 72
     0
 73
     1
 74
     1
 75
     0
 76
     0
 77
     0
 78
     0
170
     0
171
     2
172
     0
173
     0
174
     0
175
     0
176
     0
177
     0
178
     0
  0
ENDTAB
  0
ENDSEC
  0
SECTION
  2
BLOCKS
  0
BLOCK
  8
0
  2
$MODEL_SPACE
 70
     0
 10
0.0
 20
0.0
 30
0.0
  3
$MODEL_SPACE
  1

  0
ENDBLK
  5
126
  8
0
  0
BLOCK
 67
     1
  8
0
  2
$PAPER_SPACE
 70
     0
 10
0.0
 20
0.0
 30
0.0
  3
$PAPER_SPACE
  1

  0
ENDBLK
  5
124
 67
     1
  8
0
  0
ENDSEC
  0
SECTION
  2
ENTITIES
  0
LINE
  5
1498D
  8
0
 10
174.5301027891644
 20
108.3301027891642
 30
0.0
 11
174.5
 21
108.2999999999998
 31
0.0
  0
LINE
  5
1498E
  8
0
 10
174.5
 20
105.6999999999998
 30
0.0
 11
174.52993253040879
 21
105.6700674695911
 31
0.0
  0
LINE
  5
14991
  8
0
 10
189.5
 20
129.1880108514107
 30
0.0
 11
189.2999999999999
 21
129.3880108514106
 31
0.0
  0
LINE
  5
14992
  8
0
 10
175.69999999999999
 20
129.3880108514106
 30
0.0
 11
175.5
 21
129.1880108514107
 31
0.0
  0
LINE
  5
14993
  8
0
 10
189.5
 20
118.9999999999997
 30
0.0
 11
189.5
 21
129.1880108514107
 31
0.0
  0
LINE
  5
14994
  8
0
 10
175.5
 20
129.1880108514107
 30
0.0
 11
175.5
 21
118.9999999999997
 31
0.0
  0
LINE
  5
14995
  8
0
 10
174.49999999999969
 20
105.4999999999998
 30
0.0
 11
174.5
 21
100.4999999999999
 31
0.0
  0
LINE
  5
14996
  8
0
 10
174.5
 20
118.7999999999998
 30
0.0
 11
174.5
 21
108.4999999999998
 31
0.0
  0
LINE
  5
14997
  8
0
 10
190.5
 20
108.4999999999997
 30
0.0
 11
190.5
 21
118.7999999999998
 31
0.0
  0
LINE
  5
14998
  8
0
 10
190.5
 20
100.4999999999999
 30
0.0
 11
190.5000000000002
 21
105.50002388228251
 31
0.0
  0
LINE
  5
14999
  8
0
 10
190.5
 20
118.7999999999998
 30
0.0
 11
190.2999999999999
 21
118.9999999999997
 31
0.0
  0
LINE
  5
1499A
  8
0
 10
174.69999999999999
 20
118.9999999999997
 30
0.0
 11
174.5
 21
118.7999999999998
 31
0.0
  0
LINE
  5
1499B
  8
0
 10
174.5
 20
100.4999999999999
 30
0.0
 11
175.0
 21
99.999999999999886
 31
0.0
  0
LINE
  5
1499C
  8
0
 10
190.0
 20
99.999999999999886
 30
0.0
 11
190.5
 21
100.4999999999999
 31
0.0
  0
LINE
  5
1499D
  8
0
 10
170.0
 20
144.49999999999989
 30
0.0
 11
170.0
 21
142.49999999999989
 31
0.0
  0
LINE
  5
1499E
  8
0
 10
195.0
 20
142.49999999999989
 30
0.0
 11
195.0
 21
144.49999999999989
 31
0.0
  0
LINE
  5
1499F
  8
0
 10
170.0
 20
142.49999999999989
 30
0.0
 11
170.5
 21
141.99999999999989
 31
0.0
  0
LINE
  5
149A0
  8
0
 10
194.5
 20
141.99999999999989
 30
0.0
 11
195.0
 21
142.49999999999989
 31
0.0
  0
LINE
  5
149A1
  8
0
 10
170.5
 20
144.99999999999969
 30
0.0
 11
170.0
 21
144.49999999999989
 31
0.0
  0
LINE
  5
149A2
  8
0
 10
195.0
 20
144.49999999999989
 30
0.0
 11
194.5
 21
144.99999999999969
 31
0.0
  0
LINE
  5
149A3
  8
0
 10
172.5
 20
131.49999999999969
 30
0.0
 11
174.0
 21
129.9999999999998
 31
0.0
  0
LINE
  5
149A4
  8
0
 10
191.0
 20
129.9999999999998
 30
0.0
 11
192.5
 21
131.49999999999969
 31
0.0
  0
LINE
  5
149A5
  8
0
 10
172.5
 20
139.4999999999998
 30
0.0
 11
172.5
 21
131.49999999999969
 31
0.0
  0
LINE
  5
149A6
  8
0
 10
192.5
 20
131.49999999999969
 30
0.0
 11
192.5
 21
139.4999999999998
 31
0.0
  0
ARC
  5
149A7
  8
0
 10
172.85000000000011
 20
141.19999999999979
 30
0.0
 40
0.8000000000000113
 50
0.0
 51
90.0
  0
ARC
  5
149A8
  8
0
 10
192.15000000000009
 20
141.19999999999979
 30
0.0
 40
0.8000000000000113
 50
90.0
 51
180.0
  0
ARC
  5
149A9
  8
0
 10
172.85000000000011
 20
140.29999999999981
 30
0.0
 40
0.7999999999999972
 50
270.0
 51
0.0
  0
ARC
  5
149AA
  8
0
 10
192.15000000000009
 20
140.29999999999981
 30
0.0
 40
0.7999999999999972
 50
180.0
 51
270.0
  0
LINE
  5
149AB
  8
0
 10
173.65000000000009
 20
141.19999999999979
 30
0.0
 11
173.65000000000009
 21
140.29999999999981
 31
0.0
  0
LINE
  5
149AC
  8
0
 10
191.35000000000011
 20
140.29999999999981
 30
0.0
 11
191.35000000000011
 21
141.19999999999979
 31
0.0
  0
LINE
  5
149AD
  8
0
 10
177.75
 20
129.5999999999998
 30
0.0
 11
177.75
 21
129.3880108514106
 31
0.0
  0
ARC
  5
149AE
  8
0
 10
177.34999999999991
 20
129.5999999999998
 30
0.0
 40
0.4000000000000057
 50
0.0
 51
90.0
  0
LINE
  5
149B0
  8
0
 10
174.5
 20
105.7000000000002
 30
0.0
 11
174.5
 21
108.2999999999998
 31
0.0
  0
LINE
  5
149B5
  8
0
 10
175.69999999999999
 20
129.3880108514106
 30
0.0
 11
189.2999999999997
 21
129.38801085141051
 31
0.0
  0
LINE
  5
149BB
  8
0
 10
174.69999999999999
 20
118.9999999999997
 30
0.0
 11
190.2999999999999
 21
118.9999999999997
 31
0.0
  0
LINE
  5
149BC
  8
0
 10
190.0
 20
99.999999999999886
 30
0.0
 11
175.0
 21
99.999999999999886
 31
0.0
  0
LINE
  5
149BF
  8
0
 10
181.25
 20
142.99999999999989
 30
0.0
 11
181.25
 21
144.9999999999998
 31
0.0
  0
LINE
  5
149C0
  8
0
 10
183.75
 20
144.9999999999998
 30
0.0
 11
183.75
 21
142.99999999999989
 31
0.0
  0
LINE
  5
149C3
  8
0
 10
181.25
 20
142.99999999999989
 30
0.0
 11
183.75
 21
142.99999999999989
 31
0.0
  0
LINE
  5
149C5
  8
0
 10
194.5
 20
141.99999999999989
 30
0.0
 11
170.4999999999998
 21
141.99999999999989
 31
0.0
  0
LINE
  5
149C6
  8
0
 10
170.5
 20
144.99999999999969
 30
0.0
 11
181.25
 21
144.99999999999969
 31
0.0
  0
LINE
  5
149C8
  8
0
 10
183.75
 20
144.99999999999969
 30
0.0
 11
194.5
 21
144.99999999999969
 31
0.0
  0
LINE
  5
149CA
  8
0
 10
174.0000000000002
 20
129.9999999999998
 30
0.0
 11
191.0
 21
129.9999999999998
 31
0.0
  0
LINE
  5
149CD
  8
0
 10
172.5
 20
131.49999999999969
 30
0.0
 11
192.5
 21
131.49999999999969
 31
0.0
  0
LINE
  5
149CF
  8
0
 10
172.5
 20
139.4999999999998
 30
0.0
 11
192.5
 21
139.4999999999998
 31
0.0
  0
ARC
  5
149D3
  8
0
 10
180.15159628683659
 20
128.39230975530211
 30
0.0
 40
1.3547659307562601
 50
63.054543744949328
 51
116.9454562550506
  0
POLYLINE
  5
149D6
  8
0
 66
     1
 10
0.0
 20
0.0
 30
0.0
 70
   128
  0
VERTEX
  5
16436
  8
0
 10
180.7654977447271
 20
129.5999999999998
 30
0.0
  0
VERTEX
  5
16437
  8
0
 10
180.98831034341879
 20
129.4745028117122
 30
0.0
  0
VERTEX
  5
16438
  8
0
 10
181.10114897331161
 20
129.3880108514106
 30
0.0
  0
SEQEND
  5
16439
  8
0
  0
POLYLINE
  5
149D7
  8
0
 66
     1
 10
0.0
 20
0.0
 30
0.0
 70
   128
  0
VERTEX
  5
1643A
  8
0
 10
179.26990303595539
 20
129.3880108514106
 30
0.0
  0
VERTEX
  5
1643B
  8
0
 10
179.32637612514031
 20
129.44895817041839
 30
0.0
  0
VERTEX
  5
1643C
  8
0
 10
179.53769482894609
 20
129.5999999999998
 30
0.0
  0
SEQEND
  5
1643D
  8
0
  0
ARC
  5
149E4
  8
0
 10
186.1779056191362
 20
194.99999999999989
 30
0.0
 40
1.7500000000000031
 50
143.43798205893921
 51
216.56201794106079
  0
ARC
  5
149E6
  8
0
 10
182.5
 20
194.99999999999969
 30
0.0
 40
5.0000000000000204
 50
104.47751218593029
 51
255.52248781406959
  0
ARC
  5
149EB
  8
0
 10
182.5
 20
194.99999999999969
 30
0.0
 40
5.0000000000000266
 50
284.47751218593032
 51
75.522487814069663
  0
LINE
  5
149F5
  8
0
 10
181.25
 20
207.43734296383249
 30
0.0
 11
181.25
 21
198.7996710383924
 31
0.0
  0
LINE
  5
149F6
  8
0
 10
181.25
 20
191.20032896160711
 30
0.0
 11
181.25
 21
182.5626570361672
 31
0.0
  0
LINE
  5
149F7
  8
0
 10
183.75
 20
182.5626570361672
 30
0.0
 11
183.74999999999969
 21
191.200328961607
 31
0.0
  0
LINE
  5
149F8
  8
0
 10
183.74999999999969
 20
198.79967103839249
 30
0.0
 11
183.75
 21
207.43734296383249
 31
0.0
  0
CIRCLE
  5
149FD
  8
0
 10
182.5
 20
194.99999999999989
 30
0.0
 40
2.5
  0
LINE
  5
14A42
  8
0
 10
252.0
 20
118.9999999999997
 30
0.0
 11
252.0
 21
129.1880108514107
 31
0.0
  0
LINE
  5
14A43
  8
0
 10
238.0
 20
129.1880108514107
 30
0.0
 11
238.0
 21
118.9999999999997
 31
0.0
  0
LINE
  5
14A44
  8
0
 10
252.0
 20
129.1880108514107
 30
0.0
 11
251.80000000000001
 21
129.3880108514106
 31
0.0
  0
LINE
  5
14A45
  8
0
 10
238.19999999999979
 20
129.3880108514106
 30
0.0
 11
238.0
 21
129.1880108514107
 31
0.0
  0
LINE
  5
14A46
  8
0
 10
237.0
 20
118.7999999999998
 30
0.0
 11
237.0
 21
100.4999999999999
 31
0.0
  0
LINE
  5
14A47
  8
0
 10
253.0
 20
100.4999999999999
 30
0.0
 11
253.0
 21
118.7999999999998
 31
0.0
  0
LINE
  5
14A48
  8
0
 10
253.0
 20
118.7999999999998
 30
0.0
 11
252.80000000000001
 21
118.9999999999997
 31
0.0
  0
LINE
  5
14A49
  8
0
 10
237.19999999999979
 20
118.9999999999997
 30
0.0
 11
237.0
 21
118.7999999999998
 31
0.0
  0
LINE
  5
14A4A
  8
0
 10
237.0
 20
100.4999999999999
 30
0.0
 11
237.5
 21
99.999999999999886
 31
0.0
  0
LINE
  5
14A4B
  8
0
 10
252.5
 20
99.999999999999886
 30
0.0
 11
253.0
 21
100.4999999999999
 31
0.0
  0
LINE
  5
14A4C
  8
0
 10
232.5
 20
142.99999999999989
 30
0.0
 11
232.5
 21
142.49999999999989
 31
0.0
  0
LINE
  5
14A4D
  8
0
 10
257.5
 20
142.49999999999989
 30
0.0
 11
257.5
 21
142.99999999999989
 31
0.0
  0
LINE
  5
14A4E
  8
0
 10
232.5
 20
142.49999999999989
 30
0.0
 11
233.0
 21
141.99999999999989
 31
0.0
  0
LINE
  5
14A4F
  8
0
 10
257.0
 20
141.99999999999989
 30
0.0
 11
257.5
 21
142.49999999999989
 31
0.0
  0
LINE
  5
14A50
  8
0
 10
235.0
 20
139.4999999999998
 30
0.0
 11
235.0
 21
131.49999999999969
 31
0.0
  0
LINE
  5
14A51
  8
0
 10
255.0
 20
131.49999999999969
 30
0.0
 11
255.0
 21
139.4999999999998
 31
0.0
  0
LINE
  5
14A52
  8
0
 10
235.0
 20
131.49999999999969
 30
0.0
 11
236.5
 21
129.9999999999998
 31
0.0
  0
LINE
  5
14A53
  8
0
 10
253.5
 20
129.9999999999998
 30
0.0
 11
255.0
 21
131.49999999999969
 31
0.0
  0
ARC
  5
14A54
  8
0
 10
235.34999999999991
 20
140.29999999999981
 30
0.0
 40
0.8000000000000113
 50
270.0
 51
0.0
  0
ARC
  5
14A55
  8
0
 10
254.64999999999989
 20
140.29999999999981
 30
0.0
 40
0.8000000000000113
 50
180.0
 51
270.0
  0
ARC
  5
14A56
  8
0
 10
235.34999999999991
 20
141.19999999999979
 30
0.0
 40
0.8000000000000113
 50
0.0
 51
90.0
  0
ARC
  5
14A57
  8
0
 10
254.64999999999989
 20
141.19999999999979
 30
0.0
 40
0.8000000000000113
 50
90.0
 51
180.0
  0
LINE
  5
14A58
  8
0
 10
236.14999999999989
 20
141.19999999999979
 30
0.0
 11
236.14999999999989
 21
140.29999999999981
 31
0.0
  0
LINE
  5
14A59
  8
0
 10
253.84999999999991
 20
140.29999999999981
 30
0.0
 11
253.84999999999991
 21
141.19999999999979
 31
0.0
  0
ARC
  5
14A5A
  8
0
 10
250.14999999999989
 20
129.5999999999998
 30
0.0
 40
0.4000000000000057
 50
90.0
 51
180.0
  0
ARC
  5
14A5B
  8
0
 10
239.84999999999991
 20
129.5999999999998
 30
0.0
 40
0.4000000000000057
 50
0.0
 51
90.0
  0
LINE
  5
14A5C
  8
0
 10
240.25
 20
129.5999999999998
 30
0.0
 11
240.25
 21
129.3880108514106
 31
0.0
  0
LINE
  5
14A5D
  8
0
 10
249.75
 20
129.3880108514106
 30
0.0
 11
249.75
 21
129.5999999999998
 31
0.0
  0
LINE
  5
14A60
  8
0
 10
238.19999999999979
 20
129.3880108514106
 30
0.0
 11
251.80000000000001
 21
129.3880108514106
 31
0.0
  0
CIRCLE
  5
14A63
  8
0
 10
245.0
 20
106.9999999999998
 30
0.0
 40
1.500000000000014
  0
LINE
  5
14A65
  8
0
 10
237.19999999999979
 20
118.9999999999997
 30
0.0
 11
252.80000000000001
 21
118.9999999999997
 31
0.0
  0
LINE
  5
14A66
  8
0
 10
252.5
 20
99.999999999999886
 30
0.0
 11
237.5
 21
99.999999999999886
 31
0.0
  0
LINE
  5
14A67
  8
0
 10
233.06528173771991
 20
144.99999999999969
 30
0.0
 11
256.93471826228
 21
144.99999999999969
 31
0.0
  0
LINE
  5
14A68
  8
0
 10
256.93471826228
 20
144.99999999999969
 30
0.0
 11
257.43734296383258
 21
144.49999999999989
 31
0.0
  0
LINE
  5
14A6A
  8
0
 10
232.56265703616711
 20
144.49999999999989
 30
0.0
 11
233.06528173771991
 21
144.99999999999969
 31
0.0
  0
LINE
  5
14A6C
  8
0
 10
232.5
 20
142.99999999999989
 30
0.0
 11
232.56265703616711
 21
142.99999999999989
 31
0.0
  0
LINE
  5
14A6D
  8
0
 10
232.56265703616711
 20
144.49999999999989
 30
0.0
 11
232.56265703616711
 21
142.99999999999989
 31
0.0
  0
LINE
  5
14A6E
  8
0
 10
257.43734296383258
 20
142.99999999999989
 30
0.0
 11
257.43734296383258
 21
144.49999999999989
 31
0.0
  0
LINE
  5
14A6F
  8
0
 10
257.43734296383258
 20
142.99999999999989
 30
0.0
 11
257.5
 21
142.99999999999989
 31
0.0
  0
LINE
  5
14A70
  8
0
 10
257.0
 20
141.99999999999989
 30
0.0
 11
233.0
 21
141.99999999999989
 31
0.0
  0
LINE
  5
14A71
  8
0
 10
235.0
 20
131.49999999999969
 30
0.0
 11
255.0
 21
131.49999999999969
 31
0.0
  0
LINE
  5
14A72
  8
0
 10
235.0
 20
139.4999999999998
 30
0.0
 11
255.0
 21
139.4999999999998
 31
0.0
  0
LINE
  5
14A73
  8
0
 10
236.5
 20
129.9999999999998
 30
0.0
 11
253.5
 21
129.9999999999998
 31
0.0
  0
ARC
  5
14A74
  8
0
 10
245.0
 20
128.0000000000006
 30
0.0
 40
1.7499999999993401
 50
66.104491813829611
 51
113.8955081861704
  0
ARC
  5
14A78
  8
0
 10
245.18547943532479
 20
128.3433343501259
 30
0.0
 40
1.3613040411161901
 50
50.12175508519946
 51
67.388596039638443
  0
CIRCLE
  5
14A79
  8
0
 10
245.0
 20
106.9999999999998
 30
0.0
 40
1.0999999999999941
  0
LINE
  5
14A80
  8
0
 10
174.62858726643111
 20
51.428587266431009
 30
0.0
 11
174.5
 21
51.300000000000061
 31
0.0
  0
LINE
  5
14A81
  8
0
 10
174.5
 20
48.700000000000038
 30
0.0
 11
174.62858726643111
 21
48.571412733568991
 31
0.0
  0
LINE
  5
14A82
  8
0
 10
174.5
 20
48.700000000000038
 30
0.0
 11
174.5
 21
51.300000000000061
 31
0.0
  0
CIRCLE
  5
14A83
  8
0
 10
182.5
 20
50.0
 30
0.0
 40
8.0000000000000302
  0
LINE
  5
14A86
  8
0
 10
189.5
 20
49.25
 30
0.0
 11
189.5
 21
50.750000000000107
 31
0.0
  0
LINE
  5
14A87
  8
0
 10
189.5
 20
50.750000000000107
 30
0.0
 11
187.0
 21
50.750000000000107
 31
0.0
  0
LINE
  5
14A88
  8
0
 10
187.0
 20
50.750000000000107
 30
0.0
 11
187.0
 21
49.25
 31
0.0
  0
LINE
  5
14A89
  8
0
 10
187.0
 20
49.25
 30
0.0
 11
189.5
 21
49.25
 31
0.0
  0
LINE
  5
14A8A
  8
0
 10
178.0
 20
49.25
 30
0.0
 11
178.0
 21
50.750000000000107
 31
0.0
  0
LINE
  5
14A8B
  8
0
 10
178.0
 20
50.750000000000107
 30
0.0
 11
175.5
 21
50.750000000000107
 31
0.0
  0
LINE
  5
14A8C
  8
0
 10
175.5
 20
50.750000000000107
 30
0.0
 11
175.5
 21
49.25
 31
0.0
  0
LINE
  5
14A8D
  8
0
 10
175.5
 20
49.25
 30
0.0
 11
178.0
 21
49.25
 31
0.0
  0
LINE
  5
14A97
  8
0
 10
181.75
 20
53.000000000000107
 30
0.0
 11
181.75
 21
47.0
 31
0.0
  0
LINE
  5
14A98
  8
0
 10
181.75
 20
47.0
 30
0.0
 11
183.25
 21
47.0
 31
0.0
  0
LINE
  5
14A99
  8
0
 10
183.25
 20
47.0
 30
0.0
 11
183.25
 21
53.000000000000107
 31
0.0
  0
LINE
  5
14A9A
  8
0
 10
183.25
 20
53.000000000000107
 30
0.0
 11
181.75
 21
53.000000000000107
 31
0.0
  0
CIRCLE
  5
14A9B
  8
0
 10
182.5
 20
50.0
 30
0.0
 40
8.5000000000000071
  0
CIRCLE
  5
14A9C
  8
0
 10
182.5
 20
49.999999999999893
 30
0.0
 40
10.0
  0
CIRCLE
  5
14A9D
  8
0
 10
182.5
 20
49.999999999999893
 30
0.0
 40
12.499999999999989
  0
CIRCLE
  5
14C2C
  8
0
 10
182.5
 20
194.99999999999989
 30
0.0
 40
12.499999999999879
  0
ARC
  5
14C2D
  8
0
 10
180.6610471904319
 20
198.1851596988933
 30
0.0
 40
1.749999999999996
 50
263.43798205894041
 51
336.56201794105277
  0
ARC
  5
14C2E
  8
0
 10
180.6610471904321
 20
191.81484030110639
 30
0.0
 40
1.749999999999996
 50
23.43798205894403
 51
96.562017941059594
  0
CIRCLE
  5
14C30
  8
0
 10
182.5
 20
194.99999999999989
 30
0.0
 40
3.9999999999999432
  0
LINE
  5
14FF5
  8
0
 10
187.2437038534965
 20
129.3880108514106
 30
0.0
 11
187.1500045989514
 21
129.45533258866141
 31
0.0
  0
ARC
  5
14FF6
  8
0
 10
187.6202471811809
 20
129.60002997994329
 30
0.0
 40
0.399970054318433
 50
90.177190591620473
 51
163.9140799855123
  0
POLYLINE
  5
14FF8
  8
0
 66
     1
 10
0.0
 20
0.0
 30
0.0
 70
   128
  0
VERTEX
  5
16442
  8
0
 10
187.23593704519379
 20
129.7108530990526
 30
0.0
  0
VERTEX
  5
16443
  8
0
 10
187.18610476143721
 20
129.56764278950519
 30
0.0
  0
VERTEX
  5
16444
  8
0
 10
187.16230009962351
 20
129.4956745030081
 30
0.0
  0
VERTEX
  5
16445
  8
0
 10
187.1294861263157
 20
129.3880108514106
 30
0.0
  0
SEQEND
  5
16446
  8
0
  0
ARC
  5
15000
  8
0
 10
198.35802809531739
 20
107.00001194114169
 30
0.0
 40
7.9999106072202242
 50
169.19304198072041
 51
190.80695801929241
  0
ARC
  5
15063
  8
0
 10
244.81452056467509
 20
128.3433343501259
 30
0.0
 40
1.3613040411161901
 50
112.6114039603483
 51
129.87824491478619
  0
CIRCLE
  5
15084
  8
0
 10
182.5
 20
50.0
 30
0.0
 40
4.0000000000000071
  0
LINE
  5
1511B
  8
1
 10
182.5
 20
65.499999999999886
 30
0.0
 11
182.5
 21
34.499999999999893
 31
0.0
  0
LINE
  5
1511C
  8
1
 10
245.0
 20
147.99999999999969
 30
0.0
 11
245.0
 21
96.999999999999886
 31
0.0
  0
LINE
  5
15131
  8
1
 10
198.0
 20
50.0
 30
0.0
 11
167.0
 21
50.0
 31
0.0
  0
LINE
  5
15132
  8
1
 10
198.0
 20
194.99999999999969
 30
0.0
 11
167.0
 21
194.99999999999969
 31
0.0
  0
LINE
  5
15139
  8
1
 10
182.5
 20
96.999999999999886
 30
0.0
 11
182.5
 21
147.99999999999969
 31
0.0
  0
LINE
  5
1513A
  8
1
 10
182.5
 20
179.5
 30
0.0
 11
182.5
 21
210.4999999999998
 31
0.0
  0
CIRCLE
  5
1515D
  8
3
 10
182.5
 20
50.0
 30
0.0
 40
9.1879999999996471
  0
LINE
  5
15164
  8
3
 10
173.3120000000003
 20
139.4999999999998
 30
0.0
 11
173.3120000000003
 21
130.68799999999939
 31
0.0
  0
LINE
  5
15165
  8
3
 10
191.68799999999959
 20
139.4999999999998
 30
0.0
 11
191.68799999999959
 21
130.68799999999939
 31
0.0
  0
LINE
  5
1516D
  8
3
 10
235.8120000000003
 20
139.4999999999998
 30
0.0
 11
235.8120000000003
 21
130.68799999999939
 31
0.0
  0
LINE
  5
1516E
  8
3
 10
254.18799999999959
 20
139.4999999999998
 30
0.0
 11
254.18799999999959
 21
130.68799999999939
 31
0.0
  0
POLYLINE
  5
15391
  8
0
 66
     1
 10
0.0
 20
0.0
 30
0.0
 70
   128
  0
VERTEX
  5
16447
  8
0
 10
116.2868816240864
 20
129.59999999999971
 30
0.0
  0
VERTEX
  5
16448
  8
0
 10
116.43761231417081
 20
129.47622387689509
 30
0.0
  0
VERTEX
  5
16449
  8
0
 10
116.51947205076399
 20
129.3880108514106
 30
0.0
  0
SEQEND
  5
1644A
  8
0
  0
POLYLINE
  5
15392
  8
0
 66
     1
 10
0.0
 20
0.0
 30
0.0
 70
   128
  0
VERTEX
  5
1644B
  8
0
 10
115.4622314101407
 20
129.3880108514106
 30
0.0
  0
VERTEX
  5
1644C
  8
0
 10
115.4844581411859
 20
129.44895817041831
 30
0.0
  0
VERTEX
  5
1644D
  8
0
 10
115.57800928014851
 20
129.59999999999971
 30
0.0
  0
SEQEND
  5
1644E
  8
0
  0
POLYLINE
  5
15393
  8
0
 66
     1
 10
0.0
 20
0.0
 30
0.0
 70
   128
  0
VERTEX
  5
1644F
  8
0
 10
124.42199071985139
 20
129.59999999999971
 30
0.0
  0
VERTEX
  5
16450
  8
0
 10
124.5022084481472
 20
129.47622387689509
 30
0.0
  0
VERTEX
  5
16451
  8
0
 10
124.5380155143588
 20
129.3880108514106
 30
0.0
  0
SEQEND
  5
16452
  8
0
  0
POLYLINE
  5
15394
  8
0
 66
     1
 10
0.0
 20
0.0
 30
0.0
 70
   128
  0
VERTEX
  5
16453
  8
0
 10
123.4809869806419
 20
129.3880108514106
 30
0.0
  0
VERTEX
  5
16454
  8
0
 10
123.5342059222576
 20
129.44895817041831
 30
0.0
  0
VERTEX
  5
16455
  8
0
 10
123.7131183759136
 20
129.59999999999971
 30
0.0
  0
SEQEND
  5
16456
  8
0
  0
POLYLINE
  5
15395
  8
0
 66
     1
 10
0.0
 20
0.0
 30
0.0
 70
   128
  0
VERTEX
  5
16457
  8
0
 10
123.7131183759136
 20
129.59999999999971
 30
0.0
  0
VERTEX
  5
16458
  8
0
 10
123.8803605410082
 20
129.69574747698499
 30
0.0
  0
VERTEX
  5
16459
  8
0
 10
124.0368953515768
 20
129.7436127045849
 30
0.0
  0
VERTEX
  5
1645A
  8
0
 10
124.1853138743671
 20
129.74378589460559
 30
0.0
  0
VERTEX
  5
1645B
  8
0
 10
124.30645769709611
 20
129.69946420438339
 30
0.0
  0
VERTEX
  5
1645C
  8
0
 10
124.4125591158124
 20
129.61100334248371
 30
0.0
  0
VERTEX
  5
1645D
  8
0
 10
124.42199071985139
 20
129.59999999999971
 30
0.0
  0
SEQEND
  5
1645E
  8
0
  0
POLYLINE
  5
15396
  8
0
 66
     1
 10
0.0
 20
0.0
 30
0.0
 70
   128
  0
VERTEX
  5
1645F
  8
0
 10
115.57800928014851
 20
129.59999999999971
 30
0.0
  0
VERTEX
  5
16460
  8
0
 10
115.68727330132209
 20
129.69574747698499
 30
0.0
  0
VERTEX
  5
16461
  8
0
 10
115.81372347019359
 20
129.7436127045849
 30
0.0
  0
VERTEX
  5
16462
  8
0
 10
115.96203182042549
 20
129.74378589460559
 30
0.0
  0
VERTEX
  5
16463
  8
0
 10
116.1110604678006
 20
129.69946420438339
 30
0.0
  0
VERTEX
  5
16464
  8
0
 10
116.2709379438048
 20
129.61100334248371
 30
0.0
  0
VERTEX
  5
16465
  8
0
 10
116.2868816240864
 20
129.59999999999971
 30
0.0
  0
SEQEND
  5
16466
  8
0
  0
LINE
  5
15400
  8
0
 10
113.0
 20
118.9999999999997
 30
0.0
 11
113.0
 21
129.1880108514107
 31
0.0
  0
LINE
  5
15401
  8
0
 10
127.0
 20
129.1880108514107
 30
0.0
 11
127.0
 21
118.9999999999997
 31
0.0
  0
LINE
  5
15402
  8
0
 10
113.0
 20
129.1880108514107
 30
0.0
 11
113.2
 21
129.3880108514106
 31
0.0
  0
LINE
  5
15403
  8
0
 10
126.8000000000002
 20
129.3880108514106
 30
0.0
 11
127.0
 21
129.1880108514107
 31
0.0
  0
LINE
  5
15404
  8
0
 10
128.0
 20
118.7999999999998
 30
0.0
 11
128.0
 21
100.4999999999999
 31
0.0
  0
LINE
  5
15405
  8
0
 10
112.0
 20
100.4999999999999
 30
0.0
 11
112.0
 21
118.7999999999998
 31
0.0
  0
LINE
  5
15406
  8
0
 10
112.0
 20
118.7999999999998
 30
0.0
 11
112.2
 21
118.9999999999997
 31
0.0
  0
LINE
  5
15407
  8
0
 10
127.8000000000002
 20
118.9999999999997
 30
0.0
 11
128.0
 21
118.7999999999998
 31
0.0
  0
LINE
  5
15408
  8
0
 10
128.0
 20
100.4999999999999
 30
0.0
 11
127.5
 21
99.999999999999886
 31
0.0
  0
LINE
  5
15409
  8
0
 10
112.5
 20
99.999999999999886
 30
0.0
 11
112.0
 21
100.4999999999999
 31
0.0
  0
LINE
  5
1540A
  8
0
 10
132.5
 20
142.99999999999989
 30
0.0
 11
132.5
 21
142.49999999999989
 31
0.0
  0
LINE
  5
1540B
  8
0
 10
107.5
 20
142.49999999999989
 30
0.0
 11
107.5
 21
142.99999999999989
 31
0.0
  0
LINE
  5
1540C
  8
0
 10
132.5
 20
142.49999999999989
 30
0.0
 11
132.0
 21
141.99999999999989
 31
0.0
  0
LINE
  5
1540D
  8
0
 10
108.0
 20
141.99999999999989
 30
0.0
 11
107.5
 21
142.49999999999989
 31
0.0
  0
LINE
  5
1540E
  8
0
 10
130.0
 20
139.4999999999998
 30
0.0
 11
130.0
 21
131.49999999999969
 31
0.0
  0
LINE
  5
1540F
  8
0
 10
110.0
 20
131.49999999999969
 30
0.0
 11
110.0
 21
139.4999999999998
 31
0.0
  0
LINE
  5
15410
  8
0
 10
130.0
 20
131.49999999999969
 30
0.0
 11
128.5
 21
129.9999999999998
 31
0.0
  0
LINE
  5
15411
  8
0
 10
111.5
 20
129.9999999999998
 30
0.0
 11
110.0
 21
131.49999999999969
 31
0.0
  0
ARC
  5
15412
  8
0
 10
129.65000000000009
 20
140.29999999999981
 30
0.0
 40
0.8000000000000113
 50
180.0
 51
270.0
  0
ARC
  5
15413
  8
0
 10
110.35000000000009
 20
140.29999999999981
 30
0.0
 40
0.8000000000000113
 50
270.0
 51
0.0
  0
ARC
  5
15414
  8
0
 10
129.65000000000009
 20
141.19999999999979
 30
0.0
 40
0.8000000000000113
 50
90.0
 51
180.0
  0
ARC
  5
15415
  8
0
 10
110.35000000000009
 20
141.19999999999979
 30
0.0
 40
0.8000000000000113
 50
0.0
 51
90.0
  0
LINE
  5
15416
  8
0
 10
128.85000000000011
 20
141.19999999999979
 30
0.0
 11
128.85000000000011
 21
140.29999999999981
 31
0.0
  0
LINE
  5
15417
  8
0
 10
111.15000000000011
 20
140.29999999999981
 30
0.0
 11
111.15000000000011
 21
141.19999999999979
 31
0.0
  0
ARC
  5
15418
  8
0
 10
114.85000000000009
 20
129.5999999999998
 30
0.0
 40
0.4000000000000057
 50
0.0
 51
90.0
  0
ARC
  5
15419
  8
0
 10
125.15000000000011
 20
129.5999999999998
 30
0.0
 40
0.4000000000000057
 50
90.0
 51
180.0
  0
LINE
  5
1541A
  8
0
 10
124.75
 20
129.5999999999998
 30
0.0
 11
124.75
 21
129.3880108514106
 31
0.0
  0
LINE
  5
1541B
  8
0
 10
115.25
 20
129.3880108514106
 30
0.0
 11
115.25
 21
129.5999999999998
 31
0.0
  0
LINE
  5
1541C
  8
0
 10
126.8000000000002
 20
129.3880108514106
 30
0.0
 11
113.2
 21
129.3880108514106
 31
0.0
  0
LINE
  5
1541E
  8
0
 10
127.8000000000002
 20
118.9999999999997
 30
0.0
 11
112.2
 21
118.9999999999997
 31
0.0
  0
LINE
  5
1541F
  8
0
 10
112.5
 20
99.999999999999886
 30
0.0
 11
127.5
 21
99.999999999999886
 31
0.0
  0
LINE
  5
15420
  8
0
 10
131.93471826228
 20
144.99999999999969
 30
0.0
 11
108.0652817377199
 21
144.99999999999969
 31
0.0
  0
LINE
  5
15421
  8
0
 10
108.0652817377199
 20
144.99999999999969
 30
0.0
 11
107.56265703616739
 21
144.49999999999989
 31
0.0
  0
LINE
  5
15422
  8
0
 10
132.4373429638328
 20
144.49999999999989
 30
0.0
 11
131.93471826228
 21
144.99999999999969
 31
0.0
  0
LINE
  5
15423
  8
0
 10
132.5
 20
142.99999999999989
 30
0.0
 11
132.4373429638328
 21
142.99999999999989
 31
0.0
  0
LINE
  5
15424
  8
0
 10
132.4373429638328
 20
144.49999999999989
 30
0.0
 11
132.4373429638328
 21
142.99999999999989
 31
0.0
  0
LINE
  5
15425
  8
0
 10
107.56265703616739
 20
142.99999999999989
 30
0.0
 11
107.56265703616739
 21
144.49999999999989
 31
0.0
  0
LINE
  5
15426
  8
0
 10
107.56265703616739
 20
142.99999999999989
 30
0.0
 11
107.5
 21
142.99999999999989
 31
0.0
  0
LINE
  5
15427
  8
0
 10
108.0
 20
141.99999999999989
 30
0.0
 11
132.0
 21
141.99999999999989
 31
0.0
  0
LINE
  5
15428
  8
0
 10
130.0
 20
131.49999999999969
 30
0.0
 11
110.0
 21
131.49999999999969
 31
0.0
  0
LINE
  5
15429
  8
0
 10
130.0
 20
139.4999999999998
 30
0.0
 11
110.0
 21
139.4999999999998
 31
0.0
  0
LINE
  5
1542A
  8
0
 10
128.5
 20
129.9999999999998
 30
0.0
 11
111.5
 21
129.9999999999998
 31
0.0
  0
LINE
  5
1542F
  8
1
 10
120.0
 20
147.99999999999969
 30
0.0
 11
120.0
 21
96.999999999999886
 31
0.0
  0
LINE
  5
15430
  8
3
 10
129.18799999999959
 20
139.4999999999998
 30
0.0
 11
129.18799999999959
 21
130.68799999999939
 31
0.0
  0
LINE
  5
15431
  8
3
 10
110.8120000000003
 20
139.4999999999998
 30
0.0
 11
110.8120000000003
 21
130.68799999999939
 31
0.0
  0
CIRCLE
  5
15436
  8
0
 10
120.0000000000001
 20
106.9999999999998
 30
0.0
 40
1.2999999999999969
  0
CIRCLE
  5
15437
  8
0
 10
120.0000000000001
 20
106.9999999999998
 30
0.0
 40
1.5
  0
ARC
  5
15440
  8
0
 10
166.64197190468249
 20
107.00001194114169
 30
0.0
 40
7.9999106072202242
 50
349.19304198070762
 51
10.806958019279611
  0
LINE
  5
1595D
  8
0
 10
128.0
 20
-34.594764855300561
 30
0.0
 11
163.0
 21
-34.594764855300561
 31
0.0
  0
LINE
  5
1595E
  8
0
 10
132.99999999999989
 20
-35.094764855300546
 30
0.0
 11
144.24999999999989
 21
-35.094764855300546
 31
0.0
  0
LINE
  5
1595F
  8
0
 10
146.75
 20
-35.094764855300546
 30
0.0
 11
158.0
 21
-35.094764855300546
 31
0.0
  0
LINE
  5
15960
  8
0
 10
133.0
 20
-38.094764855300546
 30
0.0
 11
158.0
 21
-38.094764855300546
 31
0.0
  0
LINE
  5
15961
  8
0
 10
128.0
 20
-40.594764855300546
 30
0.0
 11
163.0
 21
-40.594764855300546
 31
0.0
  0
LINE
  5
15962
  8
0
 10
135.0
 20
-40.094764855300546
 30
0.0
 11
136.5916198487096
 21
-40.094764855300546
 31
0.0
  0
LINE
  5
15963
  8
0
 10
154.40838015129049
 20
-40.094764855300546
 30
0.0
 11
156.0
 21
-40.094764855300546
 31
0.0
  0
LINE
  5
15964
  8
0
 10
135.0
 20
-40.094764855300546
 30
0.0
 11
135.0
 21
-38.094764855300546
 31
0.0
  0
LINE
  5
15965
  8
0
 10
156.0
 20
-40.094764855300546
 30
0.0
 11
156.0
 21
-38.094764855300546
 31
0.0
  0
LINE
  5
15966
  8
0
 10
132.99999999999989
 20
-38.094764855300546
 30
0.0
 11
132.99999999999989
 21
-35.094764855300546
 31
0.0
  0
LINE
  5
15967
  8
0
 10
158.0
 20
-38.094764855300546
 30
0.0
 11
158.0
 21
-35.094764855300546
 31
0.0
  0
LINE
  5
15968
  8
0
 10
133.0
 20
-35.094764855300546
 30
0.0
 11
132.5
 21
-34.594764855300561
 31
0.0
  0
LINE
  5
15969
  8
0
 10
158.0
 20
-35.094764855300546
 30
0.0
 11
158.5
 21
-34.594764855300561
 31
0.0
  0
LINE
  5
1596A
  8
0
 10
134.5
 20
-40.594764855300546
 30
0.0
 11
135.0
 21
-40.094764855300546
 31
0.0
  0
LINE
  5
1596B
  8
0
 10
156.0
 20
-40.094764855300546
 30
0.0
 11
156.5
 21
-40.594764855300546
 31
0.0
  0
LINE
  5
1596C
  8
0
 10
178.0
 20
-34.594764855300561
 30
0.0
 11
213.0
 21
-34.594764855300561
 31
0.0
  0
LINE
  5
1596D
  8
0
 10
182.99999999999989
 20
-35.094764855300546
 30
0.0
 11
208.0
 21
-35.094764855300546
 31
0.0
  0
LINE
  5
1596E
  8
0
 10
183.0
 20
-38.094764855300546
 30
0.0
 11
208.0
 21
-38.094764855300546
 31
0.0
  0
LINE
  5
1596F
  8
0
 10
178.0
 20
-40.594764855300546
 30
0.0
 11
213.0
 21
-40.594764855300546
 31
0.0
  0
LINE
  5
15970
  8
0
 10
185.0
 20
-40.094764855300546
 30
0.0
 11
206.0
 21
-40.094764855300546
 31
0.0
  0
LINE
  5
15971
  8
0
 10
185.0
 20
-40.094764855300546
 30
0.0
 11
185.0
 21
-38.094764855300546
 31
0.0
  0
LINE
  5
15972
  8
0
 10
206.0
 20
-40.094764855300546
 30
0.0
 11
206.0
 21
-38.094764855300546
 31
0.0
  0
LINE
  5
15973
  8
0
 10
183.0
 20
-38.094764855300546
 30
0.0
 11
183.0
 21
-35.094764855300546
 31
0.0
  0
LINE
  5
15974
  8
0
 10
208.0
 20
-38.094764855300546
 30
0.0
 11
208.0
 21
-35.094764855300546
 31
0.0
  0
LINE
  5
15975
  8
0
 10
183.0
 20
-35.094764855300546
 30
0.0
 11
182.5
 21
-34.594764855300561
 31
0.0
  0
LINE
  5
15976
  8
0
 10
208.0
 20
-35.094764855300546
 30
0.0
 11
208.5
 21
-34.594764855300561
 31
0.0
  0
LINE
  5
15977
  8
0
 10
184.5
 20
-40.594764855300546
 30
0.0
 11
185.0
 21
-40.094764855300546
 31
0.0
  0
LINE
  5
15978
  8
0
 10
206.0
 20
-40.094764855300546
 30
0.0
 11
206.5
 21
-40.594764855300546
 31
0.0
  0
LINE
  5
15979
  8
0
 10
152.49999999999989
 20
-50.906754003889631
 30
0.0
 11
152.2999999999999
 21
-50.706754003889699
 31
0.0
  0
LINE
  5
1597A
  8
0
 10
138.69999999999999
 20
-50.706754003889699
 30
0.0
 11
138.49999999999989
 21
-50.906754003889631
 31
0.0
  0
LINE
  5
1597B
  8
0
 10
152.49999999999989
 20
-61.094764855300561
 30
0.0
 11
152.49999999999989
 21
-50.906754003889631
 31
0.0
  0
LINE
  5
1597C
  8
0
 10
138.49999999999989
 20
-50.906754003889631
 30
0.0
 11
138.49999999999989
 21
-61.094764855300561
 31
0.0
  0
LINE
  5
1597D
  8
0
 10
132.99999999999989
 20
-37.59476485530044
 30
0.0
 11
133.49999999999989
 21
-38.09476485530044
 31
0.0
  0
LINE
  5
1597E
  8
0
 10
157.5
 20
-38.09476485530044
 30
0.0
 11
158.0
 21
-37.59476485530044
 31
0.0
  0
LINE
  5
1597F
  8
0
 10
133.49999999999989
 20
-35.094764855300546
 30
0.0
 11
132.99999999999989
 21
-35.59476485530044
 31
0.0
  0
LINE
  5
15980
  8
0
 10
158.0
 20
-35.59476485530044
 30
0.0
 11
157.5
 21
-35.094764855300546
 31
0.0
  0
ARC
  5
15981
  8
0
 10
135.85000000000011
 20
-38.894764855300508
 30
0.0
 40
0.8000000000000113
 50
0.0
 51
90.0
  0
ARC
  5
15982
  8
0
 10
155.15000000000009
 20
-38.894764855300508
 30
0.0
 40
0.8000000000000113
 50
90.0
 51
180.0
  0
ARC
  5
15983
  8
0
 10
135.85000000000011
 20
-39.794764855300492
 30
0.0
 40
0.7999999999999972
 50
270.0
 51
0.0
  0
ARC
  5
15984
  8
0
 10
155.15000000000009
 20
-39.794764855300492
 30
0.0
 40
0.7999999999999972
 50
180.0
 51
270.0
  0
LINE
  5
15985
  8
0
 10
136.65000000000001
 20
-38.894764855300508
 30
0.0
 11
136.65000000000001
 21
-39.794764855300492
 31
0.0
  0
LINE
  5
15986
  8
0
 10
154.34999999999999
 20
-39.794764855300492
 30
0.0
 11
154.34999999999999
 21
-38.894764855300508
 31
0.0
  0
LINE
  5
15987
  8
0
 10
140.74999999999989
 20
-50.594764855277809
 30
0.0
 11
140.74999999999989
 21
-50.706754003889699
 31
0.0
  0
LINE
  5
15988
  8
0
 10
138.69999999999999
 20
-50.706754003889699
 30
0.0
 11
152.2999999999997
 21
-50.70675400388982
 31
0.0
  0
LINE
  5
15989
  8
0
 10
144.24999999999989
 20
-37.09476485530044
 30
0.0
 11
144.24999999999989
 21
-35.094764855300546
 31
0.0
  0
LINE
  5
1598A
  8
0
 10
146.74999999999989
 20
-35.094764855300546
 30
0.0
 11
146.74999999999989
 21
-37.09476485530044
 31
0.0
  0
LINE
  5
1598B
  8
0
 10
144.24999999999989
 20
-37.09476485530044
 30
0.0
 11
146.74999999999989
 21
-37.09476485530044
 31
0.0
  0
POLYLINE
  5
1598C
  8
0
 66
     1
 10
0.0
 20
0.0
 30
0.0
 70
   128
  0
VERTEX
  5
16467
  8
0
 10
150.16373082694261
 20
-50.594764855277987
 30
0.0
  0
VERTEX
  5
16468
  8
0
 10
150.16230009962339
 20
-50.599090352292222
 30
0.0
  0
VERTEX
  5
16469
  8
0
 10
150.12948612631561
 20
-50.706754003889699
 30
0.0
  0
SEQEND
  5
1646A
  8
0
  0
LINE
  5
1598D
  8
1
 10
145.49999999999989
 20
-83.09476485530044
 30
0.0
 11
145.49999999999989
 21
-31.59476485530055
 31
0.0
  0
LINE
  5
1598E
  8
0
 10
160.0000000000002
 20
-50.594764855278036
 30
0.0
 11
162.82050807568879
 21
-48.966343758527692
 31
0.0
  0
ARC
  5
1598F
  8
0
 10
158.49038105676641
 20
-42.638621475406772
 30
0.0
 40
7.6674682452751783
 50
235.61575253199231
 51
295.61575252954532
  0
ARC
  5
15990
  8
0
 10
145.49999999992681
 20
-21.645835683289391
 30
0.0
 40
28.6602540373928
 50
252.41204622587281
 51
287.58795377443511
  0
ARC
  5
15991
  8
0
 10
158.49038105676641
 20
-48.55090823517159
 30
0.0
 40
7.6674682452751783
 50
64.384247470454639
 51
124.3842474680077
  0
LINE
  5
15992
  8
0
 10
160.0000000000002
 20
-40.594764855300333
 30
0.0
 11
162.82050807568879
 21
-42.22318595205067
 31
0.0
  0
LINE
  5
15993
  8
0
 10
162.82050807568859
 20
-48.966343758527692
 30
0.0
 11
162.82050807597241
 21
-42.223185952214493
 31
0.0
  0
LINE
  5
15994
  8
0
 10
154.1602540378444
 20
-42.22318595207409
 30
0.0
 11
154.16025403769049
 21
-48.966343758527692
 31
0.0
  0
ARC
  5
15995
  8
0
 10
145.49999999992681
 20
-69.543694027288979
 30
0.0
 40
28.6602540373928
 50
72.412046225564865
 51
107.5879537741212
  0
LINE
  5
15996
  8
0
 10
136.83974596215609
 20
-42.22318595207409
 30
0.0
 11
136.83974596230999
 21
-48.966343758527692
 31
0.0
  0
LINE
  5
15997
  8
0
 10
128.17949192431189
 20
-48.966343758527692
 30
0.0
 11
128.1794919240281
 21
-42.223185952214493
 31
0.0
  0
LINE
  5
15998
  8
0
 10
131.00000000000031
 20
-40.594764855300333
 30
0.0
 11
128.17949192431161
 21
-42.22318595205067
 31
0.0
  0
ARC
  5
15999
  8
0
 10
132.5096189432341
 20
-48.55090823517159
 30
0.0
 40
7.6674682452751783
 50
55.615752531992221
 51
115.6157525295453
  0
ARC
  5
1599A
  8
0
 10
132.5096189432341
 20
-42.638621475406772
 30
0.0
 40
7.6674682452751783
 50
244.38424747044829
 51
304.3842474680078
  0
LINE
  5
1599B
  8
0
 10
131.00000000000031
 20
-50.594764855278036
 30
0.0
 11
128.17949192431161
 21
-48.966343758527692
 31
0.0
  0
LINE
  5
1599C
  8
0
 10
160.0000000000002
 20
-50.594764855278157
 30
0.0
 11
130.9999999999996
 21
-50.594764855277703
 31
0.0
  0
LINE
  5
1599D
  8
0
 10
302.99999999999972
 20
-34.594764855300561
 30
0.0
 11
337.99999999999972
 21
-34.594764855300561
 31
0.0
  0
LINE
  5
1599E
  8
0
 10
302.99999999999972
 20
-44.594764855300561
 30
0.0
 11
337.99999999999972
 21
-44.594764855300561
 31
0.0
  0
LINE
  5
1599F
  8
0
 10
309.9999999999996
 20
-44.094764855300546
 30
0.0
 11
330.99999999999972
 21
-44.094764855300546
 31
0.0
  0
LINE
  5
159A0
  8
0
 10
307.9999999999996
 20
-35.094764855300561
 30
0.0
 11
332.99999999999972
 21
-35.094764855300561
 31
0.0
  0
LINE
  5
159A1
  8
0
 10
307.99999999999972
 20
-38.094764855300561
 30
0.0
 11
332.99999999999972
 21
-38.094764855300561
 31
0.0
  0
LINE
  5
159A2
  8
0
 10
309.99999999999972
 20
-44.094764855300546
 30
0.0
 11
309.99999999999972
 21
-38.094764855300561
 31
0.0
  0
LINE
  5
159A3
  8
0
 10
330.99999999999972
 20
-44.094764855300546
 30
0.0
 11
330.99999999999972
 21
-38.094764855300561
 31
0.0
  0
LINE
  5
159A4
  8
0
 10
307.99999999999972
 20
-38.094764855300561
 30
0.0
 11
307.99999999999972
 21
-35.094764855300561
 31
0.0
  0
LINE
  5
159A5
  8
0
 10
332.99999999999972
 20
-38.094764855300561
 30
0.0
 11
332.99999999999972
 21
-35.094764855300561
 31
0.0
  0
LINE
  5
159A6
  8
0
 10
307.99999999999972
 20
-35.094764855300561
 30
0.0
 11
307.49999999999972
 21
-34.594764855300561
 31
0.0
  0
LINE
  5
159A7
  8
0
 10
332.99999999999972
 20
-35.094764855300561
 30
0.0
 11
333.49999999999972
 21
-34.594764855300561
 31
0.0
  0
LINE
  5
159A8
  8
0
 10
309.49999999999972
 20
-44.594764855300561
 30
0.0
 11
309.99999999999972
 21
-44.094764855300546
 31
0.0
  0
LINE
  5
159A9
  8
0
 10
330.99999999999972
 20
-44.094764855300546
 30
0.0
 11
331.49999999999972
 21
-44.594764855300561
 31
0.0
  0
LINE
  5
159AA
  8
0
 10
252.99999999999989
 20
-34.594764855300561
 30
0.0
 11
287.99999999999989
 21
-34.594764855300561
 31
0.0
  0
LINE
  5
159AB
  8
0
 10
252.99999999999989
 20
-44.594764855300546
 30
0.0
 11
287.99999999999989
 21
-44.594764855300546
 31
0.0
  0
LINE
  5
159AC
  8
0
 10
259.99999999999989
 20
-44.094764855300546
 30
0.0
 11
260.49999999999989
 21
-44.094764855300546
 31
0.0
  0
LINE
  5
159AD
  8
0
 10
280.5
 20
-44.094764855300546
 30
0.0
 11
281.0
 21
-44.094764855300546
 31
0.0
  0
LINE
  5
159AE
  8
0
 10
257.99999999999989
 20
-35.094764855300546
 30
0.0
 11
269.24999999999989
 21
-35.094764855300546
 31
0.0
  0
LINE
  5
159AF
  8
0
 10
271.74999999999989
 20
-35.094764855300546
 30
0.0
 11
283.0
 21
-35.094764855300546
 31
0.0
  0
LINE
  5
159B0
  8
0
 10
258.0
 20
-38.094764855300546
 30
0.0
 11
283.0
 21
-38.094764855300546
 31
0.0
  0
LINE
  5
159B1
  8
0
 10
260.0
 20
-44.094764855300546
 30
0.0
 11
260.0
 21
-38.094764855300546
 31
0.0
  0
LINE
  5
159B2
  8
0
 10
281.0
 20
-44.094764855300546
 30
0.0
 11
281.0
 21
-38.094764855300546
 31
0.0
  0
LINE
  5
159B3
  8
0
 10
258.0
 20
-38.094764855300546
 30
0.0
 11
258.0
 21
-35.094764855300546
 31
0.0
  0
LINE
  5
159B4
  8
0
 10
283.0
 20
-38.094764855300546
 30
0.0
 11
283.0
 21
-35.094764855300546
 31
0.0
  0
LINE
  5
159B5
  8
0
 10
258.0
 20
-35.094764855300546
 30
0.0
 11
257.49999999999989
 21
-34.594764855300561
 31
0.0
  0
LINE
  5
159B6
  8
0
 10
283.0
 20
-35.094764855300546
 30
0.0
 11
283.49999999999989
 21
-34.594764855300561
 31
0.0
  0
LINE
  5
159B7
  8
0
 10
259.49999999999989
 20
-44.594764855300546
 30
0.0
 11
260.0
 21
-44.094764855300546
 31
0.0
  0
LINE
  5
159B8
  8
0
 10
281.0
 20
-44.094764855300546
 30
0.0
 11
281.49999999999989
 21
-44.594764855300546
 31
0.0
  0
LINE
  5
159B9
  8
1
 10
195.5
 20
-43.594764855300546
 30
0.0
 11
195.5
 21
-31.59476485530055
 31
0.0
  0
LINE
  5
159BA
  8
1
 10
320.51371692149382
 20
-47.594764855300561
 30
0.0
 11
320.51371692149382
 21
-31.594764855300561
 31
0.0
  0
LINE
  5
159BB
  8
0
 10
137.49999999999989
 20
-61.294764855300478
 30
0.0
 11
137.49999999999989
 21
-79.59476485530044
 31
0.0
  0
LINE
  5
159BC
  8
0
 10
153.49999999999989
 20
-79.59476485530044
 30
0.0
 11
153.49999999999989
 21
-61.294764855300478
 31
0.0
  0
LINE
  5
159BD
  8
0
 10
153.49999999999989
 20
-61.294764855300478
 30
0.0
 11
153.2999999999999
 21
-61.094764855300561
 31
0.0
  0
LINE
  5
159BE
  8
0
 10
137.69999999999999
 20
-61.094764855300561
 30
0.0
 11
137.49999999999989
 21
-61.294764855300478
 31
0.0
  0
LINE
  5
159BF
  8
0
 10
137.49999999999989
 20
-79.59476485530044
 30
0.0
 11
137.99999999999989
 21
-80.094764855300426
 31
0.0
  0
LINE
  5
159C0
  8
0
 10
152.99999999999989
 20
-80.094764855300426
 30
0.0
 11
153.49999999999989
 21
-79.59476485530044
 31
0.0
  0
LINE
  5
159C1
  8
0
 10
137.69999999999999
 20
-61.094764855300561
 30
0.0
 11
153.2999999999999
 21
-61.094764855300561
 31
0.0
  0
LINE
  5
159C2
  8
0
 10
152.99999999999989
 20
-80.094764855300426
 30
0.0
 11
137.99999999999989
 21
-80.094764855300426
 31
0.0
  0
LINE
  5
159C3
  8
0
 10
277.49999999999989
 20
-61.094764855300561
 30
0.0
 11
277.49999999999989
 21
-54.594764855278051
 31
0.0
  0
LINE
  5
159C4
  8
0
 10
263.49999999999989
 20
-54.594764855277809
 30
0.0
 11
263.49999999999989
 21
-61.094764855300561
 31
0.0
  0
LINE
  5
159C5
  8
0
 10
262.5
 20
-61.294764855300478
 30
0.0
 11
262.5
 21
-79.59476485530044
 31
0.0
  0
LINE
  5
159C6
  8
0
 10
278.5
 20
-79.59476485530044
 30
0.0
 11
278.5
 21
-61.294764855300478
 31
0.0
  0
LINE
  5
159C7
  8
0
 10
278.5
 20
-61.294764855300478
 30
0.0
 11
278.2999999999999
 21
-61.094764855300561
 31
0.0
  0
LINE
  5
159C8
  8
0
 10
262.69999999999999
 20
-61.094764855300561
 30
0.0
 11
262.5
 21
-61.294764855300478
 31
0.0
  0
LINE
  5
159C9
  8
0
 10
262.5
 20
-79.59476485530044
 30
0.0
 11
262.99999999999989
 21
-80.094764855300426
 31
0.0
  0
LINE
  5
159CA
  8
0
 10
277.99999999999989
 20
-80.094764855300426
 30
0.0
 11
278.5
 21
-79.59476485530044
 31
0.0
  0
LINE
  5
159CB
  8
0
 10
258.0
 20
-37.59476485530044
 30
0.0
 11
258.49999999999989
 21
-38.09476485530044
 31
0.0
  0
LINE
  5
159CC
  8
0
 10
282.49999999999989
 20
-38.09476485530044
 30
0.0
 11
283.0
 21
-37.59476485530044
 31
0.0
  0
LINE
  5
159CD
  8
0
 10
258.49999999999989
 20
-35.094764855300546
 30
0.0
 11
258.0
 21
-35.59476485530044
 31
0.0
  0
LINE
  5
159CE
  8
0
 10
283.0
 20
-35.59476485530044
 30
0.0
 11
282.49999999999989
 21
-35.094764855300546
 31
0.0
  0
LINE
  5
159CF
  8
0
 10
260.49999999999989
 20
-40.594764855300546
 30
0.0
 11
260.49999999999989
 21
-44.594764855300546
 31
0.0
  0
LINE
  5
159D0
  8
0
 10
280.49999999999989
 20
-44.594764855300546
 30
0.0
 11
280.49999999999989
 21
-40.594764855300546
 31
0.0
  0
ARC
  5
159D1
  8
0
 10
260.85000000000008
 20
-38.894764855300508
 30
0.0
 40
0.8000000000000113
 50
0.0
 51
90.0
  0
ARC
  5
159D2
  8
0
 10
280.14999999999998
 20
-38.894764855300508
 30
0.0
 40
0.8000000000000113
 50
90.0
 51
180.0
  0
ARC
  5
159D3
  8
0
 10
260.85000000000008
 20
-39.794764855300492
 30
0.0
 40
0.7999999999999972
 50
270.0
 51
0.0
  0
ARC
  5
159D4
  8
0
 10
280.14999999999998
 20
-39.794764855300492
 30
0.0
 40
0.7999999999999972
 50
180.0
 51
270.0
  0
LINE
  5
159D5
  8
0
 10
261.64999999999998
 20
-38.894764855300508
 30
0.0
 11
261.64999999999998
 21
-39.794764855300492
 31
0.0
  0
LINE
  5
159D6
  8
0
 10
279.35000000000008
 20
-39.794764855300492
 30
0.0
 11
279.35000000000008
 21
-38.894764855300508
 31
0.0
  0
LINE
  5
159D7
  8
0
 10
262.69999999999999
 20
-61.094764855300561
 30
0.0
 11
278.2999999999999
 21
-61.094764855300561
 31
0.0
  0
LINE
  5
159D8
  8
0
 10
277.99999999999989
 20
-80.094764855300426
 30
0.0
 11
262.99999999999989
 21
-80.094764855300426
 31
0.0
  0
LINE
  5
159D9
  8
0
 10
269.24999999999989
 20
-37.09476485530044
 30
0.0
 11
269.24999999999989
 21
-35.094764855300546
 31
0.0
  0
LINE
  5
159DA
  8
0
 10
271.74999999999989
 20
-35.094764855300546
 30
0.0
 11
271.74999999999989
 21
-37.09476485530044
 31
0.0
  0
LINE
  5
159DB
  8
0
 10
269.24999999999989
 20
-37.09476485530044
 30
0.0
 11
271.74999999999989
 21
-37.09476485530044
 31
0.0
  0
LINE
  5
159DC
  8
0
 10
260.49999999999989
 20
-40.594764855300546
 30
0.0
 11
280.49999999999989
 21
-40.594764855300546
 31
0.0
  0
LINE
  5
159DD
  8
1
 10
270.5
 20
-83.09476485530044
 30
0.0
 11
270.5
 21
-31.59476485530055
 31
0.0
  0
LINE
  5
159DE
  8
3
 10
261.3120000000003
 20
-40.594764855300546
 30
0.0
 11
261.3120000000003
 21
-44.594764855300546
 31
0.0
  0
LINE
  5
159DF
  8
3
 10
279.68799999999959
 20
-40.594764855300546
 30
0.0
 11
279.68799999999959
 21
-44.594764855300546
 31
0.0
  0
LINE
  5
159E0
  8
0
 10
285.00000000000023
 20
-54.594764855278051
 30
0.0
 11
287.82050807568879
 21
-52.966343758527699
 31
0.0
  0
ARC
  5
159E1
  8
0
 10
283.4903810567663
 20
-46.638621475406779
 30
0.0
 40
7.6674682452751783
 50
235.61575253199231
 51
295.61575252955168
  0
ARC
  5
159E2
  8
0
 10
270.49999999992667
 20
-25.645835683289391
 30
0.0
 40
28.6602540373928
 50
252.41204622587281
 51
287.58795377443511
  0
ARC
  5
159E3
  8
0
 10
283.4903810567663
 20
-52.55090823517159
 30
0.0
 40
7.6674682452751783
 50
64.384247470448315
 51
124.3842474680077
  0
LINE
  5
159E4
  8
0
 10
285.00000000000023
 20
-44.594764855300319
 30
0.0
 11
287.82050807568879
 21
-46.22318595205067
 31
0.0
  0
LINE
  5
159E5
  8
0
 10
287.82050807568851
 20
-52.966343758527699
 30
0.0
 11
287.82050807597233
 21
-46.223185952214493
 31
0.0
  0
LINE
  5
159E6
  8
0
 10
279.16025403784442
 20
-46.22318595207409
 30
0.0
 11
279.16025403769038
 21
-52.966343758527699
 31
0.0
  0
ARC
  5
159E7
  8
0
 10
270.49999999992667
 20
-73.543694027288979
 30
0.0
 40
28.6602540373928
 50
72.412046225564865
 51
107.5879537741212
  0
LINE
  5
159E8
  8
0
 10
261.83974596215597
 20
-46.22318595207409
 30
0.0
 11
261.83974596230991
 21
-52.966343758527699
 31
0.0
  0
LINE
  5
159E9
  8
0
 10
253.1794919243118
 20
-52.966343758527699
 30
0.0
 11
253.17949192402801
 21
-46.223185952214493
 31
0.0
  0
LINE
  5
159EA
  8
0
 10
256.00000000000023
 20
-44.594764855300319
 30
0.0
 11
253.17949192431149
 21
-46.22318595205067
 31
0.0
  0
ARC
  5
159EB
  8
0
 10
257.50961894323399
 20
-52.55090823517159
 30
0.0
 40
7.6674682452751783
 50
55.615752531992221
 51
115.6157525295517
  0
ARC
  5
159EC
  8
0
 10
257.50961894323399
 20
-46.638621475406779
 30
0.0
 40
7.6674682452751783
 50
244.38424747044829
 51
304.3842474680078
  0
LINE
  5
159ED
  8
0
 10
256.00000000000023
 20
-54.594764855278051
 30
0.0
 11
253.17949192431149
 21
-52.966343758527699
 31
0.0
  0
LINE
  5
159EE
  8
0
 10
285.00000000000023
 20
-54.59476485527815
 30
0.0
 11
255.99999999999949
 21
-54.594764855277703
 31
0.0
  0
LINE
  5
159EF
  8
0
 10
128.00000000000011
 20
-124.81252324934439
 30
0.0
 11
163.00000000000011
 21
-124.81252324934439
 31
0.0
  0
LINE
  5
159F0
  8
0
 10
128.00000000000011
 20
-139.81252324934439
 30
0.0
 11
136.5
 21
-139.81252324934439
 31
0.0
  0
LINE
  5
159F1
  8
0
 10
154.50000000000011
 20
-139.81252324934439
 30
0.0
 11
163.00000000000011
 21
-139.81252324934439
 31
0.0
  0
LINE
  5
159F2
  8
0
 10
178.00000000000011
 20
-124.81252324934439
 30
0.0
 11
213.00000000000011
 21
-124.81252324934439
 31
0.0
  0
LINE
  5
159F3
  8
0
 10
133.0
 20
-125.31252324934439
 30
0.0
 11
144.25
 21
-125.31252324934439
 31
0.0
  0
LINE
  5
159F4
  8
0
 10
146.75000000000011
 20
-125.31252324934439
 30
0.0
 11
158.00000000000011
 21
-125.31252324934439
 31
0.0
  0
LINE
  5
159F5
  8
0
 10
133.00000000000011
 20
-128.31252324934439
 30
0.0
 11
158.00000000000011
 21
-128.31252324934439
 31
0.0
  0
LINE
  5
159F6
  8
0
 10
133.00000000000011
 20
-128.31252324934439
 30
0.0
 11
133.00000000000011
 21
-125.31252324934439
 31
0.0
  0
LINE
  5
159F7
  8
0
 10
158.00000000000011
 20
-128.31252324934439
 30
0.0
 11
158.00000000000011
 21
-125.31252324934439
 31
0.0
  0
LINE
  5
159F8
  8
0
 10
133.00000000000011
 20
-125.31252324934439
 30
0.0
 11
132.50000000000011
 21
-124.81252324934439
 31
0.0
  0
LINE
  5
159F9
  8
0
 10
158.00000000000011
 20
-125.31252324934439
 30
0.0
 11
158.50000000000011
 21
-124.81252324934439
 31
0.0
  0
LINE
  5
159FA
  8
0
 10
183.0
 20
-125.31252324934439
 30
0.0
 11
208.00000000000011
 21
-125.31252324934439
 31
0.0
  0
LINE
  5
159FB
  8
0
 10
183.00000000000011
 20
-128.31252324934439
 30
0.0
 11
208.00000000000011
 21
-128.31252324934439
 31
0.0
  0
LINE
  5
159FC
  8
0
 10
186.3120000000003
 20
-129.81252324934439
 30
0.0
 11
184.8120000000003
 21
-128.31252324934439
 31
0.0
  0
LINE
  5
159FD
  8
0
 10
183.00000000000011
 20
-128.31252324934439
 30
0.0
 11
183.00000000000011
 21
-125.31252324934439
 31
0.0
  0
LINE
  5
159FE
  8
0
 10
208.00000000000011
 20
-128.31252324934439
 30
0.0
 11
208.00000000000011
 21
-125.31252324934439
 31
0.0
  0
LINE
  5
159FF
  8
0
 10
183.00000000000011
 20
-125.31252324934439
 30
0.0
 11
182.50000000000011
 21
-124.81252324934439
 31
0.0
  0
LINE
  5
15A00
  8
0
 10
208.00000000000011
 20
-125.31252324934439
 30
0.0
 11
208.50000000000011
 21
-124.81252324934439
 31
0.0
  0
LINE
  5
15A01
  8
3
 10
155.50000000000011
 20
-129.0005232493443
 30
0.0
 11
155.50000000000011
 21
-130.81252324934439
 31
0.0
  0
LINE
  5
15A02
  8
3
 10
135.5000000000002
 20
-129.0005232493443
 30
0.0
 11
135.5
 21
-130.81252324934439
 31
0.0
  0
LINE
  5
15A03
  8
0
 10
178.00000000000011
 20
-139.81252324934439
 30
0.0
 11
213.00000000000011
 21
-139.81252324934439
 31
0.0
  0
LINE
  5
15A04
  8
3
 10
205.50000000000011
 20
-129.00052324934421
 30
0.0
 11
205.50000000000011
 21
-139.12452324934509
 31
0.0
  0
LINE
  5
15A05
  8
0
 10
204.6879999999999
 20
-129.81252324934439
 30
0.0
 11
204.68799999999979
 21
-138.31252324934479
 31
0.0
  0
LINE
  5
15A06
  8
0
 10
186.3120000000003
 20
-129.81252324934439
 30
0.0
 11
186.31200000000041
 21
-138.31252324934431
 31
0.0
  0
LINE
  5
15A07
  8
3
 10
185.50000000000011
 20
-129.00052324934421
 30
0.0
 11
185.5000000000002
 21
-139.12452324934441
 31
0.0
  0
LINE
  5
15A08
  8
0
 10
186.3120000000003
 20
-129.81252324934439
 30
0.0
 11
204.6879999999999
 21
-129.81252324934451
 31
0.0
  0
LINE
  5
15A09
  8
0
 10
152.5
 20
-141.1245123979335
 30
0.0
 11
152.30000000000001
 21
-140.9245123979336
 31
0.0
  0
LINE
  5
15A0A
  8
0
 10
138.7000000000001
 20
-140.9245123979336
 30
0.0
 11
138.5
 21
-141.1245123979335
 31
0.0
  0
LINE
  5
15A0B
  8
0
 10
152.5
 20
-151.31252324934439
 30
0.0
 11
152.5
 21
-141.1245123979335
 31
0.0
  0
LINE
  5
15A0C
  8
0
 10
138.5
 20
-141.1245123979335
 30
0.0
 11
138.5
 21
-151.31252324934439
 31
0.0
  0
LINE
  5
15A0D
  8
0
 10
137.5
 20
-151.51252324934441
 30
0.0
 11
137.5
 21
-169.81252324934431
 31
0.0
  0
LINE
  5
15A0E
  8
0
 10
153.5
 20
-169.81252324934431
 30
0.0
 11
153.5
 21
-151.51252324934441
 31
0.0
  0
LINE
  5
15A0F
  8
0
 10
153.5
 20
-151.51252324934441
 30
0.0
 11
153.30000000000001
 21
-151.31252324934439
 31
0.0
  0
LINE
  5
15A10
  8
0
 10
137.7000000000001
 20
-151.31252324934439
 30
0.0
 11
137.5
 21
-151.51252324934441
 31
0.0
  0
LINE
  5
15A11
  8
0
 10
137.5
 20
-169.81252324934431
 30
0.0
 11
138.0
 21
-170.31252324934431
 31
0.0
  0
LINE
  5
15A12
  8
0
 10
153.0
 20
-170.31252324934431
 30
0.0
 11
153.5
 21
-169.81252324934431
 31
0.0
  0
LINE
  5
15A13
  8
0
 10
133.0
 20
-127.8125232493443
 30
0.0
 11
133.5
 21
-128.31252324934431
 31
0.0
  0
LINE
  5
15A14
  8
0
 10
157.50000000000011
 20
-128.31252324934431
 30
0.0
 11
158.00000000000011
 21
-127.8125232493443
 31
0.0
  0
LINE
  5
15A15
  8
0
 10
133.5
 20
-125.31252324934439
 30
0.0
 11
133.0
 21
-125.8125232493443
 31
0.0
  0
LINE
  5
15A16
  8
0
 10
158.00000000000011
 20
-125.8125232493443
 30
0.0
 11
157.50000000000011
 21
-125.31252324934439
 31
0.0
  0
LINE
  5
15A17
  8
0
 10
135.5
 20
-138.81252324934439
 30
0.0
 11
137.0
 21
-140.31252324934439
 31
0.0
  0
LINE
  5
15A18
  8
0
 10
154.0
 20
-140.31252324934439
 30
0.0
 11
155.50000000000011
 21
-138.81252324934439
 31
0.0
  0
LINE
  5
15A19
  8
0
 10
135.5
 20
-130.81252324934439
 30
0.0
 11
135.5
 21
-138.81252324934439
 31
0.0
  0
LINE
  5
15A1A
  8
0
 10
155.50000000000011
 20
-138.81252324934439
 30
0.0
 11
155.50000000000011
 21
-130.81252324934439
 31
0.0
  0
ARC
  5
15A1B
  8
0
 10
135.85000000000019
 20
-129.11252324934441
 30
0.0
 40
0.8000000000000113
 50
0.0
 51
90.0
  0
ARC
  5
15A1C
  8
0
 10
155.1500000000002
 20
-129.11252324934441
 30
0.0
 40
0.8000000000000113
 50
90.0
 51
180.0
  0
ARC
  5
15A1D
  8
0
 10
135.85000000000019
 20
-130.01252324934441
 30
0.0
 40
0.7999999999999972
 50
270.0
 51
0.0
  0
ARC
  5
15A1E
  8
0
 10
155.1500000000002
 20
-130.01252324934441
 30
0.0
 40
0.7999999999999972
 50
180.0
 51
270.0
  0
LINE
  5
15A1F
  8
0
 10
136.65000000000009
 20
-129.11252324934441
 30
0.0
 11
136.65000000000009
 21
-130.01252324934441
 31
0.0
  0
LINE
  5
15A20
  8
0
 10
154.35000000000019
 20
-130.01252324934441
 30
0.0
 11
154.35000000000019
 21
-129.11252324934441
 31
0.0
  0
LINE
  5
15A21
  8
0
 10
140.75
 20
-140.7125232493444
 30
0.0
 11
140.75
 21
-140.9245123979336
 31
0.0
  0
ARC
  5
15A22
  8
0
 10
140.34999999999999
 20
-140.7125232493444
 30
0.0
 40
0.4000000000000057
 50
0.0
 51
90.0
  0
LINE
  5
15A23
  8
0
 10
138.7000000000001
 20
-140.9245123979336
 30
0.0
 11
152.29999999999981
 21
-140.92451239793371
 31
0.0
  0
LINE
  5
15A24
  8
0
 10
137.7000000000001
 20
-151.31252324934439
 30
0.0
 11
153.30000000000001
 21
-151.31252324934439
 31
0.0
  0
LINE
  5
15A25
  8
0
 10
153.0
 20
-170.31252324934431
 30
0.0
 11
138.0
 21
-170.31252324934431
 31
0.0
  0
LINE
  5
15A26
  8
0
 10
144.25
 20
-127.3125232493443
 30
0.0
 11
144.25
 21
-125.31252324934439
 31
0.0
  0
LINE
  5
15A27
  8
0
 10
146.75
 20
-125.31252324934439
 30
0.0
 11
146.75
 21
-127.3125232493443
 31
0.0
  0
LINE
  5
15A28
  8
0
 10
144.25
 20
-127.3125232493443
 30
0.0
 11
146.75
 21
-127.3125232493443
 31
0.0
  0
LINE
  5
15A29
  8
0
 10
137.0000000000002
 20
-140.31252324934439
 30
0.0
 11
154.0
 21
-140.31252324934439
 31
0.0
  0
LINE
  5
15A2A
  8
0
 10
135.5
 20
-138.81252324934439
 30
0.0
 11
155.50000000000011
 21
-138.81252324934439
 31
0.0
  0
LINE
  5
15A2B
  8
0
 10
135.5
 20
-130.81252324934439
 30
0.0
 11
155.50000000000011
 21
-130.81252324934439
 31
0.0
  0
ARC
  5
15A2C
  8
0
 10
150.62024718118101
 20
-140.71249326940091
 30
0.0
 40
0.399970054318433
 50
90.177190591620473
 51
163.91407998551071
  0
POLYLINE
  5
15A2D
  8
0
 66
     1
 10
0.0
 20
0.0
 30
0.0
 70
   128
  0
VERTEX
  5
1646B
  8
0
 10
150.23593704519391
 20
-140.60167015029151
 30
0.0
  0
VERTEX
  5
1646C
  8
0
 10
150.18610476143729
 20
-140.74488045983901
 30
0.0
  0
VERTEX
  5
1646D
  8
0
 10
150.16230009962351
 20
-140.81684874633609
 30
0.0
  0
VERTEX
  5
1646E
  8
0
 10
150.1294861263157
 20
-140.9245123979336
 30
0.0
  0
SEQEND
  5
1646F
  8
0
  0
LINE
  5
15A2E
  8
1
 10
145.5
 20
-173.31252324934431
 30
0.0
 11
145.5
 21
-121.81252324934439
 31
0.0
  0
LINE
  5
15A2F
  8
3
 10
136.31200000000041
 20
-130.81252324934439
 30
0.0
 11
136.31200000000041
 21
-139.6245232493448
 31
0.0
  0
LINE
  5
15A30
  8
3
 10
154.6879999999997
 20
-130.81252324934439
 30
0.0
 11
154.6879999999997
 21
-139.6245232493448
 31
0.0
  0
LINE
  5
15A31
  8
1
 10
195.50000000000011
 20
-142.81252324934439
 30
0.0
 11
195.50000000000011
 21
-121.81252324934439
 31
0.0
  0
LINE
  5
15A32
  8
0
 10
277.49999999999989
 20
-141.1245123979335
 30
0.0
 11
277.29999999999978
 21
-140.9245123979336
 31
0.0
  0
LINE
  5
15A33
  8
0
 10
263.69999999999999
 20
-140.9245123979336
 30
0.0
 11
263.49999999999989
 21
-141.1245123979335
 31
0.0
  0
LINE
  5
15A34
  8
0
 10
277.49999999999989
 20
-151.31252324934439
 30
0.0
 11
277.49999999999989
 21
-141.1245123979335
 31
0.0
  0
LINE
  5
15A35
  8
0
 10
263.49999999999989
 20
-141.1245123979335
 30
0.0
 11
263.49999999999989
 21
-151.31252324934439
 31
0.0
  0
LINE
  5
15A36
  8
0
 10
262.49999999999989
 20
-151.51252324934441
 30
0.0
 11
262.49999999999989
 21
-169.81252324934431
 31
0.0
  0
LINE
  5
15A37
  8
0
 10
278.49999999999989
 20
-169.81252324934431
 30
0.0
 11
278.49999999999989
 21
-151.51252324934441
 31
0.0
  0
LINE
  5
15A38
  8
0
 10
278.49999999999989
 20
-151.51252324934441
 30
0.0
 11
278.2999999999999
 21
-151.31252324934439
 31
0.0
  0
LINE
  5
15A39
  8
0
 10
262.69999999999987
 20
-151.31252324934439
 30
0.0
 11
262.49999999999989
 21
-151.51252324934441
 31
0.0
  0
LINE
  5
15A3A
  8
0
 10
262.49999999999989
 20
-169.81252324934431
 30
0.0
 11
262.99999999999989
 21
-170.31252324934431
 31
0.0
  0
LINE
  5
15A3B
  8
0
 10
277.99999999999989
 20
-170.31252324934431
 30
0.0
 11
278.49999999999989
 21
-169.81252324934431
 31
0.0
  0
LINE
  5
15A3C
  8
0
 10
257.99999999999989
 20
-127.8125232493443
 30
0.0
 11
258.49999999999989
 21
-128.31252324934431
 31
0.0
  0
LINE
  5
15A3D
  8
0
 10
282.49999999999989
 20
-128.31252324934431
 30
0.0
 11
282.99999999999989
 21
-127.8125232493443
 31
0.0
  0
LINE
  5
15A3E
  8
0
 10
258.49999999999989
 20
-125.31252324934439
 30
0.0
 11
257.99999999999989
 21
-125.8125232493443
 31
0.0
  0
LINE
  5
15A3F
  8
0
 10
282.99999999999989
 20
-125.8125232493443
 30
0.0
 11
282.49999999999989
 21
-125.31252324934439
 31
0.0
  0
LINE
  5
15A40
  8
0
 10
260.49999999999989
 20
-138.81252324934439
 30
0.0
 11
261.99999999999989
 21
-140.31252324934439
 31
0.0
  0
LINE
  5
15A41
  8
0
 10
278.99999999999989
 20
-140.31252324934439
 30
0.0
 11
280.49999999999989
 21
-138.81252324934439
 31
0.0
  0
LINE
  5
15A42
  8
0
 10
260.49999999999989
 20
-130.81252324934439
 30
0.0
 11
260.49999999999989
 21
-138.81252324934439
 31
0.0
  0
LINE
  5
15A43
  8
0
 10
280.49999999999989
 20
-138.81252324934439
 30
0.0
 11
280.49999999999989
 21
-130.81252324934439
 31
0.0
  0
ARC
  5
15A44
  8
0
 10
260.85000000000002
 20
-129.11252324934441
 30
0.0
 40
0.8000000000000113
 50
0.0
 51
90.0
  0
ARC
  5
15A45
  8
0
 10
280.14999999999998
 20
-129.11252324934441
 30
0.0
 40
0.8000000000000113
 50
90.0
 51
180.0
  0
ARC
  5
15A46
  8
0
 10
260.85000000000002
 20
-130.01252324934441
 30
0.0
 40
0.7999999999999972
 50
270.0
 51
0.0
  0
ARC
  5
15A47
  8
0
 10
280.14999999999998
 20
-130.01252324934441
 30
0.0
 40
0.7999999999999972
 50
180.0
 51
270.0
  0
LINE
  5
15A48
  8
0
 10
261.64999999999998
 20
-129.11252324934441
 30
0.0
 11
261.64999999999998
 21
-130.01252324934441
 31
0.0
  0
LINE
  5
15A49
  8
0
 10
279.35000000000002
 20
-130.01252324934441
 30
0.0
 11
279.35000000000002
 21
-129.11252324934441
 31
0.0
  0
LINE
  5
15A4A
  8
0
 10
265.74999999999989
 20
-140.7125232493444
 30
0.0
 11
265.74999999999989
 21
-140.9245123979336
 31
0.0
  0
ARC
  5
15A4B
  8
0
 10
265.3499999999998
 20
-140.7125232493444
 30
0.0
 40
0.4000000000000057
 50
0.0
 51
90.0
  0
LINE
  5
15A4C
  8
0
 10
263.69999999999999
 20
-140.9245123979336
 30
0.0
 11
277.29999999999961
 21
-140.9245123979336
 31
0.0
  0
LINE
  5
15A4D
  8
0
 10
262.69999999999987
 20
-151.31252324934439
 30
0.0
 11
278.2999999999999
 21
-151.31252324934439
 31
0.0
  0
LINE
  5
15A4E
  8
0
 10
277.99999999999989
 20
-170.31252324934431
 30
0.0
 11
262.99999999999989
 21
-170.31252324934431
 31
0.0
  0
LINE
  5
15A4F
  8
0
 10
269.24999999999989
 20
-127.3125232493443
 30
0.0
 11
269.24999999999989
 21
-125.31252324934439
 31
0.0
  0
LINE
  5
15A50
  8
0
 10
271.74999999999989
 20
-125.31252324934439
 30
0.0
 11
271.74999999999989
 21
-127.3125232493443
 31
0.0
  0
LINE
  5
15A51
  8
0
 10
269.24999999999989
 20
-127.3125232493443
 30
0.0
 11
271.74999999999989
 21
-127.3125232493443
 31
0.0
  0
LINE
  5
15A52
  8
0
 10
262.00000000000011
 20
-140.31252324934439
 30
0.0
 11
278.99999999999989
 21
-140.31252324934439
 31
0.0
  0
LINE
  5
15A53
  8
0
 10
260.49999999999989
 20
-138.81252324934439
 30
0.0
 11
280.49999999999989
 21
-138.81252324934439
 31
0.0
  0
LINE
  5
15A54
  8
0
 10
260.49999999999989
 20
-130.81252324934439
 30
0.0
 11
280.49999999999989
 21
-130.81252324934439
 31
0.0
  0
ARC
  5
15A55
  8
0
 10
275.62024718118079
 20
-140.71249326940091
 30
0.0
 40
0.399970054318433
 50
90.177190591620473
 51
163.9140799855106
  0
POLYLINE
  5
15A56
  8
0
 66
     1
 10
0.0
 20
0.0
 30
0.0
 70
   128
  0
VERTEX
  5
16470
  8
0
 10
275.23593704519368
 20
-140.60167015029151
 30
0.0
  0
VERTEX
  5
16471
  8
0
 10
275.18610476143709
 20
-140.74488045983901
 30
0.0
  0
VERTEX
  5
16472
  8
0
 10
275.16230009962339
 20
-140.81684874633609
 30
0.0
  0
VERTEX
  5
16473
  8
0
 10
275.12948612631561
 20
-140.9245123979336
 30
0.0
  0
SEQEND
  5
16474
  8
0
  0
LINE
  5
15A57
  8
1
 10
270.49999999999989
 20
-173.31252324934431
 30
0.0
 11
270.49999999999989
 21
-121.81252324934439
 31
0.0
  0
LINE
  5
15A58
  8
3
 10
261.31200000000018
 20
-130.81252324934439
 30
0.0
 11
261.31200000000018
 21
-139.6245232493448
 31
0.0
  0
LINE
  5
15A59
  8
3
 10
279.68799999999948
 20
-130.81252324934439
 30
0.0
 11
279.68799999999948
 21
-139.6245232493448
 31
0.0
  0
LINE
  5
15A5A
  8
0
 10
252.9999999999998
 20
-124.81252324934439
 30
0.0
 11
287.99999999999989
 21
-124.81252324934439
 31
0.0
  0
LINE
  5
15A5B
  8
0
 10
252.9999999999998
 20
-156.81252324934439
 30
0.0
 11
262.49999999999989
 21
-156.81252324934439
 31
0.0
  0
LINE
  5
15A5C
  8
0
 10
278.49999999999989
 20
-156.81252324934439
 30
0.0
 11
287.99999999999989
 21
-156.81252324934439
 31
0.0
  0
LINE
  5
15A5D
  8
0
 10
257.99999999999977
 20
-125.31252324934439
 30
0.0
 11
269.24999999999977
 21
-125.31252324934439
 31
0.0
  0
LINE
  5
15A5E
  8
0
 10
271.74999999999989
 20
-125.31252324934439
 30
0.0
 11
282.99999999999989
 21
-125.31252324934439
 31
0.0
  0
LINE
  5
15A5F
  8
0
 10
257.99999999999989
 20
-128.31252324934439
 30
0.0
 11
282.99999999999989
 21
-128.31252324934439
 31
0.0
  0
LINE
  5
15A60
  8
0
 10
260.49999999999989
 20
-141.31252324934439
 30
0.0
 11
263.49999999999989
 21
-141.31252324934439
 31
0.0
  0
LINE
  5
15A61
  8
0
 10
277.49999999999989
 20
-141.31252324934439
 30
0.0
 11
280.49999999999977
 21
-141.31252324934439
 31
0.0
  0
LINE
  5
15A62
  8
0
 10
257.99999999999989
 20
-128.31252324934439
 30
0.0
 11
257.99999999999989
 21
-125.31252324934439
 31
0.0
  0
LINE
  5
15A63
  8
0
 10
282.99999999999989
 20
-128.31252324934439
 30
0.0
 11
282.99999999999989
 21
-125.31252324934439
 31
0.0
  0
LINE
  5
15A64
  8
0
 10
257.99999999999989
 20
-125.31252324934439
 30
0.0
 11
257.49999999999989
 21
-124.81252324934439
 31
0.0
  0
LINE
  5
15A65
  8
0
 10
282.99999999999989
 20
-125.31252324934439
 30
0.0
 11
283.49999999999989
 21
-124.81252324934439
 31
0.0
  0
LINE
  5
15A66
  8
3
 10
280.49999999999977
 20
-129.00052324934421
 30
0.0
 11
280.49999999999989
 21
-130.81252324934439
 31
0.0
  0
LINE
  5
15A67
  8
3
 10
280.49999999999989
 20
-138.81252324934439
 30
0.0
 11
280.49999999999989
 21
-141.31252324934439
 31
0.0
  0
LINE
  5
15A68
  8
0
 10
279.68799999999948
 20
-139.6245232493448
 30
0.0
 11
279.68799999999942
 21
-156.31252324934439
 31
0.0
  0
LINE
  5
15A69
  8
0
 10
261.31200000000018
 20
-139.6245232493448
 30
0.0
 11
261.3120000000003
 21
-156.31252324934411
 31
0.0
  0
LINE
  5
15A6A
  8
3
 10
260.49999999999977
 20
-129.00052324934421
 30
0.0
 11
260.49999999999989
 21
-130.81252324934439
 31
0.0
  0
LINE
  5
15A6B
  8
3
 10
260.49999999999989
 20
-138.81252324934439
 30
0.0
 11
260.49999999999989
 21
-141.31252324934439
 31
0.0
  0
LINE
  5
15A6C
  8
0
 10
302.99999999999989
 20
-124.81252324934449
 30
0.0
 11
338.0
 21
-124.81252324934449
 31
0.0
  0
LINE
  5
15A6D
  8
0
 10
302.99999999999989
 20
-156.81252324934439
 30
0.0
 11
337.99999999999989
 21
-156.81252324934439
 31
0.0
  0
LINE
  5
15A6E
  8
0
 10
307.99999999999989
 20
-125.31252324934449
 30
0.0
 11
333.0
 21
-125.31252324934449
 31
0.0
  0
LINE
  5
15A6F
  8
0
 10
308.0
 20
-128.31252324934451
 30
0.0
 11
333.0
 21
-128.31252324934451
 31
0.0
  0
LINE
  5
15A70
  8
0
 10
311.31200000000013
 20
-129.81252324934451
 30
0.0
 11
309.81200000000013
 21
-128.31252324934451
 31
0.0
  0
LINE
  5
15A71
  8
0
 10
308.0
 20
-128.31252324934451
 30
0.0
 11
308.0
 21
-125.31252324934449
 31
0.0
  0
LINE
  5
15A72
  8
0
 10
333.0
 20
-128.31252324934451
 30
0.0
 11
333.0
 21
-125.31252324934449
 31
0.0
  0
LINE
  5
15A73
  8
0
 10
308.0
 20
-125.31252324934449
 30
0.0
 11
307.49999999999989
 21
-124.81252324934449
 31
0.0
  0
LINE
  5
15A74
  8
0
 10
333.0
 20
-125.31252324934449
 30
0.0
 11
333.5
 21
-124.81252324934449
 31
0.0
  0
LINE
  5
15A75
  8
0
 10
311.31200000000013
 20
-129.81252324934451
 30
0.0
 11
329.6879999999997
 21
-129.81252324934459
 31
0.0
  0
LINE
  5
15A76
  8
0
 10
311.31199999999978
 20
-156.31252324934411
 30
0.0
 11
329.68799999999931
 21
-156.31252324934439
 31
0.0
  0
LINE
  5
15A77
  8
3
 10
330.5
 20
-129.00052324934441
 30
0.0
 11
330.5
 21
-141.31252324934451
 31
0.0
  0
LINE
  5
15A78
  8
0
 10
329.6879999999997
 20
-129.81252324934459
 30
0.0
 11
329.68799999999942
 21
-156.81252324934439
 31
0.0
  0
LINE
  5
15A79
  8
0
 10
311.31200000000013
 20
-129.81252324934451
 30
0.0
 11
311.31200000000052
 21
-156.31252324934439
 31
0.0
  0
LINE
  5
15A7A
  8
0
 10
310.81200000000052
 20
-156.81252324934439
 30
0.0
 11
311.31200000000052
 21
-156.31252324934439
 31
0.0
  0
LINE
  5
15A7B
  8
3
 10
310.49999999999989
 20
-129.0005232493443
 30
0.0
 11
310.5
 21
-141.31252324934451
 31
0.0
  0
LINE
  5
15A7C
  8
0
 10
310.5
 20
-141.31252324934451
 30
0.0
 11
330.5
 21
-141.31252324934451
 31
0.0
  0
LINE
  5
15A7D
  8
1
 10
320.49999999999989
 20
-159.81252324934439
 30
0.0
 11
320.5
 21
-121.81252324934449
 31
0.0
  0
LINE
  5
15A7E
  8
3
 10
260.49999999999989
 20
-141.31252324934439
 30
0.0
 11
261.31200000000013
 21
-142.71894850509091
 31
0.0
  0
LINE
  5
15A7F
  8
3
 10
280.49999999999977
 20
-141.31252324934439
 30
0.0
 11
279.68799999999948
 21
-142.71894850509091
 31
0.0
  0
LINE
  5
15A80
  8
3
 10
310.5
 20
-141.31252324934439
 30
0.0
 11
311.3120000000003
 21
-142.71894850509091
 31
0.0
  0
LINE
  5
15A81
  8
3
 10
330.5
 20
-141.31252324934439
 30
0.0
 11
329.68799999999982
 21
-142.71894850509091
 31
0.0
  0
TEXT
  5
15A85
  8
0
 62
     3
 10
139.8333333333332
 20
-109.81252324934439
 30
0.0
 40
3.2000000000000002
  1
10mm～32mmのベースへの取付け
 72
     1
 11
170.49999999999989
 21
-109.81252324934439
 31
0.0
  0
TEXT
  5
15A86
  8
0
 62
     3
 10
278.64666666666659
 20
-109.81252324934439
 30
0.0
 40
3.2000000000000002
  1
ブロックへの取付け
 72
     1
 11
295.5
 21
-109.81252324934439
 31
0.0
  0
LINE
  5
15BC1
  8
0
 10
330.18799999999931
 20
-156.81252324934439
 30
0.0
 11
329.68799999999931
 21
-156.31252324934439
 31
0.0
  0
LINE
  5
15BC2
  8
0
 10
261.31199999999973
 20
-156.31252324934411
 30
0.0
 11
262.49999999999989
 21
-156.31252324934411
 31
0.0
  0
LINE
  5
15BC3
  8
0
 10
278.49999999999989
 20
-156.31252324934439
 30
0.0
 11
279.68799999999919
 21
-156.31252324934439
 31
0.0
  0
LINE
  5
15BC4
  8
0
 10
260.8120000000003
 20
-156.81252324934439
 30
0.0
 11
261.3120000000003
 21
-156.31252324934439
 31
0.0
  0
LINE
  5
15BC5
  8
0
 10
280.18799999999919
 20
-156.81252324934439
 30
0.0
 11
279.68799999999919
 21
-156.31252324934439
 31
0.0
  0
LINE
  5
15BD1
  8
0
 10
204.6879999999999
 20
-129.81252324934439
 30
0.0
 11
206.1879999999999
 21
-128.31252324934439
 31
0.0
  0
LINE
  5
15BD2
  8
0
 10
186.3120000000003
 20
-138.31252324934439
 30
0.0
 11
184.8120000000001
 21
-139.81252324934439
 31
0.0
  0
LINE
  5
15BD3
  8
0
 10
186.3120000000003
 20
-138.31252324934439
 30
0.0
 11
204.68799999999979
 21
-138.31252324934471
 31
0.0
  0
LINE
  5
15BD4
  8
0
 10
204.68799999999979
 20
-138.31252324934479
 30
0.0
 11
206.18799999999979
 21
-139.81252324934479
 31
0.0
  0
LINE
  5
15BD5
  8
0
 10
136.3120000000003
 20
-129.81252324934439
 30
0.0
 11
134.8120000000003
 21
-128.31252324934439
 31
0.0
  0
LINE
  5
15BD6
  8
0
 10
154.68799999999979
 20
-129.81252324934439
 30
0.0
 11
156.1879999999999
 21
-128.31252324934439
 31
0.0
  0
LINE
  5
15BD7
  8
0
 10
135.65600000000009
 20
-138.96852324934451
 30
0.0
 11
134.8120000000001
 21
-139.81252324934439
 31
0.0
  0
LINE
  5
15BD8
  8
0
 10
155.34399999999971
 20
-138.9685232493448
 30
0.0
 11
156.1879999999997
 21
-139.81252324934491
 31
0.0
  0
LINE
  5
15BD9
  8
0
 10
136.3120000000003
 20
-129.81252324934439
 30
0.0
 11
136.3120000000003
 21
-130.6656357970725
 31
0.0
  0
LINE
  5
15BDA
  8
0
 10
136.3120000000003
 20
-129.81252324934439
 30
0.0
 11
136.6500000000002
 21
-129.81252324934439
 31
0.0
  0
LINE
  5
15BDB
  8
0
 10
154.35000000000019
 20
-129.81252324934451
 30
0.0
 11
154.68799999999979
 21
-129.81252324934451
 31
0.0
  0
LINE
  5
15BDC
  8
0
 10
154.68799999999979
 20
-129.81252324934451
 30
0.0
 11
154.68799999999979
 21
-130.6656357970725
 31
0.0
  0
LINE
  5
15BDD
  8
0
 10
329.68799999999982
 20
-129.81252324934451
 30
0.0
 11
331.18799999999982
 21
-128.31252324934451
 31
0.0
  0
LINE
  5
15BDE
  8
0
 10
261.31200000000001
 20
-129.81252324934439
 30
0.0
 11
259.81200000000001
 21
-128.31252324934439
 31
0.0
  0
LINE
  5
15BDF
  8
0
 10
279.6879999999997
 20
-129.81252324934439
 30
0.0
 11
281.18799999999959
 21
-128.31252324934439
 31
0.0
  0
LINE
  5
15BE0
  8
0
 10
261.31200000000013
 20
-129.81252324934451
 30
0.0
 11
261.64999999999998
 21
-129.81252324934451
 31
0.0
  0
LINE
  5
15BE1
  8
0
 10
279.35000000000002
 20
-129.81252324934451
 30
0.0
 11
279.6879999999997
 21
-129.81252324934451
 31
0.0
  0
LINE
  5
15BE2
  8
0
 10
279.6879999999997
 20
-129.81252324934451
 30
0.0
 11
279.6879999999997
 21
-130.6656357970723
 31
0.0
  0
LINE
  5
15BE3
  8
0
 10
261.31200000000013
 20
-129.81252324934451
 30
0.0
 11
261.31200000000013
 21
-130.66563579707241
 31
0.0
  0
TEXT
  5
15F0F
  8
0
 62
     3
 10
105.0
 20
0.0
 30
0.0
 40
3.2000000000000002
  1
■ボールインキャッチャー（ロック付き）の取付け方法(下図)
  0
TEXT
  5
15F10
  8
0
 62
     3
 10
136.43333333333331
 20
-89.812523249344423
 30
0.0
 40
3.2000000000000002
  1
組付け状態
 72
     1
 11
145.5
 21
-89.812523249344423
 31
0.0
  0
TEXT
  5
15F11
  8
0
 62
     3
 10
276.88666666666683
 20
-19.594764855300561
 30
0.0
 40
3.2000000000000002
  1
10mmのベースの場合
 72
     1
 11
295.50000000000023
 21
-19.594764855300561
 31
0.0
  0
POLYLINE
  5
15F23
  8
5
 66
     1
 10
0.0
 20
0.0
 30
0.0
 70
     1
  0
VERTEX
  5
16475
  8
5
 10
105.0
 20
-10.0
 30
0.0
  0
VERTEX
  5
16476
  8
5
 10
354.99999999999989
 20
-10.0
 30
0.0
  0
VERTEX
  5
16477
  8
5
 10
354.99999999999989
 20
-195.31252324934431
 30
0.0
  0
VERTEX
  5
16478
  8
5
 10
105.0
 20
-195.31252324934431
 30
0.0
  0
SEQEND
  5
16479
  8
5
  0
TEXT
  5
15F24
  8
0
 62
     3
 10
152.68666666666661
 20
-19.594764855300561
 30
0.0
 40
3.2000000000000002
  1
6mmのベースの場合
 72
     1
 11
170.49999999999989
 21
-19.594764855300561
 31
0.0
  0
TEXT
  5
15F25
  8
0
 62
     3
 10
188.24666666666661
 20
-89.812523249344423
 30
0.0
 40
3.2000000000000002
  1
取付け穴
 72
     1
 11
195.49999999999989
 21
-89.812523249344423
 31
0.0
  0
TEXT
  5
15F26
  8
0
 62
     3
 10
261.43333333333328
 20
-89.812523249344423
 30
0.0
 40
3.2000000000000002
  1
組付け状態
 72
     1
 11
270.5
 21
-89.812523249344423
 31
0.0
  0
TEXT
  5
15F27
  8
0
 62
     3
 10
313.24666666666661
 20
-89.812523249344423
 30
0.0
 40
3.2000000000000002
  1
取付け穴
 72
     1
 11
320.5
 21
-89.812523249344423
 31
0.0
  0
TEXT
  5
15F28
  8
0
 62
     3
 10
136.43333333333339
 20
-180.31252324934431
 30
0.0
 40
3.2000000000000002
  1
組付け状態
 72
     1
 11
145.50000000000011
 21
-180.31252324934431
 31
0.0
  0
TEXT
  5
15F29
  8
0
 62
     3
 10
188.24666666666681
 20
-180.31252324934431
 30
0.0
 40
3.2000000000000002
  1
取付け穴
 72
     1
 11
195.5000000000002
 21
-180.31252324934431
 31
0.0
  0
TEXT
  5
15F2A
  8
0
 62
     3
 10
261.43333333333328
 20
-180.31252324934431
 30
0.0
 40
3.2000000000000002
  1
組付け状態
 72
     1
 11
270.5
 21
-180.31252324934431
 31
0.0
  0
TEXT
  5
15F2B
  8
0
 62
     3
 10
313.24666666666661
 20
-180.31252324934431
 30
0.0
 40
3.2000000000000002
  1
取付け穴
 72
     1
 11
320.5
 21
-180.31252324934431
 31
0.0
  0
TEXT
  5
160FA
  8
0
 62
     3
 10
0.0
 20
0.0
 30
0.0
 40
10.0
  1
QCBAS0820A
  7
STANDARD1
  0
TEXT
  5
161D8
  8
0
 62
     3
 10
106.5799999999999
 20
-116.81252324934439
 30
0.0
 40
3.2000000000000002
  1
For installation on plate of over 10 to 32 mm thickness.
 41
0.85
 72
     1
 11
170.49999999999989
 21
-116.81252324934439
 31
0.0
  0
TEXT
  5
161D9
  8
0
 62
     3
 10
261.95333333333332
 20
-116.81252324934439
 30
0.0
 40
3.2000000000000002
  1
For installation on block.
 72
     1
 11
295.5
 21
-116.81252324934439
 31
0.0
  0
TEXT
  5
161DA
  8
0
 62
     3
 10
105.0
 20
-7.0
 30
0.0
 40
3.2000000000000002
  1
■Installation Instructions for "Safety-Lock" Ball-Lock Clamping Receptacles (see diagram below)
 41
0.85
  0
TEXT
  5
161DB
  8
0
 62
     3
 10
124.28400000000001
 20
-96.812523249344437
 30
0.0
 40
3.2000000000000002
  1
Installed condition
 41
0.85
 72
     1
 11
145.5
 21
-96.812523249344437
 31
0.0
  0
TEXT
  5
161DC
  8
0
 62
     3
 10
244.90800000000019
 20
-26.594764855300561
 30
0.0
 40
3.2000000000000002
  1
For installation on plate of 10 mm thickness.
 41
0.85
 72
     1
 11
295.50000000000023
 21
-26.594764855300561
 31
0.0
  0
TEXT
  5
161DD
  8
0
 62
     3
 10
120.58799999999989
 20
-26.594764855300561
 30
0.0
 40
3.2000000000000002
  1
For installation on plate of 6 mm thickness.
 41
0.85
 72
     1
 11
170.49999999999989
 21
-26.594764855300561
 31
0.0
  0
TEXT
  5
161DE
  8
0
 62
     3
 10
176.77733333333319
 20
-96.812523249344437
 30
0.0
 40
3.2000000000000002
  1
Installation hole
 41
0.85
 72
     1
 11
195.49999999999989
 21
-96.812523249344437
 31
0.0
  0
TEXT
  5
161DF
  8
0
 62
     3
 10
249.28399999999991
 20
-96.812523249344437
 30
0.0
 40
3.2000000000000002
  1
Installed condition
 41
0.85
 72
     1
 11
270.5
 21
-96.812523249344437
 31
0.0
  0
TEXT
  5
161E0
  8
0
 62
     3
 10
301.77733333333327
 20
-96.812523249344437
 30
0.0
 40
3.2000000000000002
  1
Installation hole
 41
0.85
 72
     1
 11
320.5
 21
-96.812523249344437
 31
0.0
  0
TEXT
  5
161E1
  8
0
 62
     3
 10
124.28400000000011
 20
-187.31252324934431
 30
0.0
 40
3.2000000000000002
  1
Installed condition
 41
0.85
 72
     1
 11
145.50000000000011
 21
-187.31252324934431
 31
0.0
  0
TEXT
  5
161E2
  8
0
 62
     3
 10
176.7773333333335
 20
-187.31252324934431
 30
0.0
 40
3.2000000000000002
  1
Installation hole
 41
0.85
 72
     1
 11
195.5000000000002
 21
-187.31252324934431
 31
0.0
  0
TEXT
  5
161E3
  8
0
 62
     3
 10
249.28399999999991
 20
-187.31252324934431
 30
0.0
 40
3.2000000000000002
  1
Installed condition
 41
0.85
 72
     1
 11
270.5
 21
-187.31252324934431
 31
0.0
  0
TEXT
  5
161E4
  8
0
 62
     3
 10
301.77733333333327
 20
-187.31252324934431
 30
0.0
 40
3.2000000000000002
  1
Installation hole
 41
0.85
 72
     1
 11
320.5
 21
-187.31252324934431
 31
0.0
  0
ENDSEC
  0
EOF
