  0
SECTION
  2
HEADER
  9
$ACADVER
  1
AC1009
  9
$INSBASE
 10
0.0
 20
0.0
 30
0.0
  9
$EXTMIN
 10
0.0
 20
-2.960436562073669
 30
0.0
  9
$EXTMAX
 10
505.8948820327692
 20
257.45248850886628
 30
0.0
  9
$LIMMIN
 10
0.0
 20
0.0
  9
$LIMMAX
 10
187.5
 20
135.0
  9
$ORTHOMODE
 70
     1
  9
$REGENMODE
 70
     1
  9
$FILLMODE
 70
     1
  9
$QTEXTMODE
 70
     0
  9
$MIRRTEXT
 70
     0
  9
$DRAGMODE
 70
     2
  9
$LTSCALE
 40
5.0
  9
$OSMODE
 70
    37
  9
$ATTMODE
 70
     1
  9
$TEXTSIZE
 40
4.0
  9
$TRACEWID
 40
0.05
  9
$TEXTSTYLE
  7
STANDARD
  9
$CLAYER
  8
0
  9
$CELTYPE
  6
BYLAYER
  9
$CECOLOR
 62
   256
  9
$DIMSCALE
 40
1.0
  9
$DIMASZ
 40
3.0
  9
$DIMEXO
 40
2.0
  9
$DIMDLI
 40
0.38
  9
$DIMRND
 40
0.0
  9
$DIMDLE
 40
0.0
  9
$DIMEXE
 40
2.0
  9
$DIMTP
 40
0.0
  9
$DIMTM
 40
0.0
  9
$DIMTXT
 40
3.2000000000000002
  9
$DIMCEN
 40
0.0
  9
$DIMTSZ
 40
0.0
  9
$DIMTOL
 70
     0
  9
$DIMLIM
 70
     0
  9
$DIMTIH
 70
     0
  9
$DIMTOH
 70
     0
  9
$DIMSE1
 70
     0
  9
$DIMSE2
 70
     0
  9
$DIMTAD
 70
     1
  9
$DIMZIN
 70
     8
  9
$DIMBLK
  1

  9
$DIMASO
 70
     0
  9
$DIMSHO
 70
     0
  9
$DIMPOST
  1

  9
$DIMAPOST
  1

  9
$DIMALT
 70
     0
  9
$DIMALTD
 70
     2
  9
$DIMALTF
 40
25.399999999999999
  9
$DIMLFAC
 40
1.0
  9
$DIMTOFL
 70
     1
  9
$DIMTVP
 40
1.6000000000000001
  9
$DIMTIX
 70
     0
  9
$DIMSOXD
 70
     0
  9
$DIMSAH
 70
     0
  9
$DIMBLK1
  1

  9
$DIMBLK2
  1

  9
$DIMSTYLE
  2
STANDARD
  9
$DIMCLRD
 70
     4
  9
$DIMCLRE
 70
     4
  9
$DIMCLRT
 70
     4
  9
$DIMTFAC
 40
1.0
  9
$DIMGAP
 40
0.5
  9
$LUNITS
 70
     2
  9
$LUPREC
 70
     1
  9
$SKETCHINC
 40
0.1
  9
$FILLETRAD
 40
0.0
  9
$AUNITS
 70
     0
  9
$AUPREC
 70
     1
  9
$MENU
  1
E:\r13\win\SUPPORT\ACAD
  9
$ELEVATION
 40
0.0
  9
$PELEVATION
 40
0.0
  9
$THICKNESS
 40
0.0
  9
$LIMCHECK
 70
     0
  9
$BLIPMODE
 70
     0
  9
$CHAMFERA
 40
1.1999999999999991
  9
$CHAMFERB
 40
1.1999999999999991
  9
$SKPOLY
 70
     0
  9
$TDCREATE
 40
2449933.4048958332
  9
$TDUPDATE
 40
2459046.412410371
  9
$TDINDWG
 40
1.0193636227
  9
$TDUSRTIMER
 40
1.0193636227
  9
$USRTIMER
 70
     1
  9
$ANGBASE
 50
0.0
  9
$ANGDIR
 70
     0
  9
$PDMODE
 70
     0
  9
$PDSIZE
 40
0.0
  9
$PLINEWID
 40
0.0
  9
$COORDS
 70
     1
  9
$SPLFRAME
 70
     0
  9
$SPLINETYPE
 70
     6
  9
$SPLINESEGS
 70
     8
  9
$ATTDIA
 70
     0
  9
$ATTREQ
 70
     1
  9
$HANDLING
 70
     1
  9
$HANDSEED
  5
D530
  9
$SURFTAB1
 70
     6
  9
$SURFTAB2
 70
     6
  9
$SURFTYPE
 70
     6
  9
$SURFU
 70
     6
  9
$SURFV
 70
     6
  9
$UCSNAME
  2

  9
$UCSORG
 10
0.0
 20
0.0
 30
0.0
  9
$UCSXDIR
 10
1.0
 20
0.0
 30
0.0
  9
$UCSYDIR
 10
0.0
 20
1.0
 30
0.0
  9
$PUCSNAME
  2

  9
$PUCSORG
 10
0.0
 20
0.0
 30
0.0
  9
$PUCSXDIR
 10
1.0
 20
0.0
 30
0.0
  9
$PUCSYDIR
 10
0.0
 20
1.0
 30
0.0
  9
$USERI1
 70
     0
  9
$USERI2
 70
     1
  9
$USERI3
 70
     0
  9
$USERI4
 70
     0
  9
$USERI5
 70
     0
  9
$USERR1
 40
0.0
  9
$USERR2
 40
0.0
  9
$USERR3
 40
0.0
  9
$USERR4
 40
0.0
  9
$USERR5
 40
0.0
  9
$WORLDVIEW
 70
     1
  9
$SHADEDGE
 70
     3
  9
$SHADEDIF
 70
    70
  9
$TILEMODE
 70
     1
  9
$MAXACTVP
 70
    16
  9
$PLIMCHECK
 70
     0
  9
$PEXTMIN
 10
1.0000000000000000E+020
 20
1.0000000000000000E+020
 30
1.0000000000000000E+020
  9
$PEXTMAX
 10
-1.0000000000000000E+020
 20
-1.0000000000000000E+020
 30
-1.0000000000000000E+020
  9
$PLIMMIN
 10
0.0
 20
0.0
  9
$PLIMMAX
 10
12.0
 20
9.0
  9
$UNITMODE
 70
     0
  9
$VISRETAIN
 70
     0
  9
$PLINEGEN
 70
     0
  9
$PSLTSCALE
 70
     0
  0
ENDSEC
  0
SECTION
  2
TABLES
  0
TABLE
  2
VPORT
 70
     1
  0
VPORT
  2
*ACTIVE
 70
     0
 10
0.0
 20
0.0
 11
1.0
 21
1.0
 12
422.73773006134962
 22
175.0
 13
0.0
 23
0.0
 14
5.0
 24
5.0
 15
5.0
 25
5.0
 16
0.0
 26
0.0
 36
1.0
 17
0.0
 27
0.0
 37
0.0
 40
350.0
 41
2.415644171779141
 42
50.0
 43
0.0
 44
0.0
 50
0.0
 51
0.0
 71
     0
 72
   500
 73
     1
 74
     0
 75
     0
 76
     0
 77
     0
 78
     2
  0
ENDTAB
  0
TABLE
  2
LTYPE
 70
     4
  0
LTYPE
  2
CONTINUOUS
 70
     0
  3
Solid Line
 72
    65
 73
     0
 40
0.0
  0
LTYPE
  2
CENTER
 70
     0
  3
____ _ ____ _ ____ _ ____ _ ____ _ ____ _ ____
 72
    65
 73
     4
 40
2.0
 49
1.25
 49
-0.25
 49
0.25
 49
-0.25
  0
LTYPE
  2
PHANTOM2
 70
     0
  3
___ _ _ ___ _ _ ___ _ _ ___ _ _
 72
    65
 73
     6
 40
1.25
 49
0.625
 49
-0.125
 49
0.125
 49
-0.125
 49
0.125
 49
-0.125
  0
LTYPE
  2
PHANTOM
 70
     0
  3
_____ _ _ _____ _ _ _____ _ _ _____ _ _ ____
 72
    65
 73
     6
 40
2.5
 49
1.25
 49
-0.25
 49
0.25
 49
-0.25
 49
0.25
 49
-0.25
  0
ENDTAB
  0
TABLE
  2
LAYER
 70
     5
  0
LAYER
  2
0
 70
     0
 62
     7
  6
CONTINUOUS
  0
LAYER
  2
1
 70
     0
 62
     1
  6
CENTER
  0
LAYER
  2
DEFPOINTS
 70
     0
 62
     7
  6
CONTINUOUS
  0
LAYER
  2
3
 70
     0
 62
     3
  6
CONTINUOUS
  0
LAYER
  2
5
 70
     0
 62
     3
  6
PHANTOM
  0
ENDTAB
  0
TABLE
  2
STYLE
 70
     2
  0
STYLE
  2
STANDARD
 70
     0
 40
0.0
 41
1.0
 50
0.0
 71
     0
 42
4.0
  3
SIMPLEX
  4
BIGFONT
  0
STYLE
  2
STANDARD1
 70
     0
 40
0.0
 41
1.0
 50
0.0
 71
     0
 42
3.0
  3
txt
  4

  0
ENDTAB
  0
TABLE
  2
VIEW
 70
     1
  0
VIEW
  2
ALL
 70
     0
 40
175.0
 10
143.1020066889632
 20
87.5
 41
286.2040133779264
 11
0.0
 21
0.0
 31
1.0
 12
0.0
 22
0.0
 32
0.0
 42
50.0
 43
0.0
 44
0.0
 50
0.0
 71
     0
  0
ENDTAB
  0
TABLE
  2
UCS
 70
     0
  0
ENDTAB
  0
TABLE
  2
APPID
 70
     9
  0
APPID
  2
ACAD
 70
     0
  0
APPID
  2
ACAD_DSTYLE_DIMJAG
 70
     0
  0
APPID
  2
ACAD_DSTYLE_DIMTALN
 70
     0
  0
APPID
  2
ACAD_EXEMPT_FROM_CAD_STANDARDS
 70
     0
  0
APPID
  2
ACAD_DSTYLE_DIMRADIAL_EXTENSION
 70
     0
  0
APPID
  2
ACAD_MLEADERVER
 70
     0
  0
APPID
  2
ACAD_NAV_VCDISPLAY
 70
     0
  0
APPID
  2
ACAD_PSEXT
 70
     0
  0
APPID
  2
ACADANNOTATIVE
 70
     0
  0
ENDTAB
  0
TABLE
  2
DIMSTYLE
 70
     1
  0
DIMSTYLE
  2
STANDARD
 70
     0
  3

  4

  5

  6

  7

 40
1.0
 41
0.18
 42
0.0625
 43
0.38
 44
0.18
 45
0.0
 46
0.0
 47
0.0
 48
0.0
140
0.18
141
0.09
142
0.0
143
25.399999999999999
144
1.0
145
0.0
146
1.0
147
0.09
 71
     0
 72
     0
 73
     1
 74
     1
 75
     0
 76
     0
 77
     0
 78
     0
170
     0
171
     2
172
     0
173
     0
174
     0
175
     0
176
     0
177
     0
178
     0
  0
ENDTAB
  0
ENDSEC
  0
SECTION
  2
BLOCKS
  0
BLOCK
  8
0
  2
$MODEL_SPACE
 70
     0
 10
0.0
 20
0.0
 30
0.0
  3
$MODEL_SPACE
  1

  0
ENDBLK
  5
8A
  8
0
  0
BLOCK
 67
     1
  8
0
  2
$PAPER_SPACE
 70
     0
 10
0.0
 20
0.0
 30
0.0
  3
$PAPER_SPACE
  1

  0
ENDBLK
  5
88
 67
     1
  8
0
  0
ENDSEC
  0
SECTION
  2
ENTITIES
  0
TEXT
  5
5B60
  8
0
 62
     3
 10
0.0
 20
0.0
 30
0.0
 40
10.0
  1
QCIC05M10-2P
  7
STANDARD1
  0
LINE
  5
A6F1
  8
0
 10
126.12440613311151
 20
134.58387118973809
 30
0.0
 11
127.4393600339851
 21
133.82468124129849
 31
0.0
  0
LINE
  5
A6F2
  8
0
 10
127.4393600339851
 20
138.82468206086239
 30
0.0
 11
126.12440613311151
 21
138.06549211242279
 31
0.0
  0
LINE
  5
A6F3
  8
0
 10
145.75431485873079
 20
138.06549211242279
 30
0.0
 11
144.4393609578571
 21
138.82468206086239
 31
0.0
  0
LINE
  5
A6F4
  8
0
 10
144.4393609578571
 20
133.82468124129849
 30
0.0
 11
145.75431485873079
 21
134.58387118973809
 31
0.0
  0
ARC
  5
A6F5
  8
0
 10
140.93936049592111
 20
164.02468201615889
 30
0.0
 40
10.5
 50
73.109316909683258
 51
90.0
  0
ARC
  5
A6F6
  8
0
 10
130.93936049592111
 20
164.02468201615889
 30
0.0
 40
10.5
 50
90.0
 51
106.8906830903167
  0
ARC
  5
A6F7
  8
0
 10
144.91247043328059
 20
159.52468201615889
 30
0.0
 40
0.5
 50
270.0
 51
3.0000000000023381
  0
ARC
  5
A6F8
  8
0
 10
126.9662505585616
 20
159.52468201615889
 30
0.0
 40
0.5000000000000023
 50
176.99999999999761
 51
270.0
  0
LINE
  5
A6F9
  8
0
 10
145.41178559165809
 20
159.55085058906161
 30
0.0
 11
144.6981829519234
 21
173.16719641187271
 31
0.0
  0
LINE
  5
A6FA
  8
0
 10
127.1805380399189
 20
173.16719641187271
 30
0.0
 11
126.4669354001841
 21
159.55085058906161
 31
0.0
  0
ARC
  5
A6FB
  8
0
 10
128.17916778090239
 20
173.1148600218944
 30
0.0
 40
0.9999999999999994
 50
106.8906830903167
 51
177.00000000000091
  0
ARC
  5
A6FC
  8
0
 10
143.6995532109398
 20
173.1148600218944
 30
0.0
 40
1.000000000000002
 50
2.9999999999990772
 51
73.109316909683258
  0
LINE
  5
A6FD
  8
0
 10
142.939360711988
 20
152.62468283274251
 30
0.0
 11
142.939360711988
 21
159.0246831367262
 31
0.0
  0
LINE
  5
A6FE
  8
0
 10
128.9393602798543
 20
159.0246831367262
 30
0.0
 11
128.9393602798543
 21
152.62468283274251
 31
0.0
  0
ARC
  5
A6FF
  8
0
 10
135.93936049592111
 20
129.02468201615889
 30
0.0
 40
2.9999999999999991
 50
255.16488841802621
 51
284.83511158197621
  0
LINE
  5
A700
  8
0
 10
126.9393608833513
 20
150.32468115189161
 30
0.0
 11
127.13936054360479
 21
150.124681491638
 31
0.0
  0
LINE
  5
A701
  8
0
 10
144.73936044823739
 20
150.124681491638
 30
0.0
 11
144.93936010849089
 21
150.32468115189161
 31
0.0
  0
LINE
  5
A702
  8
0
 10
144.93936010849089
 20
150.32468115189161
 30
0.0
 11
144.93936010849089
 21
152.42468317248901
 31
0.0
  0
LINE
  5
A703
  8
0
 10
126.9393608833513
 20
152.42468317248901
 30
0.0
 11
126.9393608833513
 21
150.32468115189161
 31
0.0
  0
LINE
  5
A704
  8
0
 10
144.93936010849089
 20
152.42468317248901
 30
0.0
 11
144.73936044823739
 21
152.62468283274251
 31
0.0
  0
LINE
  5
A705
  8
0
 10
127.13936054360479
 20
152.62468283274251
 30
0.0
 11
126.9393608833513
 21
152.42468317248901
 31
0.0
  0
LINE
  5
A708
  8
0
 10
140.94936046030739
 20
141.12468187906819
 30
0.0
 11
140.94936046030739
 21
143.12468220689379
 31
0.0
  0
LINE
  5
A709
  8
0
 10
130.92936053153491
 20
143.12468220689379
 30
0.0
 11
130.92936053153491
 21
141.12468187906819
 31
0.0
  0
LINE
  5
A70A
  8
0
 10
140.9393603841624
 20
127.13468198874079
 30
0.0
 11
140.9393603841624
 21
133.82468124129849
 31
0.0
  0
LINE
  5
A70B
  8
0
 10
140.9393603841624
 20
138.82468206086239
 30
0.0
 11
140.9393603841624
 21
141.12468187906819
 31
0.0
  0
LINE
  5
A70C
  8
0
 10
130.93936060767979
 20
141.12468187906819
 30
0.0
 11
130.93936060767979
 21
138.82468206086239
 31
0.0
  0
LINE
  5
A70D
  8
0
 10
130.93936060767979
 20
133.82468124129849
 30
0.0
 11
130.93936060767979
 21
127.13468198874079
 31
0.0
  0
LINE
  5
A70E
  8
0
 10
130.93936060767979
 20
127.13468198874079
 30
0.0
 11
131.9393603059313
 21
126.13468182482799
 31
0.0
  0
LINE
  5
A70F
  8
0
 10
139.93936068591091
 20
126.13468182482799
 30
0.0
 11
140.9393603841624
 21
127.13468198874079
 31
0.0
  0
LINE
  5
A710
  8
0
 10
131.9393603059313
 20
126.1256824547895
 30
0.0
 11
131.9403605463765
 21
126.1246822143443
 31
0.0
  0
LINE
  5
A711
  8
0
 10
139.9383604454658
 20
126.1246822143443
 30
0.0
 11
139.93936068591091
 21
126.1256824547895
 31
0.0
  0
LINE
  5
A712
  8
0
 10
131.9393603059313
 20
126.13468182482799
 30
0.0
 11
131.9393603059313
 21
126.1256824547895
 31
0.0
  0
LINE
  5
A713
  8
0
 10
139.93936068591091
 20
126.1256824547895
 30
0.0
 11
139.93936068591091
 21
126.13468182482799
 31
0.0
  0
ARC
  5
A714
  8
0
 10
128.40882623189731
 20
138.7168226473438
 30
0.0
 40
4.8950706031274462
 50
271.98223027853197
 51
302.40203911168061
  0
ARC
  5
A715
  8
0
 10
136.11370396432511
 20
151.192452576958
 30
0.0
 40
17.36864637249343
 50
252.9871676375823
 51
269.42486521596243
  0
ARC
  5
A717
  8
0
 10
135.69609146190359
 20
121.0113692093292
 30
0.0
 40
17.81497388629883
 50
73.194448939799955
 51
89.217583913743184
  0
ARC
  5
A719
  8
0
 10
143.4698819694284
 20
133.9325819943885
 30
0.0
 40
4.8950288458886266
 50
91.982097393535838
 51
122.4021719966739
  0
ARC
  5
A71A
  8
0
 10
135.6972672548653
 20
151.63039365351881
 30
0.0
 40
17.807358132077379
 50
270.77896722138792
 51
286.80899992507238
  0
ARC
  5
A71B
  8
0
 10
143.48212523312529
 20
138.7563521312818
 30
0.0
 40
4.9350114193683901
 50
237.7239980347378
 51
267.89173257505388
  0
ARC
  5
A71D
  8
0
 10
136.11265071184431
 20
121.46371905100639
 30
0.0
 40
17.361827845262209
 50
90.571884651454226
 51
107.016082495004
  0
ARC
  5
A71E
  8
0
 10
128.3966031448887
 20
133.89303504334521
 30
0.0
 40
4.934987291344143
 50
57.723922534680717
 51
87.89180807511012
  0
LINE
  5
A720
  8
0
 10
131.03188331451631
 20
138.06549211242279
 30
0.0
 11
131.03188331451631
 21
134.58387118973809
 31
0.0
  0
LINE
  5
A721
  8
0
 10
140.84683767732599
 20
138.06549211242279
 30
0.0
 11
140.84683767732599
 21
134.58387118973809
 31
0.0
  0
ARC
  5
A722
  8
0
 10
128.7596929729919
 20
138.75634970604159
 30
0.0
 40
4.9350089865633819
 50
237.72399002640401
 51
267.89173444275121
  0
LINE
  5
A723
  8
0
 10
126.12440613311151
 20
138.06549211242279
 30
0.0
 11
126.12440613311151
 21
134.58387118973809
 31
0.0
  0
ARC
  5
A724
  8
0
 10
128.74744925207489
 20
133.93258588987649
 30
0.0
 40
4.8950249282616518
 50
91.982090694584187
 51
122.40218483626261
  0
ARC
  5
A725
  8
0
 10
143.1312589492745
 20
138.71681875177151
 30
0.0
 40
4.8950666854141627
 50
271.98222357949987
 51
302.40205195134831
  0
ARC
  5
A726
  8
0
 10
143.11903540500549
 20
133.8930374685271
 30
0.0
 40
4.934984858598197
 50
57.723914526468782
 51
87.891809942684958
  0
LINE
  5
A727
  8
0
 10
145.75431485873079
 20
138.06549211242279
 30
0.0
 11
145.75431485873079
 21
134.58387118973809
 31
0.0
  0
LINE
  5
A728
  8
0
 10
144.4393609578571
 20
133.82468124129849
 30
0.0
 11
127.4393600339851
 21
133.82468124129849
 31
0.0
  0
LINE
  5
A729
  8
0
 10
144.4393609578571
 20
138.82468206086239
 30
0.0
 11
127.4393600339851
 21
138.82468206086239
 31
0.0
  0
LINE
  5
A72D
  8
0
 10
140.9393603841624
 20
174.52468102076131
 30
0.0
 11
130.93936060767979
 21
174.52468102076131
 31
0.0
  0
LINE
  5
A730
  8
0
 10
126.9651919906176
 20
159.0246831367262
 30
0.0
 11
144.9124700317941
 21
159.0246831367262
 31
0.0
  0
LINE
  5
A732
  8
0
 10
142.939360711988
 20
155.1246804485568
 30
0.0
 11
128.9393602798543
 21
155.1246804485568
 31
0.0
  0
LINE
  5
A733
  8
0
 10
144.73936044823739
 20
150.124681491638
 30
0.0
 11
127.13936054360479
 21
150.124681491638
 31
0.0
  0
LINE
  5
A736
  8
0
 10
127.13936054360479
 20
152.62468283274251
 30
0.0
 11
144.73936044823739
 21
152.62468283274251
 31
0.0
  0
LINE
  5
A737
  8
0
 10
143.4449138047955
 20
150.124681491638
 30
0.0
 11
143.4449138047955
 21
143.12468220689379
 31
0.0
  0
LINE
  5
A738
  8
0
 10
139.69213715035829
 20
150.124681491638
 30
0.0
 11
139.69213715035829
 21
143.12468220689379
 31
0.0
  0
LINE
  5
A739
  8
0
 10
143.4449138047955
 20
143.12468220689379
 30
0.0
 11
128.43380718704671
 21
143.12468220689379
 31
0.0
  0
LINE
  5
A73A
  8
0
 10
132.18658384148389
 20
150.124681491638
 30
0.0
 11
132.18658384148389
 21
143.12468220689379
 31
0.0
  0
LINE
  5
A73C
  8
0
 10
128.43380718704671
 20
150.124681491638
 30
0.0
 11
128.43380718704671
 21
143.12468220689379
 31
0.0
  0
LINE
  5
A73E
  8
0
 10
140.94936046030739
 20
141.12468187906819
 30
0.0
 11
130.92936053153491
 21
141.12468187906819
 31
0.0
  0
LINE
  5
A73F
  8
0
 10
140.9393603841624
 20
127.13468198874079
 30
0.0
 11
130.93936060767979
 21
127.13468198874079
 31
0.0
  0
LINE
  5
A740
  8
0
 10
139.93936068591091
 20
126.13468182482799
 30
0.0
 11
131.9393603059313
 21
126.13468182482799
 31
0.0
  0
LINE
  5
A742
  8
0
 10
139.9383604454658
 20
126.1246822143443
 30
0.0
 11
131.9403605463765
 21
126.1246822143443
 31
0.0
  0
ARC
  5
A744
  8
0
 10
138.46659614344671
 20
159.49667821096051
 30
0.0
 40
0.4736427115574539
 50
274.78045229251558
 51
6.5675155892083232
  0
ARC
  5
A745
  8
0
 10
133.41212484839551
 20
159.49667821096051
 30
0.0
 40
0.473642711557461
 50
173.4324844107916
 51
265.21954770748602
  0
LINE
  5
A746
  8
0
 10
133.49540754434079
 20
171.79152121045669
 30
0.0
 11
132.94159028891841
 21
159.55085058906161
 31
0.0
  0
LINE
  5
A748
  8
0
 10
138.93713070292389
 20
159.55085058906161
 30
0.0
 11
138.38331344750139
 21
171.79152121045669
 31
0.0
  0
ARC
  5
A749
  8
0
 10
135.93936049592111
 20
174.05149118671341
 30
0.0
 40
2.2444560367598339
 50
221.94570306878489
 51
318.05429693121499
  0
ARC
  5
A74A
  8
0
 10
137.2050040669001
 20
171.36488793361801
 30
0.0
 40
1.253167566337132
 50
19.903922284650609
 51
71.205704745952488
  0
ARC
  5
A74B
  8
0
 10
134.6737169249422
 20
171.36488793361801
 30
0.0
 40
1.2531675663371269
 50
108.7942952540475
 51
160.0960777153494
  0
LINE
  5
A74C
  8
0
 10
143.9901002610884
 20
174.071719248081
 30
0.0
 11
141.42641042571881
 21
174.071719248081
 31
0.0
  0
ARC
  5
A74D
  8
0
 10
141.04413842812519
 20
169.47853426537819
 30
0.0
 40
4.609064999050374
 50
85.242470849211614
 51
138.1897847935565
  0
ARC
  5
A74E
  8
0
 10
130.868318468881
 20
169.56323944028981
 30
0.0
 40
4.527632135279732
 50
41.295857826059539
 51
95.271886531169102
  0
LINE
  5
A74F
  8
0
 10
130.45231056612349
 20
174.071719248081
 30
0.0
 11
127.8886207307539
 21
174.071719248081
 31
0.0
  0
ARC
  5
A751
  8
0
 10
141.94993801396589
 20
159.4658101171934
 30
0.0
 40
0.4534795211095901
 50
283.4037934230526
 51
10.808602978436401
  0
ARC
  5
A753
  8
0
 10
129.92878297787641
 20
159.4658101171934
 30
0.0
 40
0.453479521109591
 50
169.1913970215636
 51
256.59620657694899
  0
LINE
  5
A754
  8
0
 10
129.4833485896549
 20
159.55085058906161
 30
0.0
 11
129.9697108494899
 21
173.16719641187271
 31
0.0
  0
LINE
  5
A757
  8
0
 10
141.90901014235229
 20
173.16719641187271
 30
0.0
 11
142.39537240218741
 21
159.55085058906161
 31
0.0
  0
ARC
  5
A758
  8
0
 10
130.97550666345481
 20
173.2115681484849
 30
0.0
 40
1.0067740910448471
 50
121.3105050606827
 51
182.52602548193121
  0
ARC
  5
A759
  8
0
 10
140.90321432838749
 20
173.2115681484849
 30
0.0
 40
1.0067740910448499
 50
357.4739745180687
 51
58.689494939317242
  0
LINE
  5
A75A
  8
0
 10
145.41178559165809
 20
159.55085058906161
 30
0.0
 11
126.4669354001841
 21
159.5508505890615
 31
0.0
  0
LINE
  5
A76C
  8
3
 10
131.4393606896362
 20
141.12468187906819
 30
0.0
 11
131.4393606896362
 21
138.82468206086239
 31
0.0
  0
LINE
  5
A76D
  8
3
 10
131.4393606896362
 20
133.82468124129849
 30
0.0
 11
131.4393606896362
 21
126.63468190678439
 31
0.0
  0
LINE
  5
A76E
  8
3
 10
140.43936030220601
 20
126.63468190678439
 30
0.0
 11
140.43936030220601
 21
133.82468124129849
 31
0.0
  0
LINE
  5
A76F
  8
3
 10
140.43936030220601
 20
138.82468206086239
 30
0.0
 11
140.43936030220601
 21
141.12468187906819
 31
0.0
  0
LINE
  5
AD4A
  8
0
 10
348.85130150036588
 20
126.1246822143443
 30
0.0
 11
348.85130150036588
 21
125.6246821323879
 31
0.0
  0
LINE
  5
AD4B
  8
0
 10
353.85130138860723
 20
125.6246821323879
 30
0.0
 11
353.85130138860723
 21
126.1246822143443
 31
0.0
  0
LINE
  5
AD4C
  8
0
 10
348.85130150036588
 20
125.6246821323879
 30
0.0
 11
349.71210910265972
 21
122.4121040033646
 31
0.0
  0
LINE
  5
AD4D
  8
0
 10
352.99049378631338
 20
122.4121040033646
 30
0.0
 11
353.85130138860723
 21
125.6246821323879
 31
0.0
  0
ARC
  5
AD4E
  8
0
 10
351.35130144448658
 20
124.9246820161589
 30
0.0
 40
3.0000000000000031
 50
236.87978889674869
 51
303.1202111032527
  0
LINE
  5
AD84
  8
0
 10
348.85130150036588
 20
125.6246821323879
 30
0.0
 11
353.85130138860723
 21
125.6246821323879
 31
0.0
  0
LINE
  5
AD85
  8
0
 10
349.71210910265972
 20
122.4121040033646
 30
0.0
 11
352.99049378631338
 21
122.4121040033646
 31
0.0
  0
LINE
  5
ADCB
  8
0
 10
428.70552793550968
 20
54.651571815048818
 30
0.0
 11
418.89057357270008
 21
54.651571815048818
 31
0.0
  0
LINE
  5
ADD8
  8
0
 10
418.89057357270008
 20
71.651572738920819
 30
0.0
 11
428.70552793550968
 21
71.651572738920819
 31
0.0
  0
ARC
  5
ADF8
  8
0
 10
423.79805075410491
 20
63.151572276984822
 30
0.0
 40
9.0000000000000053
 50
130.81185742408459
 51
169.18816929997209
  0
ARC
  5
ADFA
  8
0
 10
423.79805075410491
 20
63.151572276984822
 30
0.0
 40
9.0000000000000124
 50
10.811830700024579
 51
49.188142575916622
  0
ARC
  5
ADFB
  8
0
 10
423.79805075410491
 20
63.151572276984822
 30
0.0
 40
9.0000000000000018
 50
310.81185742408428
 51
349.188169299972
  0
ARC
  5
ADFD
  8
0
 10
423.79805075410491
 20
63.151572276984822
 30
0.0
 40
9.0000000000000071
 50
190.81183070002791
 51
229.18814257591421
  0
ARC
  5
AE52
  8
5
 10
439.72502806133269
 20
239.5588238431624
 30
0.0
 40
1.656543925493041
 50
186.078998335797
 51
232.8699374730547
  0
ARC
  5
AE53
  8
5
 10
439.94002027828577
 20
239.9047055366421
 30
0.0
 40
2.062417791103853
 50
233.9083615954211
 51
280.35328283006498
  0
ARC
  5
AE54
  8
5
 10
440.11040563817238
 20
239.9597261940327
 30
0.0
 40
2.0934598970429641
 50
275.48947399475497
 51
321.19702715670599
  0
ARC
  5
AE55
  8
5
 10
440.41566187581691
 20
239.65761014512071
 30
0.0
 40
1.666837668005023
 50
322.71493859371532
 51
9.2484048504563923
  0
ARC
  5
AE56
  8
5
 10
440.44723400331782
 20
239.7305551270733
 30
0.0
 40
1.6253309393933091
 50
6.8885967138069102
 51
53.334928850924427
  0
ARC
  5
AE57
  8
5
 10
440.22266008753348
 20
239.35153917385449
 30
0.0
 40
2.0639727437216751
 50
54.617114875183518
 51
100.8329620862085
  0
ARC
  5
AE58
  8
5
 10
440.01955202205392
 20
239.28755456295659
 30
0.0
 40
2.099326240780147
 50
95.050407071810568
 51
140.44156356192991
  0
ARC
  5
AE59
  8
5
 10
439.68398782100218
 20
239.6277667992718
 30
0.0
 40
1.624671913623527
 50
142.15526388045581
 51
188.65080791502149
  0
LINE
  5
AE5A
  8
5
 10
427.42656719064001
 20
253.26611968952531
 30
0.0
 11
426.98966374745248
 21
251.62285316068051
 31
0.0
  0
LINE
  5
AE5B
  8
5
 10
428.98414948148309
 20
252.85212165939919
 30
0.0
 11
427.42656719064001
 21
253.26611968952531
 31
0.0
  0
LINE
  5
AE5C
  8
5
 10
429.12836990443651
 20
253.39422124701849
 30
0.0
 11
428.98414948148309
 21
252.85212165939919
 31
0.0
  0
LINE
  5
AE5D
  8
5
 10
427.57078761359338
 20
253.80821834582201
 30
0.0
 11
429.12836990443651
 21
253.39422124701849
 31
0.0
  0
LINE
  5
AE5E
  8
5
 10
427.8575322882611
 20
254.88817627805579
 30
0.0
 11
427.57078761359338
 21
253.80821834582201
 31
0.0
  0
LINE
  5
AE5F
  8
5
 10
429.84777608079497
 20
254.3596507169616
 30
0.0
 11
427.8575322882611
 21
254.88817627805579
 31
0.0
  0
LINE
  5
AE60
  8
5
 10
429.99114806888292
 20
254.90175123590339
 30
0.0
 11
429.84777608079497
 21
254.3596507169616
 31
0.0
  0
LINE
  5
AE61
  8
5
 10
427.29592032855038
 20
255.61691570359591
 30
0.0
 11
429.99114806888292
 21
254.90175123590339
 31
0.0
  0
LINE
  5
AE62
  8
5
 10
426.28467956682329
 20
251.8094920672786
 30
0.0
 11
427.29592032855038
 21
255.61691570359591
 31
0.0
  0
LINE
  5
AE63
  8
5
 10
426.98966374745248
 20
251.62285316068051
 30
0.0
 11
426.28467956682329
 21
251.8094920672786
 31
0.0
  0
ARC
  5
AE64
  8
5
 10
420.24649683100222
 20
253.16678081593969
 30
0.0
 40
1.655045382859504
 50
281.6237231490087
 51
328.481357376966
  0
ARC
  5
AE65
  8
5
 10
419.88020245699198
 20
253.34752779580251
 30
0.0
 40
2.062129901640724
 50
329.52080041056053
 51
15.97711506430846
  0
ARC
  5
AE66
  8
5
 10
419.81246468362963
 20
253.5131111188509
 30
0.0
 40
2.089255780764725
 50
11.09433494558334
 51
56.8501178084217
  0
ARC
  5
AE67
  8
5
 10
420.0800809154664
 20
253.8456583705939
 30
0.0
 40
1.6650272474451231
 50
58.30286573912602
 51
104.8729490200845
  0
ARC
  5
AE68
  8
5
 10
420.00385894386341
 20
253.86759201576959
 30
0.0
 40
1.625688448231966
 50
102.4742994449133
 51
148.96211453142001
  0
ARC
  5
AE69
  8
5
 10
420.39481423339868
 20
253.68228017116539
 30
0.0
 40
2.056662344522421
 50
150.15450205742499
 51
196.47499590377871
  0
ARC
  5
AE6A
  8
5
 10
420.43310799797769
 20
253.45172000311459
 30
0.0
 40
2.0412196490965071
 50
189.95009025978439
 51
236.73134180501739
  0
ARC
  5
AE6B
  8
5
 10
420.17913364041868
 20
253.12228939007699
 30
0.0
 40
1.6267662800014879
 50
237.84563872602519
 51
284.26430486454069
  0
LINE
  5
AE6C
  8
5
 10
423.81470720510009
 20
253.70934355336539
 30
0.0
 11
423.76210911469428
 21
251.98463472801561
 31
0.0
  0
LINE
  5
AE6D
  8
5
 10
425.43337098912929
 20
253.66013805645821
 30
0.0
 11
423.81470720510009
 21
253.70934355336539
 31
0.0
  0
LINE
  5
AE6E
  8
5
 10
425.44948985458939
 20
254.2022385754
 30
0.0
 11
425.43337098912929
 21
253.66013805645821
 31
0.0
  0
LINE
  5
AE6F
  8
5
 10
423.8308259759728
 20
254.25144220966209
 30
0.0
 11
425.44948985458939
 21
254.2022385754
 31
0.0
  0
LINE
  5
AE70
  8
5
 10
423.86560858584602
 20
255.3950281001938
 30
0.0
 11
423.8308259759728
 21
254.25144220966209
 31
0.0
  0
LINE
  5
AE71
  8
5
 10
425.9339013428766
 20
255.33224950808409
 30
0.0
 11
423.86560858584602
 21
255.3950281001938
 31
0.0
  0
LINE
  5
AE72
  8
5
 10
425.95001997550611
 20
255.87434816438079
 30
0.0
 11
425.9339013428766
 21
255.33224950808409
 31
0.0
  0
LINE
  5
AE73
  8
5
 10
423.17674327067692
 20
255.95833669680479
 30
0.0
 11
425.95001997550611
 21
255.87434816438079
 31
0.0
  0
LINE
  5
AE74
  8
5
 10
423.05712501410051
 20
252.0058437370073
 30
0.0
 11
423.17674327067692
 21
255.95833669680479
 31
0.0
  0
LINE
  5
AE75
  8
5
 10
423.76210911469428
 20
251.98463472801561
 30
0.0
 11
423.05712501410051
 21
252.0058437370073
 31
0.0
  0
LINE
  5
AE76
  8
5
 10
441.21259835673158
 20
235.7800831672113
 30
0.0
 11
438.20602272761653
 21
236.22122843548021
 31
0.0
  0
LINE
  5
AE77
  8
5
 10
437.96508957756339
 20
234.5805073276471
 30
0.0
 11
441.21259835673158
 21
235.7800831672113
 31
0.0
  0
LINE
  5
AE78
  8
5
 10
437.86243920338927
 20
233.88231016028041
 30
0.0
 11
437.96508957756339
 21
234.5805073276471
 31
0.0
  0
LINE
  5
AE79
  8
5
 10
441.7793006928045
 20
233.30712440687529
 30
0.0
 11
437.86243920338927
 21
233.88231016028041
 31
0.0
  0
LINE
  5
AE7A
  8
5
 10
441.88279857052152
 20
234.0121085875046
 30
0.0
 11
441.7793006928045
 21
233.30712440687529
 31
0.0
  0
LINE
  5
AE7B
  8
5
 10
438.8762248040515
 20
234.45410217422361
 30
0.0
 11
441.88279857052152
 21
234.0121085875046
 31
0.0
  0
LINE
  5
AE7C
  8
5
 10
442.12033984375779
 20
235.63246912121139
 30
0.0
 11
438.8762248040515
 21
234.45410217422361
 31
0.0
  0
LINE
  5
AE7D
  8
5
 10
442.22638395739381
 20
236.3510268627044
 30
0.0
 11
442.12033984375779
 21
235.63246912121139
 31
0.0
  0
LINE
  5
AE7E
  8
5
 10
438.30952246797858
 20
236.9262124996942
 30
0.0
 11
442.22638395739381
 21
236.3510268627044
 31
0.0
  0
LINE
  5
AE7F
  8
5
 10
438.20602272761653
 20
236.22122843548021
 30
0.0
 11
438.30952246797858
 21
236.9262124996942
 31
0.0
  0
LINE
  5
AE80
  8
5
 10
437.8934401379305
 20
242.6280931689154
 30
0.0
 11
438.75472352964459
 21
247.5126761131298
 31
0.0
  0
LINE
  5
AE81
  8
5
 10
438.75472352964459
 20
247.5126761131298
 30
0.0
 11
437.77151324910699
 21
246.82422477084509
 31
0.0
  0
ARC
  5
AE82
  8
5
 10
423.79805085373698
 20
237.49779100793711
 30
0.0
 40
16.800000000000001
 50
33.720692298743529
 51
51.279307701254112
  0
LINE
  5
AE83
  8
5
 10
434.30686195505439
 20
250.60522771704311
 30
0.0
 11
435.05749118638818
 21
251.541473262788
 31
0.0
  0
LINE
  5
AE84
  8
5
 10
435.05749118638818
 20
251.541473262788
 30
0.0
 11
430.13732473490421
 21
251.09240814375991
 31
0.0
  0
ARC
  5
AE85
  8
5
 10
423.79805085373698
 20
237.49779100793711
 30
0.0
 40
15.000000000000011
 50
20.000000000000039
 51
65.000000000000597
  0
ARC
  5
AE86
  8
5
 10
439.93748626584483
 20
234.06724810944419
 30
0.0
 40
3.5000000000000071
 50
168.0000000000004
 51
348.0000000000004
  0
ARC
  5
AE87
  8
5
 10
423.79805085373698
 20
237.49779100793711
 30
0.0
 40
13.000000000000011
 50
4.765293877691418
 51
101.9999999999998
  0
POLYLINE
  5
AE88
  8
5
 66
     1
 10
0.0
 20
0.0
 30
0.0
 70
   128
  0
VERTEX
  5
D3F5
  8
5
 10
436.75204540894651
 20
236.41502120744789
 30
0.0
  0
VERTEX
  5
D3F6
  8
5
 10
436.67845626486132
 20
235.738484131017
 30
0.0
  0
VERTEX
  5
D3F7
  8
5
 10
436.51396979702298
 20
234.79493899534759
 30
0.0
  0
SEQEND
  5
D3F8
  8
5
  0
ARC
  5
AE89
  8
5
 10
420.36750795524398
 20
253.6372264200449
 30
0.0
 40
3.500000000000032
 50
101.9999999999998
 51
282.00000000000142
  0
ARC
  5
AE8A
  8
5
 10
423.79805085373698
 20
237.49779100793711
 30
0.0
 40
20.000000000000028
 50
348.0000000000004
 51
101.9999999999998
  0
ARC
  5
AE8B
  8
5
 10
419.70175875141382
 20
253.25720069091571
 30
0.0
 40
1.554403904735536
 50
332.83728474217793
 51
18.53823787845538
  0
POLYLINE
  5
AE8C
  8
5
 66
     1
 10
0.0
 20
0.0
 30
0.0
 70
   128
  0
VERTEX
  5
D3F9
  8
5
 10
420.45525264119391
 20
252.0691131361138
 30
0.0
  0
VERTEX
  5
D3FA
  8
5
 10
420.85637723220168
 20
252.27431050765631
 30
0.0
  0
VERTEX
  5
D3FB
  8
5
 10
421.08473310371522
 20
252.54758569675801
 30
0.0
  0
SEQEND
  5
D3FC
  8
5
  0
POLYLINE
  5
AE8D
  8
5
 66
     1
 10
0.0
 20
0.0
 30
0.0
 70
   128
  0
VERTEX
  5
D3FD
  8
5
 10
419.71463768867437
 20
252.2226658769261
 30
0.0
  0
VERTEX
  5
D3FE
  8
5
 10
420.11591850904409
 20
252.06111214387531
 30
0.0
  0
VERTEX
  5
D3FF
  8
5
 10
420.45525264119391
 20
252.0691131361138
 30
0.0
  0
SEQEND
  5
D400
  8
5
  0
ARC
  5
AE8E
  8
5
 10
420.69997224597012
 20
253.49182103628669
 30
0.0
 40
1.606747960425867
 50
188.22700833869331
 51
232.17529191092899
  0
ARC
  5
AE8F
  8
5
 10
420.59942727074821
 20
253.7723047375016
 30
0.0
 40
1.574681021777476
 50
154.0453991324874
 51
198.91290221785451
  0
ARC
  5
AE90
  8
5
 10
419.60288326334552
 20
253.51084494718171
 30
0.0
 40
1.5909163528313339
 50
8.6969280763560235
 51
53.299680062123571
  0
POLYLINE
  5
AE91
  8
5
 66
     1
 10
0.0
 20
0.0
 30
0.0
 70
   128
  0
VERTEX
  5
D401
  8
5
 10
419.77656784591858
 20
254.93146787661431
 30
0.0
  0
VERTEX
  5
D402
  8
5
 10
419.39793073696683
 20
254.7265694596183
 30
0.0
  0
VERTEX
  5
D403
  8
5
 10
419.18356682298361
 20
254.4614778019797
 30
0.0
  0
SEQEND
  5
D404
  8
5
  0
POLYLINE
  5
AE92
  8
5
 66
     1
 10
0.0
 20
0.0
 30
0.0
 70
   128
  0
VERTEX
  5
D405
  8
5
 10
420.55366200519393
 20
254.7863976218116
 30
0.0
  0
VERTEX
  5
D406
  8
5
 10
420.13156728943471
 20
254.94753132838119
 30
0.0
  0
VERTEX
  5
D407
  8
5
 10
419.77656784591858
 20
254.93146787661431
 30
0.0
  0
SEQEND
  5
D408
  8
5
  0
ARC
  5
AE93
  8
5
 10
439.86798557340762
 20
240.0976132090625
 30
0.0
 40
1.5635413150114359
 50
237.3551747052465
 51
282.84776159036608
  0
ARC
  5
AE94
  8
5
 10
439.59648046589291
 20
239.59889416075251
 30
0.0
 40
0.9979650912770555
 50
188.26083716800289
 51
235.03459696659749
  0
POLYLINE
  5
AE95
  8
5
 66
     1
 10
0.0
 20
0.0
 30
0.0
 70
   128
  0
VERTEX
  5
D409
  8
5
 10
438.83453228635369
 20
240.18000304962811
 30
0.0
  0
VERTEX
  5
D40A
  8
5
 10
438.63395148081361
 20
239.7950983725797
 30
0.0
  0
VERTEX
  5
D40B
  8
5
 10
438.60887003255669
 20
239.455506729738
 30
0.0
  0
SEQEND
  5
D40C
  8
5
  0
POLYLINE
  5
AE96
  8
5
 66
     1
 10
0.0
 20
0.0
 30
0.0
 70
   128
  0
VERTEX
  5
D40D
  8
5
 10
441.52891275597398
 20
239.8525374595385
 30
0.0
  0
VERTEX
  5
D40E
  8
5
 10
441.36190612924878
 20
240.2506399087917
 30
0.0
  0
VERTEX
  5
D40F
  8
5
 10
441.11830753398721
 20
240.4905015722226
 30
0.0
  0
SEQEND
  5
D410
  8
5
  0
POLYLINE
  5
AE97
  8
5
 66
     1
 10
0.0
 20
0.0
 30
0.0
 70
   128
  0
VERTEX
  5
D411
  8
5
 10
441.3083401800472
 20
239.09156193289269
 30
0.0
  0
VERTEX
  5
D412
  8
5
 10
441.50990259958093
 20
239.49697130623571
 30
0.0
  0
VERTEX
  5
D413
  8
5
 10
441.52891275597398
 20
239.8525374595385
 30
0.0
  0
SEQEND
  5
D414
  8
5
  0
ARC
  5
AE98
  8
5
 10
440.129014290003
 20
240.16673267715339
 30
0.0
 40
1.5958701965518221
 50
273.11221044669901
 51
317.64511818469327
  0
ARC
  5
AE99
  8
5
 10
440.00392389570919
 20
239.07258723552499
 30
0.0
 40
1.6105423066025539
 50
92.669557226426363
 51
136.55923369790881
  0
ARC
  5
AE9A
  8
5
 10
440.29198848567842
 20
239.142684048533
 30
0.0
 40
1.580953904060127
 50
58.48839962079569
 51
103.2768640904887
  0
LINE
  5
AE9B
  8
0
 10
418.52787623524063
 20
245.36958063298019
 30
0.0
 11
418.89057367233221
 21
245.99779146987311
 31
0.0
  0
LINE
  5
AE9C
  8
0
 10
418.89057367233221
 20
245.99779146987311
 30
0.0
 11
419.61596950002593
 21
245.99779146987311
 31
0.0
  0
LINE
  5
AE9D
  8
0
 10
428.70552803514192
 20
245.99779146987311
 30
0.0
 11
429.06822599730168
 21
245.3695802147422
 31
0.0
  0
LINE
  5
AE9E
  8
0
 10
427.98013210781568
 20
245.99779146987311
 30
0.0
 11
428.70552803514192
 21
245.99779146987311
 31
0.0
  0
LINE
  5
AE9F
  8
0
 10
428.70552803514192
 20
228.99779054600111
 30
0.0
 11
427.98013210781568
 21
228.99779054600111
 31
0.0
  0
LINE
  5
AEA0
  8
0
 10
429.0682254327233
 20
229.62600142314599
 30
0.0
 11
428.70552803514192
 21
228.99779054600111
 31
0.0
  0
LINE
  5
AEA1
  8
0
 10
419.61596950002593
 20
228.99779054600111
 30
0.0
 11
418.89057367233221
 21
228.99779054600111
 31
0.0
  0
LINE
  5
AEA2
  8
0
 10
418.89057367233221
 20
228.99779054600111
 30
0.0
 11
418.52787636591449
 21
229.62600129540769
 31
0.0
  0
ARC
  5
AEE2
  8
0
 10
155.36377808345659
 20
258.35305411601558
 30
0.0
 40
19.026890062640469
 50
218.7827620064181
 51
227.0344489747462
  0
ARC
  5
AEE3
  8
0
 10
116.51494290838561
 20
258.35305411601558
 30
0.0
 40
19.026890062640469
 50
312.96555102525377
 51
321.21723799358301
  0
ARC
  5
AEE4
  8
0
 10
135.93936049592111
 20
237.49779095812079
 30
0.0
 40
9.4731099373595242
 50
312.96555102525377
 51
47.034448974746162
  0
ARC
  5
AEE6
  8
0
 10
135.93936049592111
 20
237.49779095812079
 30
0.0
 40
9.4731099373595171
 50
132.9655510252538
 51
227.0344489747462
  0
ARC
  5
AEE7
  8
0
 10
116.51494290838561
 20
216.64252780022611
 30
0.0
 40
19.026890062640479
 50
30.310003682891288
 51
47.034448974746162
  0
ARC
  5
AEE8
  8
0
 10
155.36377808345659
 20
216.64252780022611
 30
0.0
 40
19.026890062640479
 50
132.9655510252538
 51
149.68999631710869
  0
ARC
  5
AEE9
  8
0
 10
135.93936049592111
 20
227.99779095812079
 30
0.0
 40
3.4731099373594998
 50
210.31000368289131
 51
329.68999631710869
  0
ARC
  5
AEEE
  8
5
 10
151.86633770351671
 20
239.55882379334611
 30
0.0
 40
1.6565439254930601
 50
186.07899833580021
 51
232.8699374730547
  0
ARC
  5
AEEF
  8
5
 10
152.0813299204699
 20
239.90470548682589
 30
0.0
 40
2.0624177911038291
 50
233.9083615954211
 51
280.35328283006498
  0
ARC
  5
AEF0
  8
5
 10
152.25171528035639
 20
239.95972614421649
 30
0.0
 40
2.093459897042993
 50
275.48947399475497
 51
321.19702715670599
  0
ARC
  5
AEF1
  8
5
 10
152.55697151800101
 20
239.65761009530439
 30
0.0
 40
1.666837668005029
 50
322.71493859371179
 51
9.2484048504530882
  0
ARC
  5
AEF2
  8
5
 10
152.58854364550189
 20
239.73055507725701
 30
0.0
 40
1.6253309393932931
 50
6.888596713803631
 51
53.334928850924427
  0
ARC
  5
AEF3
  8
5
 10
152.36396972971761
 20
239.35153912403831
 30
0.0
 40
2.0639727437216289
 50
54.617114875183518
 51
100.8329620862085
  0
ARC
  5
AEF4
  8
5
 10
152.16086166423801
 20
239.28755451314041
 30
0.0
 40
2.0993262407801461
 50
95.050407071810568
 51
140.44156356192991
  0
ARC
  5
AEF5
  8
5
 10
151.8252974631863
 20
239.62776674945559
 30
0.0
 40
1.624671913623527
 50
142.15526388045691
 51
188.65080791502149
  0
LINE
  5
AEF6
  8
5
 10
139.56787683282411
 20
253.26611963970899
 30
0.0
 11
139.13097338963661
 21
251.6228531108641
 31
0.0
  0
LINE
  5
AEF7
  8
5
 10
141.12545912366721
 20
252.85212160958289
 30
0.0
 11
139.56787683282411
 21
253.26611963970899
 31
0.0
  0
LINE
  5
AEF8
  8
5
 10
141.26967954662061
 20
253.3942211972022
 30
0.0
 11
141.12545912366721
 21
252.85212160958289
 31
0.0
  0
LINE
  5
AEF9
  8
5
 10
139.71209725577751
 20
253.80821829600569
 30
0.0
 11
141.26967954662061
 21
253.3942211972022
 31
0.0
  0
LINE
  5
AEFA
  8
5
 10
139.9988419304452
 20
254.8881762282395
 30
0.0
 11
139.71209725577751
 21
253.80821829600569
 31
0.0
  0
LINE
  5
AEFB
  8
5
 10
141.9890857229791
 20
254.35965066714519
 30
0.0
 11
139.9988419304452
 21
254.8881762282395
 31
0.0
  0
LINE
  5
AEFC
  8
5
 10
142.13245771106699
 20
254.9017511860871
 30
0.0
 11
141.9890857229791
 21
254.35965066714519
 31
0.0
  0
LINE
  5
AEFD
  8
5
 10
139.43722997073451
 20
255.6169156537795
 30
0.0
 11
142.13245771106699
 21
254.9017511860871
 31
0.0
  0
LINE
  5
AEFE
  8
5
 10
138.42598920900741
 20
251.80949201746219
 30
0.0
 11
139.43722997073451
 21
255.6169156537795
 31
0.0
  0
LINE
  5
AEFF
  8
5
 10
139.13097338963661
 20
251.6228531108641
 30
0.0
 11
138.42598920900741
 21
251.80949201746219
 31
0.0
  0
ARC
  5
AF00
  8
5
 10
132.38780647318629
 20
253.1667807661234
 30
0.0
 40
1.6550453828595311
 50
281.6237231490087
 51
328.48135737696219
  0
ARC
  5
AF01
  8
5
 10
132.02151209917611
 20
253.3475277459863
 30
0.0
 40
2.062129901640759
 50
329.52080041055677
 51
15.97711506430846
  0
ARC
  5
AF02
  8
5
 10
131.95377432581381
 20
253.51311106903469
 30
0.0
 40
2.0892557807645309
 50
11.09433494558002
 51
56.850117808423107
  0
ARC
  5
AF03
  8
5
 10
132.22139055765041
 20
253.84565832077769
 30
0.0
 40
1.6650272474450949
 50
58.302865739124812
 51
104.8729490200845
  0
ARC
  5
AF04
  8
5
 10
132.1451685860475
 20
253.86759196595321
 30
0.0
 40
1.6256884482320111
 50
102.47429944491179
 51
148.9621145314162
  0
ARC
  5
AF05
  8
5
 10
132.5361238755828
 20
253.68228012134909
 30
0.0
 40
2.0566623445224148
 50
150.15450205742499
 51
196.47499590377871
  0
ARC
  5
AF06
  8
5
 10
132.5744176401617
 20
253.45171995329829
 30
0.0
 40
2.041219649096516
 50
189.95009025978439
 51
236.73134180501739
  0
ARC
  5
AF07
  8
5
 10
132.3204432826027
 20
253.12228934026081
 30
0.0
 40
1.62676628000146
 50
237.84563872602519
 51
284.26430486454069
  0
LINE
  5
AF08
  8
5
 10
135.95601684728419
 20
253.70934350354909
 30
0.0
 11
135.90341875687841
 21
251.98463467819931
 31
0.0
  0
LINE
  5
AF09
  8
5
 10
137.57468063131341
 20
253.6601380066418
 30
0.0
 11
135.95601684728419
 21
253.70934350354909
 31
0.0
  0
LINE
  5
AF0A
  8
5
 10
137.59079949677351
 20
254.20223852558371
 30
0.0
 11
137.57468063131341
 21
253.6601380066418
 31
0.0
  0
LINE
  5
AF0B
  8
5
 10
135.9721356181569
 20
254.25144215984579
 30
0.0
 11
137.59079949677351
 21
254.20223852558371
 31
0.0
  0
LINE
  5
AF0C
  8
5
 10
136.00691822803009
 20
255.39502805037731
 30
0.0
 11
135.9721356181569
 21
254.25144215984579
 31
0.0
  0
LINE
  5
AF0D
  8
5
 10
138.07521098506069
 20
255.33224945826771
 30
0.0
 11
136.00691822803009
 21
255.39502805037731
 31
0.0
  0
LINE
  5
AF0E
  8
5
 10
138.09132961769021
 20
255.87434811456441
 30
0.0
 11
138.07521098506069
 21
255.33224945826771
 31
0.0
  0
LINE
  5
AF0F
  8
5
 10
135.31805291286099
 20
255.95833664698841
 30
0.0
 11
138.09132961769021
 21
255.87434811456441
 31
0.0
  0
LINE
  5
AF10
  8
5
 10
135.19843465628469
 20
252.005843687191
 30
0.0
 11
135.31805291286099
 21
255.95833664698841
 31
0.0
  0
LINE
  5
AF11
  8
5
 10
135.90341875687841
 20
251.98463467819931
 30
0.0
 11
135.19843465628469
 21
252.005843687191
 31
0.0
  0
LINE
  5
AF12
  8
5
 10
153.3539079989157
 20
235.78008311739501
 30
0.0
 11
150.3473323698006
 21
236.22122838566389
 31
0.0
  0
LINE
  5
AF13
  8
5
 10
150.10639921974749
 20
234.5805072778308
 30
0.0
 11
153.3539079989157
 21
235.78008311739501
 31
0.0
  0
LINE
  5
AF14
  8
5
 10
150.0037488455734
 20
233.88231011046409
 30
0.0
 11
150.10639921974749
 21
234.5805072778308
 31
0.0
  0
LINE
  5
AF15
  8
5
 10
153.9206103349886
 20
233.307124357059
 30
0.0
 11
150.0037488455734
 21
233.88231011046409
 31
0.0
  0
LINE
  5
AF16
  8
5
 10
154.02410821270561
 20
234.01210853768819
 30
0.0
 11
153.9206103349886
 21
233.307124357059
 31
0.0
  0
LINE
  5
AF17
  8
5
 10
151.01753444623569
 20
234.45410212440731
 30
0.0
 11
154.02410821270561
 21
234.01210853768819
 31
0.0
  0
LINE
  5
AF18
  8
5
 10
154.26164948594189
 20
235.63246907139509
 30
0.0
 11
151.01753444623569
 21
234.45410212440731
 31
0.0
  0
LINE
  5
AF19
  8
5
 10
154.3676935995779
 20
236.35102681288811
 30
0.0
 11
154.26164948594189
 21
235.63246907139509
 31
0.0
  0
LINE
  5
AF1A
  8
5
 10
150.45083211016271
 20
236.9262124498778
 30
0.0
 11
154.3676935995779
 21
236.35102681288811
 31
0.0
  0
LINE
  5
AF1B
  8
5
 10
150.3473323698006
 20
236.22122838566389
 30
0.0
 11
150.45083211016271
 21
236.9262124498778
 31
0.0
  0
LINE
  5
AF1C
  8
5
 10
150.03474978011471
 20
242.62809311909911
 30
0.0
 11
150.8960331718288
 21
247.51267606331351
 31
0.0
  0
LINE
  5
AF1D
  8
5
 10
150.8960331718288
 20
247.51267606331351
 30
0.0
 11
149.91282289129111
 21
246.8242247210288
 31
0.0
  0
ARC
  5
AF1E
  8
5
 10
135.93936049592111
 20
237.49779095812079
 30
0.0
 40
16.800000000000011
 50
33.720692298743529
 51
51.279307701254112
  0
LINE
  5
AF1F
  8
5
 10
146.44817159723851
 20
250.60522766722681
 30
0.0
 11
147.1988008285723
 21
251.54147321297171
 31
0.0
  0
LINE
  5
AF20
  8
5
 10
147.1988008285723
 20
251.54147321297171
 30
0.0
 11
142.27863437708831
 21
251.09240809394359
 31
0.0
  0
ARC
  5
AF21
  8
5
 10
135.93936049592111
 20
237.49779095812079
 30
0.0
 40
15.000000000000011
 50
20.000000000000039
 51
64.999999999999204
  0
ARC
  5
AF22
  8
5
 10
152.07879590802889
 20
234.06724805962779
 30
0.0
 40
3.5000000000000071
 50
168.0000000000004
 51
348.0000000000004
  0
POLYLINE
  5
AF23
  8
5
 66
     1
 10
0.0
 20
0.0
 30
0.0
 70
   128
  0
VERTEX
  5
D415
  8
5
 10
133.23650848333159
 20
250.2137099014067
 30
0.0
  0
VERTEX
  5
D416
  8
5
 10
134.180053619001
 20
250.37819636924499
 30
0.0
  0
VERTEX
  5
D417
  8
5
 10
134.8620715349592
 20
250.4538698710891
 30
0.0
  0
SEQEND
  5
D418
  8
5
  0
ARC
  5
AF24
  8
5
 10
135.93936049592111
 20
237.49779095812079
 30
0.0
 40
12.999999999999989
 50
348.0000000000004
 51
85.234741845139197
  0
ARC
  5
AF25
  8
5
 10
132.50881759742811
 20
253.63722637022869
 30
0.0
 40
3.5000000000000351
 50
101.9999999999998
 51
282.00000000000142
  0
ARC
  5
AF26
  8
5
 10
135.93936049592111
 20
237.49779095812079
 30
0.0
 40
20.0
 50
348.0000000000004
 51
101.9999999999998
  0
ARC
  5
AF27
  8
5
 10
131.84306839359789
 20
253.2572006410995
 30
0.0
 40
1.554403904735536
 50
332.83728474217793
 51
18.53823787845538
  0
POLYLINE
  5
AF28
  8
5
 66
     1
 10
0.0
 20
0.0
 30
0.0
 70
   128
  0
VERTEX
  5
D419
  8
5
 10
132.59656228337801
 20
252.06911308629751
 30
0.0
  0
VERTEX
  5
D41A
  8
5
 10
132.99768687438581
 20
252.2743104578399
 30
0.0
  0
VERTEX
  5
D41B
  8
5
 10
133.22604274589929
 20
252.5475856469416
 30
0.0
  0
SEQEND
  5
D41C
  8
5
  0
POLYLINE
  5
AF29
  8
5
 66
     1
 10
0.0
 20
0.0
 30
0.0
 70
   128
  0
VERTEX
  5
D41D
  8
5
 10
131.8559473308585
 20
252.22266582710981
 30
0.0
  0
VERTEX
  5
D41E
  8
5
 10
132.25722815122819
 20
252.06111209405901
 30
0.0
  0
VERTEX
  5
D41F
  8
5
 10
132.59656228337801
 20
252.06911308629751
 30
0.0
  0
SEQEND
  5
D420
  8
5
  0
ARC
  5
AF2A
  8
5
 10
132.84128188815421
 20
253.4918209864704
 30
0.0
 40
1.606747960425847
 50
188.22700833869331
 51
232.175291910928
  0
ARC
  5
AF2B
  8
5
 10
132.74073691293231
 20
253.77230468768531
 30
0.0
 40
1.574681021777486
 50
154.04539913249101
 51
198.9129022178553
  0
ARC
  5
AF2C
  8
5
 10
131.7441929055295
 20
253.51084489736539
 30
0.0
 40
1.5909163528313419
 50
8.6969280763560235
 51
53.299680062123571
  0
POLYLINE
  5
AF2D
  8
5
 66
     1
 10
0.0
 20
0.0
 30
0.0
 70
   128
  0
VERTEX
  5
D421
  8
5
 10
132.694971647378
 20
254.7863975719952
 30
0.0
  0
VERTEX
  5
D422
  8
5
 10
132.27287693161881
 20
254.9475312785649
 30
0.0
  0
VERTEX
  5
D423
  8
5
 10
131.9178774881027
 20
254.9314678267979
 30
0.0
  0
SEQEND
  5
D424
  8
5
  0
POLYLINE
  5
AF2E
  8
5
 66
     1
 10
0.0
 20
0.0
 30
0.0
 70
   128
  0
VERTEX
  5
D425
  8
5
 10
131.9178774881027
 20
254.9314678267979
 30
0.0
  0
VERTEX
  5
D426
  8
5
 10
131.5392403791509
 20
254.7265694098019
 30
0.0
  0
VERTEX
  5
D427
  8
5
 10
131.32487646516779
 20
254.4614777521634
 30
0.0
  0
SEQEND
  5
D428
  8
5
  0
ARC
  5
AF2F
  8
5
 10
152.00929521559161
 20
240.09761315924621
 30
0.0
 40
1.5635413150114641
 50
237.3551747052465
 51
282.84776159036608
  0
ARC
  5
AF30
  8
5
 10
151.73779010807709
 20
239.5988941109363
 30
0.0
 40
0.9979650912770555
 50
188.26083716800289
 51
235.0345969665963
  0
POLYLINE
  5
AF31
  8
5
 66
     1
 10
0.0
 20
0.0
 30
0.0
 70
   128
  0
VERTEX
  5
D429
  8
5
 10
153.44964982223129
 20
239.09156188307639
 30
0.0
  0
VERTEX
  5
D42A
  8
5
 10
153.65121224176499
 20
239.49697125641941
 30
0.0
  0
VERTEX
  5
D42B
  8
5
 10
153.6702223981581
 20
239.8525374097222
 30
0.0
  0
SEQEND
  5
D42C
  8
5
  0
ARC
  5
AF32
  8
5
 10
152.27032393218721
 20
240.16673262733701
 30
0.0
 40
1.5958701965518021
 50
273.11221044669901
 51
317.64511818469327
  0
ARC
  5
AF33
  8
5
 10
152.4332981278624
 20
239.14268399871679
 30
0.0
 40
1.5809539040601031
 50
58.488399620792599
 51
103.276864090487
  0
POLYLINE
  5
AF34
  8
5
 66
     1
 10
0.0
 20
0.0
 30
0.0
 70
   128
  0
VERTEX
  5
D42D
  8
5
 10
153.6702223981581
 20
239.8525374097222
 30
0.0
  0
VERTEX
  5
D42E
  8
5
 10
153.50321577143291
 20
240.2506398589754
 30
0.0
  0
VERTEX
  5
D42F
  8
5
 10
153.2596171761713
 20
240.4905015224063
 30
0.0
  0
SEQEND
  5
D430
  8
5
  0
ARC
  5
AF35
  8
5
 10
152.14523353789329
 20
239.07258718570861
 30
0.0
 40
1.610542306602583
 50
92.669557226426363
 51
136.55923369790881
  0
POLYLINE
  5
AF36
  8
5
 66
     1
 10
0.0
 20
0.0
 30
0.0
 70
   128
  0
VERTEX
  5
D431
  8
5
 10
150.9758419285379
 20
240.18000299981171
 30
0.0
  0
VERTEX
  5
D432
  8
5
 10
150.77526112299779
 20
239.79509832276341
 30
0.0
  0
VERTEX
  5
D433
  8
5
 10
150.75017967474079
 20
239.45550667992171
 30
0.0
  0
SEQEND
  5
D434
  8
5
  0
LINE
  5
AF37
  8
0
 10
145.75431485873079
 20
237.49779095812079
 30
0.0
 11
145.39161751027009
 21
236.8695798311974
 31
0.0
  0
LINE
  5
AF38
  8
0
 10
145.3916175637726
 20
238.12600128002879
 30
0.0
 11
145.75431485873079
 21
237.49779095812079
 31
0.0
  0
LINE
  5
AF39
  8
0
 10
126.4871034856172
 20
236.86957977033441
 30
0.0
 11
126.12440613311151
 21
237.49779095812079
 31
0.0
  0
LINE
  5
AF3A
  8
0
 10
126.12440613311151
 20
237.49779095812079
 30
0.0
 11
126.4871033918912
 21
238.1260007356762
 31
0.0
  0
LINE
  5
AF3B
  8
0
 10
136.31463817882721
 20
236.8477909563513
 30
0.0
 11
136.6899158617332
 21
237.49779095812079
 31
0.0
  0
LINE
  5
AF3C
  8
0
 10
136.6899158617332
 20
237.49779095812079
 30
0.0
 11
136.31463817882721
 21
238.1477909598903
 31
0.0
  0
LINE
  5
AF3D
  8
0
 10
136.31463817882721
 20
238.1477909598903
 30
0.0
 11
135.56408281301509
 21
238.1477909598903
 31
0.0
  0
LINE
  5
AF3E
  8
0
 10
135.56408281301509
 20
238.1477909598903
 30
0.0
 11
135.1888051301091
 21
237.49779095812079
 31
0.0
  0
LINE
  5
AF3F
  8
0
 10
135.1888051301091
 20
237.49779095812079
 30
0.0
 11
135.56408281301509
 21
236.8477909563513
 31
0.0
  0
LINE
  5
AF40
  8
0
 10
135.56408281301509
 20
236.8477909563513
 30
0.0
 11
136.31463817882721
 21
236.8477909563513
 31
0.0
  0
CIRCLE
  5
AF41
  8
0
 10
135.93936049592111
 20
237.49779095812079
 30
0.0
 40
2.0000000000000031
  0
ARC
  5
AF42
  8
0
 10
153.4018087115156
 20
256.78759980137511
 30
0.0
 40
16.516932743867109
 50
209.05656758172699
 51
218.8126097756969
  0
ARC
  5
AF43
  8
0
 10
118.47691474642281
 20
256.78759814206529
 30
0.0
 40
16.51692978227042
 50
321.18738934752241
 51
330.9434332950587
  0
POLYLINE
  5
AF44
  8
0
 66
     1
 10
0.0
 20
0.0
 30
0.0
 70
   128
  0
VERTEX
  5
D435
  8
0
 10
138.4493821694366
 20
249.4774388702059
 30
0.0
  0
VERTEX
  5
D436
  8
0
 10
138.70476246092829
 20
249.16621880544659
 30
0.0
  0
VERTEX
  5
D437
  8
0
 10
138.9636866676471
 20
248.7657733814263
 30
0.0
  0
SEQEND
  5
D438
  8
0
  0
POLYLINE
  5
AF45
  8
0
 66
     1
 10
0.0
 20
0.0
 30
0.0
 70
   128
  0
VERTEX
  5
D439
  8
0
 10
132.9150343241952
 20
248.7657733814263
 30
0.0
  0
VERTEX
  5
D43A
  8
0
 10
133.17395853091401
 20
249.16621880544659
 30
0.0
  0
VERTEX
  5
D43B
  8
0
 10
133.4293388224057
 20
249.4774388702059
 30
0.0
  0
SEQEND
  5
D43C
  8
0
  0
ARC
  5
AF46
  8
0
 10
136.17585737339471
 20
246.98677981812349
 30
0.0
 40
3.7076605379467069
 50
108.6615729551156
 51
137.79693074955841
  0
ARC
  5
AF47
  8
0
 10
135.93936049592111
 20
247.5639630817341
 30
0.0
 40
3.085400203187695
 50
72.069682697193656
 51
107.9303173028063
  0
ARC
  5
AF48
  8
0
 10
135.7027197003666
 20
246.98656013311509
 30
0.0
 40
3.707914724193182
 50
42.204089987252388
 51
71.337406308077774
  0
ARC
  5
AF51
  8
0
 10
135.93936049592111
 20
247.66525533795311
 30
0.0
 40
1.86621711843672
 50
26.552482988280978
 51
153.44751701171899
  0
ARC
  5
AF52
  8
0
 10
154.34858875440781
 20
257.02348929876149
 30
0.0
 40
18.7851322137506
 50
206.98538712860139
 51
226.53637487043181
  0
ARC
  5
AF53
  8
0
 10
135.93936049592111
 20
237.49779095812079
 30
0.0
 40
8.050739316599655
 50
312.96555102525377
 51
47.034448974746162
  0
ARC
  5
AF54
  8
0
 10
154.31804280520441
 20
217.9949113965553
 30
0.0
 40
18.747558832364511
 50
133.44384040283461
 51
153.03439759813349
  0
ARC
  5
AF55
  8
0
 10
135.93936049592111
 20
227.33032657828861
 30
0.0
 40
1.86621711843672
 50
206.55248298828101
 51
333.4475170117226
  0
ARC
  5
AF56
  8
0
 10
117.4718710556041
 20
217.92856969311509
 30
0.0
 40
18.85680319682119
 50
27.022904499788751
 51
46.498857499239008
  0
ARC
  5
AF57
  8
0
 10
135.93936049592111
 20
237.49779095812079
 30
0.0
 40
8.050739316599655
 50
132.9655510252538
 51
227.0344489747462
  0
ARC
  5
AF58
  8
0
 10
117.5606781866378
 20
257.00067051968642
 30
0.0
 40
18.747558832364529
 50
313.44384040283461
 51
333.03439759813352
  0
LINE
  5
AF78
  8
0
 10
140.53127997767541
 20
246.4347651780987
 30
0.0
 11
140.53181409117201
 21
246.4351945178056
 31
0.0
  0
LINE
  5
AF79
  8
0
 10
131.34690690067029
 20
246.4351945178056
 30
0.0
 11
131.3474410141668
 21
246.4347651780987
 31
0.0
  0
POLYLINE
  5
AF7C
  8
0
 66
     1
 10
0.0
 20
0.0
 30
0.0
 70
   128
  0
VERTEX
  5
D43D
  8
0
 10
138.48379290875411
 20
51.210762378906381
 30
0.0
  0
VERTEX
  5
D43E
  8
0
 10
138.7109636722914
 20
51.493212958013189
 30
0.0
  0
VERTEX
  5
D43F
  8
0
 10
138.9636866676469
 20
51.88358985367902
 30
0.0
  0
SEQEND
  5
D440
  8
0
  0
POLYLINE
  5
AF7D
  8
0
 66
     1
 10
0.0
 20
0.0
 30
0.0
 70
   128
  0
VERTEX
  5
D441
  8
0
 10
132.90252503220361
 20
51.908797030483854
 30
0.0
  0
VERTEX
  5
D442
  8
0
 10
133.12091808047509
 20
51.558473524784219
 30
0.0
  0
VERTEX
  5
D443
  8
0
 10
133.3949937413297
 20
51.210670177971487
 30
0.0
  0
SEQEND
  5
D444
  8
0
  0
ARC
  5
AF7F
  8
0
 10
119.1036134355442
 20
44.275108757883778
 30
0.0
 40
15.76969111605078
 50
28.951783072385471
 51
39.069564242182018
  0
ARC
  5
AF80
  8
0
 10
155.36377808345659
 20
42.296309119090083
 30
0.0
 40
19.026890062640479
 50
132.9655510252538
 51
141.21723799358301
  0
ARC
  5
AF81
  8
0
 10
116.51494290838561
 20
42.296309119090083
 30
0.0
 40
19.026890062640479
 50
38.78276200641703
 51
47.034448974746162
  0
ARC
  5
AF82
  8
0
 10
135.93936049592111
 20
63.151572276984822
 30
0.0
 40
9.4731099373595171
 50
312.96555102525377
 51
356.1976345928536
  0
ARC
  5
AF83
  8
0
 10
135.93936049592111
 20
63.151572276984822
 30
0.0
 40
9.4731099373595136
 50
3.802365407146433
 51
47.034448974746162
  0
ARC
  5
AF84
  8
0
 10
135.93936049592111
 20
63.151572276984822
 30
0.0
 40
9.4731099373595171
 50
132.9655510252538
 51
176.1976345928536
  0
ARC
  5
AF85
  8
0
 10
135.93936049592111
 20
63.151572276984822
 30
0.0
 40
9.4731099373595153
 50
183.8023654071464
 51
227.0344489747462
  0
ARC
  5
AF86
  8
0
 10
116.51494290838561
 20
84.006835434879548
 30
0.0
 40
19.026890062640479
 50
312.96555102525377
 51
329.68999631710869
  0
ARC
  5
AF87
  8
0
 10
155.36377808345659
 20
84.006835434879548
 30
0.0
 40
19.026890062640479
 50
210.31000368289131
 51
227.0344489747462
  0
ARC
  5
AF88
  8
0
 10
135.93936049592111
 20
72.651572276984822
 30
0.0
 40
3.4731099373595109
 50
30.310003682891288
 51
149.68999631710869
  0
LINE
  5
AF96
  8
0
 10
140.84683767732599
 20
54.651571815048818
 30
0.0
 11
131.03188331451631
 21
54.651571815048818
 31
0.0
  0
LINE
  5
AF9B
  8
0
 10
131.03188331451631
 20
71.651572738920819
 30
0.0
 11
140.84683767732599
 21
71.651572738920819
 31
0.0
  0
POLYLINE
  5
AF9F
  8
0
 66
     1
 10
0.0
 20
0.0
 30
0.0
 70
   128
  0
VERTEX
  5
D445
  8
0
 10
137.4143342415652
 20
53.256354672049653
 30
0.0
  0
VERTEX
  5
D446
  8
0
 10
137.55702438511321
 20
53.844950539206629
 30
0.0
  0
VERTEX
  5
D447
  8
0
 10
137.6776009083124
 20
54.321027544708649
 30
0.0
  0
SEQEND
  5
D448
  8
0
  0
POLYLINE
  5
AFA1
  8
0
 66
     1
 10
0.0
 20
0.0
 30
0.0
 70
   128
  0
VERTEX
  5
D449
  8
0
 10
134.46438675027699
 20
53.256354672049653
 30
0.0
  0
VERTEX
  5
D44A
  8
0
 10
134.32169660672909
 20
53.844950539206629
 30
0.0
  0
VERTEX
  5
D44B
  8
0
 10
134.20112005697021
 20
54.321027549936773
 30
0.0
  0
SEQEND
  5
D44C
  8
0
  0
ARC
  5
AFA2
  8
0
 10
135.93936049592111
 20
53.58735089555698
 30
0.0
 40
1.511656723702665
 50
192.6481063693345
 51
347.35189363066883
  0
POLYLINE
  5
AFA3
  8
0
 66
     1
 10
0.0
 20
0.0
 30
0.0
 70
   128
  0
VERTEX
  5
D44D
  8
0
 10
138.4493821694366
 20
51.171924364899759
 30
0.0
  0
VERTEX
  5
D44E
  8
0
 10
138.47817028154051
 20
51.203144160246019
 30
0.0
  0
VERTEX
  5
D44F
  8
0
 10
138.48379290875411
 20
51.210762378906381
 30
0.0
  0
SEQEND
  5
D450
  8
0
  0
POLYLINE
  5
AFA5
  8
0
 66
     1
 10
0.0
 20
0.0
 30
0.0
 70
   128
  0
VERTEX
  5
D451
  8
0
 10
133.4293388224057
 20
51.171924364899759
 30
0.0
  0
VERTEX
  5
D452
  8
0
 10
133.40055071030179
 20
51.203144160246019
 30
0.0
  0
VERTEX
  5
D453
  8
0
 10
133.3949937413297
 20
51.210670177971487
 30
0.0
  0
SEQEND
  5
D454
  8
0
  0
ARC
  5
AFA7
  8
0
 10
-131.2167282022258
 20
-76.439995246740366
 30
0.0
 40
294.4162489474889
 50
26.012369371385521
 51
26.439928624537622
  0
ARC
  5
AFAC
  8
0
 10
153.40180871150551
 20
43.861763433736861
 30
0.0
 40
16.516932743855229
 50
141.18739022429949
 51
150.94343241827389
  0
LINE
  5
AFAE
  8
0
 10
137.6713243241272
 20
71.983349886869561
 30
0.0
 11
137.38824929323411
 21
73.039801237320063
 31
0.0
  0
ARC
  5
AFAF
  8
0
 10
135.93936049592111
 20
72.651572276984822
 30
0.0
 40
1.499999999999998
 50
14.999999999980981
 51
164.99999999999881
  0
LINE
  5
AFB0
  8
0
 10
134.2073966677151
 20
71.983349886869561
 30
0.0
 11
134.49047169860819
 21
73.039801237320063
 31
0.0
  0
CIRCLE
  5
AFB1
  8
0
 10
135.93936049592111
 20
63.151572276984822
 30
0.0
 40
1.639192297674178
  0
CIRCLE
  5
AFB2
  8
0
 10
135.93936049592111
 20
63.151572276984822
 30
0.0
 40
2.5
  0
CIRCLE
  5
AFB4
  8
3
 10
135.93936049592111
 20
63.151572276984822
 30
0.0
 40
4.4999998062849178
  0
CIRCLE
  5
AFB6
  8
0
 10
135.93936049592111
 20
63.151572276984822
 30
0.0
 40
3.2500000000000031
  0
CIRCLE
  5
AFB7
  8
0
 10
135.93936049592111
 20
63.151572276984822
 30
0.0
 40
5.0
  0
ARC
  5
AFBE
  8
0
 10
135.93936049592111
 20
63.151572276984822
 30
0.0
 40
9.0000000000000053
 50
130.81186498597251
 51
169.188138789541
  0
ARC
  5
AFBF
  8
0
 10
135.93936049592111
 20
63.151572276984822
 30
0.0
 40
9.0000000000000018
 50
70.910573469984996
 51
108.7723917926678
  0
ARC
  5
AFC0
  8
0
 10
135.93936049592111
 20
63.151572276984822
 30
0.0
 40
9.0000000000000018
 50
10.811861210459
 51
49.188135014027431
  0
ARC
  5
AFC1
  8
0
 10
135.93936049592111
 20
63.151572276984822
 30
0.0
 40
9.0000000000000036
 50
310.81186498597248
 51
349.18813878954433
  0
ARC
  5
AFC2
  8
0
 10
135.93936049592111
 20
63.151572276984822
 30
0.0
 40
8.9999999999999982
 50
250.8118724937535
 51
289.18812750624647
  0
ARC
  5
AFC3
  8
0
 10
135.93936049592111
 20
63.151572276984822
 30
0.0
 40
9.0000000000000018
 50
190.811861210459
 51
229.18813501402749
  0
POLYLINE
  5
AFC4
  8
0
 66
     1
 10
0.0
 20
0.0
 30
0.0
 70
   128
  0
VERTEX
  5
D455
  8
0
 10
135.42217658114049
 20
51.211799872254502
 30
0.0
  0
VERTEX
  5
D456
  8
0
 10
135.0126935446485
 20
51.255286117231023
 30
0.0
  0
VERTEX
  5
D457
  8
0
 10
134.71063239712629
 20
51.326784682606821
 30
0.0
  0
SEQEND
  5
D458
  8
0
  0
POLYLINE
  5
AFC5
  8
0
 66
     1
 10
0.0
 20
0.0
 30
0.0
 70
   128
  0
VERTEX
  5
D459
  8
0
 10
136.45654441070181
 20
51.211799872254502
 30
0.0
  0
VERTEX
  5
D45A
  8
0
 10
135.93936049592091
 20
51.195777398680811
 30
0.0
  0
VERTEX
  5
D45B
  8
0
 10
135.42217658114049
 20
51.211799872254502
 30
0.0
  0
SEQEND
  5
D45C
  8
0
  0
POLYLINE
  5
AFC6
  8
0
 66
     1
 10
0.0
 20
0.0
 30
0.0
 70
   128
  0
VERTEX
  5
D45D
  8
0
 10
137.16808859471601
 20
51.326784682606821
 30
0.0
  0
VERTEX
  5
D45E
  8
0
 10
136.8660274471938
 20
51.255286117231023
 30
0.0
  0
VERTEX
  5
D45F
  8
0
 10
136.45654441070181
 20
51.211799872254502
 30
0.0
  0
SEQEND
  5
D460
  8
0
  0
ARC
  5
AFC8
  8
0
 10
135.93936049592111
 20
56.246223502481698
 30
0.0
 40
5.7473520935328013
 50
257.65543375545462
 51
282.34456624454702
  0
ARC
  5
AFD6
  8
0
 10
136.04258565577521
 20
53.976540759489559
 30
0.0
 40
2.9656882422470519
 50
205.90869137156719
 51
243.3126893775212
  0
ARC
  5
AFD8
  8
0
 10
135.8375413836014
 20
53.975153690731581
 30
0.0
 40
2.9638175187079949
 50
296.67506781279661
 51
334.1035514381187
  0
ARC
  5
AFDB
  8
0
 10
136.11335145044529
 20
53.659271058041313
 30
0.0
 40
3.2059847732637921
 50
289.20748811790952
 51
318.21100974948467
  0
ARC
  5
AFDC
  8
0
 10
135.76536778200111
 20
53.659268420860869
 30
0.0
 40
3.2059817040625989
 50
221.7889760632045
 51
250.7925260694015
  0
ARC
  5
AFE2
  8
0
 10
135.93936049592111
 20
53.636392974880529
 30
0.0
 40
0.8901186224030102
 50
194.05618835261879
 51
345.94381164738121
  0
ARC
  5
AFE3
  8
0
 10
116.1857639581566
 20
64.87107374320901
 30
0.0
 40
25.430240348547269
 50
331.35609235375551
 51
336.30523265281539
  0
ARC
  5
AFE5
  8
0
 10
155.27477199621421
 20
44.838646334893127
 30
0.0
 40
17.968592054094952
 50
147.3706423484351
 51
156.04030028355129
  0
POLYLINE
  5
AFE6
  8
0
 66
     1
 10
0.0
 20
0.0
 30
0.0
 70
   128
  0
VERTEX
  5
D461
  8
0
 10
138.85450981770069
 20
52.135583390628469
 30
0.0
  0
VERTEX
  5
D462
  8
0
 10
138.68301305201271
 20
51.799844396447313
 30
0.0
  0
VERTEX
  5
D463
  8
0
 10
138.50374672774589
 20
51.522837397789132
 30
0.0
  0
SEQEND
  5
D464
  8
0
  0
POLYLINE
  5
AFE7
  8
0
 66
     1
 10
0.0
 20
0.0
 30
0.0
 70
   128
  0
VERTEX
  5
D465
  8
0
 10
133.37497426409641
 20
51.522837397789132
 30
0.0
  0
VERTEX
  5
D466
  8
0
 10
133.19570793982959
 20
51.799844396447313
 30
0.0
  0
VERTEX
  5
D467
  8
0
 10
133.0242111741415
 20
52.135583390628469
 30
0.0
  0
SEQEND
  5
D468
  8
0
  0
ARC
  5
AFE8
  8
0
 10
116.6194228240382
 20
44.846976227122283
 30
0.0
 40
17.95106891512588
 50
23.955460120029819
 51
32.633597247985477
  0
LINE
  5
AFEC
  8
0
 10
134.8879915768521
 20
54.213193039336872
 30
0.0
 11
135.07589379305381
 21
53.42020690921462
 31
0.0
  0
LINE
  5
AFED
  8
0
 10
136.99072931921501
 20
54.213193028071409
 30
0.0
 11
136.80282719878841
 21
53.42020690921462
 31
0.0
  0
LINE
  5
AFF0
  8
0
 10
131.73667005475971
 20
54.527353872691762
 30
0.0
 11
131.62928483661631
 21
54.651571815048818
 31
0.0
  0
POLYLINE
  5
AFF3
  8
0
 66
     1
 10
0.0
 20
0.0
 30
0.0
 70
   128
  0
VERTEX
  5
D469
  8
0
 10
131.60774753641701
 20
71.651572738920819
 30
0.0
  0
VERTEX
  5
D46A
  8
0
 10
132.33577333603421
 20
72.56116569522537
 30
0.0
  0
VERTEX
  5
D46B
  8
0
 10
133.37265247691789
 20
74.152036947344911
 30
0.0
  0
SEQEND
  5
D46C
  8
0
  0
ARC
  5
AFF4
  8
0
 10
135.93936049592111
 20
72.651572238607386
 30
0.0
 40
2.9731102228108699
 50
30.310010597114541
 51
149.68998940288549
  0
POLYLINE
  5
AFF5
  8
0
 66
     1
 10
0.0
 20
0.0
 30
0.0
 70
   128
  0
VERTEX
  5
D46D
  8
0
 10
138.50606851492441
 20
74.152036947344911
 30
0.0
  0
VERTEX
  5
D46E
  8
0
 10
139.54282425556701
 20
72.561376174127233
 30
0.0
  0
VERTEX
  5
D46F
  8
0
 10
140.27096321087689
 20
71.651572738920819
 30
0.0
  0
SEQEND
  5
D470
  8
0
  0
LINE
  5
AFF8
  8
0
 10
140.24943615522599
 20
54.651571815048818
 30
0.0
 11
140.1420509370825
 21
54.527353872691762
 31
0.0
  0
LINE
  5
B000
  8
0
 10
136.99072927506921
 20
72.089951531090819
 30
0.0
 11
136.80282719878841
 21
72.882937644755003
 31
0.0
  0
ARC
  5
B002
  8
0
 10
135.93936049592111
 20
72.666751579089109
 30
0.0
 40
0.8901186224030118
 50
14.056188352618779
 51
165.94381164738121
  0
LINE
  5
B003
  8
0
 10
135.07589379305381
 20
72.882937644755003
 30
0.0
 11
134.88799152689111
 21
72.08995150875613
 31
0.0
  0
ARC
  5
B010
  8
0
 10
213.7274247441556
 20
164.02468173650379
 30
0.0
 40
10.50000027965506
 50
47.915996642017511
 51
89.999999716605146
  0
ARC
  5
B011
  8
0
 10
203.7274248480237
 20
164.02468173650749
 30
0.0
 40
10.500000279651371
 50
90.000000283386697
 51
132.08400335799161
  0
ARC
  5
B012
  8
0
 10
216.00943435860401
 20
153.65232260534151
 30
0.0
 40
5.3790505908442157
 50
55.715119190301181
 51
92.857885512008195
  0
LINE
  5
B013
  8
0
 10
221.87803575711041
 20
156.15084891417109
 30
0.0
 11
221.09313944296619
 21
171.1275664458521
 31
0.0
  0
ARC
  5
B014
  8
0
 10
196.25431485873079
 20
159.52468201615889
 30
0.0
 40
0.5
 50
177.00000000000091
 51
270.0
  0
LINE
  5
B015
  8
0
 10
196.3617101492145
 20
171.1275664458521
 30
0.0
 11
195.75500005798119
 21
159.55085058906161
 31
0.0
  0
ARC
  5
B016
  8
0
 10
197.36033628478421
 20
171.07523165827891
 30
0.0
 40
0.999996544310688
 50
132.08389506183099
 51
177.00005667537559
  0
ARC
  5
B017
  8
0
 10
220.09451330739651
 20
171.07523165827891
 30
0.0
 40
0.999996544310669
 50
2.9999433246244021
 51
47.916104938170228
  0
ARC
  5
B018
  8
0
 10
221.3787215434306
 20
156.12468091024721
 30
0.0
 40
0.4999994484117155
 50
269.99995246030028
 51
3.000006273354098
  0
LINE
  5
B019
  8
0
 10
220.68287881033211
 20
155.62468146183571
 30
0.0
 11
221.37872112856891
 21
155.62468146183571
 31
0.0
  0
LINE
  5
B01A
  8
0
 10
220.36971507535961
 20
155.960877735401
 30
0.0
 11
220.41394079046029
 21
155.7917458305605
 31
0.0
  0
ARC
  5
B01B
  8
0
 10
220.68287810491319
 20
155.92467895132779
 30
0.0
 40
0.2999974894929556
 50
206.3027431051338
 51
270.00013472619401
  0
LINE
  5
B01C
  8
0
 10
215.7274250121572
 20
152.62468283274271
 30
0.0
 11
215.7274250121572
 21
159.0246831367262
 31
0.0
  0
LINE
  5
B01D
  8
0
 10
201.7274245800235
 20
159.0246831367262
 30
0.0
 11
201.7274245800235
 21
152.62468283274259
 31
0.0
  0
ARC
  5
B01E
  8
0
 10
208.72742479609039
 20
129.02468201615889
 30
0.0
 40
3.0000000000000031
 50
255.16488841802379
 51
284.8351115819778
  0
LINE
  5
B01F
  8
0
 10
217.7274244086602
 20
150.32468115189161
 30
0.0
 11
217.7274244086602
 21
152.42468317248901
 31
0.0
  0
LINE
  5
B020
  8
0
 10
199.7274251835205
 20
152.42468317248901
 30
0.0
 11
199.7274251835205
 21
150.32468115189161
 31
0.0
  0
LINE
  5
B021
  8
0
 10
217.7274244086602
 20
152.42468317248901
 30
0.0
 11
217.52742474840659
 21
152.62468283274251
 31
0.0
  0
LINE
  5
B022
  8
0
 10
199.92742484377411
 20
152.62468283274251
 30
0.0
 11
199.7274251835205
 21
152.42468317248901
 31
0.0
  0
LINE
  5
B023
  8
0
 10
199.7274251835205
 20
150.32468115189161
 30
0.0
 11
199.92742484377411
 21
150.124681491638
 31
0.0
  0
LINE
  5
B024
  8
0
 10
217.52742474840659
 20
150.124681491638
 30
0.0
 11
217.7274244086602
 21
150.32468115189161
 31
0.0
  0
LINE
  5
B027
  8
0
 10
213.73742476047661
 20
141.12468187906819
 30
0.0
 11
213.73742476047661
 21
143.12468220689379
 31
0.0
  0
LINE
  5
B028
  8
0
 10
203.71742483170411
 20
143.12468220689379
 30
0.0
 11
203.71742483170411
 21
141.12468187906819
 31
0.0
  0
LINE
  5
B029
  8
0
 10
213.72742468433171
 20
127.13468198874079
 30
0.0
 11
213.72742468433171
 21
133.82468124129849
 31
0.0
  0
LINE
  5
B02A
  8
0
 10
213.72742468433171
 20
138.82468206086239
 30
0.0
 11
213.72742468433171
 21
141.12468187906819
 31
0.0
  0
LINE
  5
B02B
  8
0
 10
203.7274249078491
 20
141.12468187906819
 30
0.0
 11
203.7274249078491
 21
138.82468206086239
 31
0.0
  0
LINE
  5
B02C
  8
0
 10
203.7274249078491
 20
133.82468124129849
 30
0.0
 11
203.7274249078491
 21
127.13468198874079
 31
0.0
  0
LINE
  5
B02D
  8
0
 10
203.7274249078491
 20
127.13468198874079
 30
0.0
 11
204.72742460610061
 21
126.13468182482799
 31
0.0
  0
LINE
  5
B02E
  8
0
 10
212.72742498608019
 20
126.13468182482799
 30
0.0
 11
213.72742468433171
 21
127.13468198874079
 31
0.0
  0
LINE
  5
B02F
  8
0
 10
204.72742460610061
 20
126.13468182482799
 30
0.0
 11
204.72742460610061
 21
126.1256824547895
 31
0.0
  0
LINE
  5
B030
  8
0
 10
212.72742498608019
 20
126.1256824547895
 30
0.0
 11
212.72742498608019
 21
126.13468182482799
 31
0.0
  0
LINE
  5
B031
  8
0
 10
204.72742460610061
 20
126.1256824547895
 30
0.0
 11
204.72842484654569
 21
126.1246822143443
 31
0.0
  0
LINE
  5
B032
  8
0
 10
212.726424745635
 20
126.1246822143443
 30
0.0
 11
212.72742498608019
 21
126.1256824547895
 31
0.0
  0
LINE
  5
B036
  8
0
 10
200.22742433415439
 20
133.82468124129849
 30
0.0
 11
217.22742525802639
 21
133.82468124129849
 31
0.0
  0
LINE
  5
B039
  8
0
 10
208.7274247960903
 20
138.06549211242279
 30
0.0
 11
208.7274247960903
 21
134.58387118973809
 31
0.0
  0
ARC
  5
B03A
  8
0
 10
213.15914599779629
 20
125.5318956391373
 30
0.0
 40
13.294028485181011
 50
90.783221501006864
 51
109.4729503118613
  0
ARC
  5
B03B
  8
0
 10
212.78071714275791
 20
125.4479978132602
 30
0.0
 40
13.378130491656711
 50
70.58631793006856
 51
89.157510257063834
  0
ARC
  5
B03E
  8
0
 10
204.2807179731542
 20
125.4480050478298
 30
0.0
 40
13.3781232388672
 50
70.58631285145286
 51
89.157515335679335
  0
ARC
  5
B042
  8
0
 10
204.65914672837729
 20
125.5318889633409
 30
0.0
 40
13.29403517665467
 50
90.783226246845217
 51
109.4729455660212
  0
LINE
  5
B043
  8
0
 10
217.22742525802639
 20
138.82468206086239
 30
0.0
 11
217.22742525802639
 21
133.82468124129849
 31
0.0
  0
LINE
  5
B044
  8
0
 10
217.22742525802639
 20
138.82468206086239
 30
0.0
 11
200.22742433415439
 21
138.82468206086239
 31
0.0
  0
LINE
  5
B048
  8
0
 10
200.22742433415439
 20
133.82468124129849
 30
0.0
 11
200.22742433415439
 21
138.82468206086239
 31
0.0
  0
LINE
  5
B04B
  8
0
 10
213.7274247960903
 20
174.52468201615889
 30
0.0
 11
203.7274249078491
 21
174.52468102076131
 31
0.0
  0
LINE
  5
B04C
  8
0
 10
196.25431485873079
 20
159.02468201615889
 30
0.0
 11
215.74124118255151
 21
159.0246831367262
 31
0.0
  0
ARC
  5
B04F
  8
0
 10
216.85716406094949
 20
155.2592028633037
 30
0.0
 40
3.5796972015847919
 50
17.98354531643038
 51
52.436398959570923
  0
POLYLINE
  5
B050
  8
0
 66
     1
 10
0.0
 20
0.0
 30
0.0
 70
   128
  0
VERTEX
  5
D471
  8
0
 10
220.26197595463779
 20
156.36441235640129
 30
0.0
  0
VERTEX
  5
D472
  8
0
 10
220.3306656511285
 20
156.12237652041989
 30
0.0
  0
VERTEX
  5
D473
  8
0
 10
220.36971507535961
 20
155.960877735401
 30
0.0
  0
SEQEND
  5
D474
  8
0
  0
LINE
  5
B058
  8
0
 10
199.92742484377411
 20
152.62468283274251
 30
0.0
 11
217.52742474840659
 21
152.62468283274259
 31
0.0
  0
LINE
  5
B059
  8
0
 10
217.52742474840659
 20
150.124681491638
 30
0.0
 11
199.92742484377411
 21
150.124681491638
 31
0.0
  0
LINE
  5
B05A
  8
0
 10
215.22742493020081
 20
150.124681491638
 30
0.0
 11
215.22742493020081
 21
143.12468220689379
 31
0.0
  0
LINE
  5
B05C
  8
0
 10
208.72742479609039
 20
150.124681491638
 30
0.0
 11
208.72742479609039
 21
143.12468220689379
 31
0.0
  0
LINE
  5
B05D
  8
0
 10
202.22742466197991
 20
150.124681491638
 30
0.0
 11
202.22742466197991
 21
143.12468220689379
 31
0.0
  0
LINE
  5
B05E
  8
0
 10
215.22742493020081
 20
143.12468220689379
 30
0.0
 11
202.22742466197991
 21
143.12468220689379
 31
0.0
  0
LINE
  5
B05F
  8
0
 10
215.7274250121572
 20
155.1246804485568
 30
0.0
 11
201.7274245800235
 21
155.1246804485568
 31
0.0
  0
LINE
  5
B061
  8
0
 10
213.73742476047661
 20
141.12468187906831
 30
0.0
 11
203.71742483170411
 21
141.12468187906819
 31
0.0
  0
LINE
  5
B063
  8
0
 10
213.72742468433171
 20
127.13468198874079
 30
0.0
 11
203.7274249078491
 21
127.13468198874079
 31
0.0
  0
LINE
  5
B066
  8
0
 10
212.72742498608019
 20
126.13468182482799
 30
0.0
 11
204.72742460610061
 21
126.13468182482799
 31
0.0
  0
LINE
  5
B068
  8
0
 10
212.726424745635
 20
126.1246822143443
 30
0.0
 11
204.72842484654569
 21
126.1246822143443
 31
0.0
  0
ARC
  5
B06A
  8
0
 10
210.2988905708782
 20
158.14556338777101
 30
0.0
 40
17.217802099298488
 50
52.565804892107018
 51
56.790475327073679
  0
ARC
  5
B06B
  8
0
 10
214.60669252724281
 20
164.68291730854429
 30
0.0
 40
9.3888095707233603
 50
56.935099383974588
 51
89.926948618716949
  0
LINE
  5
B06C
  8
0
 10
214.61866313533571
 20
174.071719248081
 30
0.0
 11
202.83618645684501
 21
174.071719248081
 31
0.0
  0
ARC
  5
B06D
  8
0
 10
202.84980125497549
 20
164.6773910549494
 30
0.0
 40
9.3943380587988976
 50
90.083036265033343
 51
123.0549157322758
  0
POLYLINE
  5
B06E
  8
0
 66
     1
 10
0.0
 20
0.0
 30
0.0
 70
   128
  0
VERTEX
  5
D475
  8
0
 10
197.7257289172866
 20
172.5512382874735
 30
0.0
  0
VERTEX
  5
D476
  8
0
 10
197.32783345447561
 20
172.28273798921191
 30
0.0
  0
VERTEX
  5
D477
  8
0
 10
196.99873292760631
 20
172.04820488789159
 30
0.0
  0
VERTEX
  5
D478
  8
0
 10
196.77286764548799
 20
171.88035075762349
 30
0.0
  0
VERTEX
  5
D479
  8
0
 10
196.6901224287011
 20
171.81739335157951
 30
0.0
  0
SEQEND
  5
D47A
  8
0
  0
ARC
  5
B070
  8
0
 10
215.20868506198221
 20
159.47361098361711
 30
0.0
 40
0.4568918568542149
 50
280.71345840089549
 51
9.7328478352720325
  0
ARC
  5
B071
  8
0
 10
202.24616453019851
 20
159.47361098361711
 30
0.0
 40
0.4568918568542401
 50
170.267152164728
 51
259.28654159910121
  0
LINE
  5
B072
  8
0
 10
202.31803722621581
 20
173.16719641187271
 30
0.0
 11
201.79584884958049
 21
159.55085058906161
 31
0.0
  0
LINE
  5
B074
  8
0
 10
215.6590007426002
 20
159.55085058906161
 30
0.0
 11
215.13681236596489
 21
173.16719641187271
 31
0.0
  0
ARC
  5
B075
  8
0
 10
203.31152928476499
 20
173.19875221820061
 30
0.0
 40
0.9939930781013409
 50
118.56891370615131
 51
181.8192464291549
  0
ARC
  5
B076
  8
0
 10
214.14332030741571
 20
173.19875221820061
 30
0.0
 40
0.9939930781013341
 50
358.18075357084842
 51
61.431086293848658
  0
LINE
  5
B077
  8
0
 10
217.66439901606819
 20
159.55085058906161
 30
0.0
 11
195.75500005798119
 21
159.55085058906161
 31
0.0
  0
POLYLINE
  5
B07A
  8
0
 66
     1
 10
0.0
 20
0.0
 30
0.0
 70
   128
  0
VERTEX
  5
D47B
  8
0
 10
197.47496752010369
 20
159.55085058906161
 30
0.0
  0
VERTEX
  5
D47C
  8
0
 10
197.4774746404745
 20
159.4496977815875
 30
0.0
  0
VERTEX
  5
D47D
  8
0
 10
197.49021792726299
 20
159.35162206389981
 30
0.0
  0
VERTEX
  5
D47E
  8
0
 10
197.51267397718209
 20
159.2606467495211
 30
0.0
  0
VERTEX
  5
D47F
  8
0
 10
197.5439198495605
 20
159.18050457933029
 30
0.0
  0
VERTEX
  5
D480
  8
0
 10
197.58267590718049
 20
159.11448125937071
 30
0.0
  0
VERTEX
  5
D481
  8
0
 10
197.62735145108479
 20
159.06528507568919
 30
0.0
  0
VERTEX
  5
D482
  8
0
 10
197.67611270712399
 20
159.03493886091789
 30
0.0
  0
VERTEX
  5
D483
  8
0
 10
197.7269601257303
 20
159.0246831367262
 30
0.0
  0
SEQEND
  5
D484
  8
0
  0
LINE
  5
B07C
  8
0
 10
219.6561282681086
 20
171.79152121045669
 30
0.0
 11
219.9954072193959
 21
158.96389757492619
 31
0.0
  0
ARC
  5
B07D
  8
0
 10
217.50204410181959
 20
153.98395323839529
 30
0.0
 40
5.5692643348144362
 50
63.403746199204562
 51
88.329479644092984
  0
LINE
  5
B07E
  8
0
 10
197.47496752010369
 20
159.55085058906161
 30
0.0
 11
197.79872132407209
 21
171.79152121045669
 31
0.0
  0
ARC
  5
B080
  8
0
 10
219.018201533411
 20
172.23617723072749
 30
0.0
 40
0.7776049737527723
 50
325.12222847475698
 51
23.901687931834768
  0
ARC
  5
B081
  8
0
 10
198.43664805876969
 20
172.23617723072749
 30
0.0
 40
0.7776049737528104
 50
156.0983120681652
 51
214.87777152524299
  0
POLYLINE
  5
B088
  8
0
 66
     1
 10
0.0
 20
0.0
 30
0.0
 70
   128
  0
VERTEX
  5
D485
  8
0
 10
220.70707270817539
 20
158.4847917149313
 30
0.0
  0
VERTEX
  5
D486
  8
0
 10
220.39585264341619
 20
158.75393648841461
 30
0.0
  0
VERTEX
  5
D487
  8
0
 10
219.9954072193959
 20
158.96389757492619
 30
0.0
  0
SEQEND
  5
D488
  8
0
  0
POLYLINE
  5
B08B
  8
0
 66
     1
 10
0.0
 20
0.0
 30
0.0
 70
   128
  0
VERTEX
  5
D489
  8
0
 10
221.729144285784
 20
156.5772717187651
 30
0.0
  0
VERTEX
  5
D48A
  8
0
 10
221.78459057526371
 20
156.39625241258219
 30
0.0
  0
VERTEX
  5
D48B
  8
0
 10
221.83400468842771
 20
156.26025323965629
 30
0.0
  0
VERTEX
  5
D48C
  8
0
 10
221.86649387644309
 20
156.17832293012219
 30
0.0
  0
VERTEX
  5
D48D
  8
0
 10
221.87803575711041
 20
156.15084891417109
 30
0.0
  0
VERTEX
  5
D48E
  8
0
 10
221.8779863970139
 20
156.15096812346059
 30
0.0
  0
SEQEND
  5
D48F
  8
0
  0
ARC
  5
B08C
  8
0
 10
217.18888460723389
 20
155.37212631831639
 30
0.0
 40
4.6974816002715398
 50
14.86553133552253
 51
41.500324280364701
  0
ARC
  5
B09A
  8
0
 10
68.15129614381712
 20
164.02468173650351
 30
0.0
 40
10.50000027965539
 50
47.915996642017511
 51
89.999999716605146
  0
ARC
  5
B09B
  8
0
 10
58.151296247685231
 20
164.0246817365078
 30
0.0
 40
10.50000027965109
 50
90.000000283386697
 51
132.08400335799161
  0
ARC
  5
B09C
  8
0
 10
55.854251723884182
 20
153.70576266901779
 30
0.0
 40
5.3264559596575056
 50
86.951926191845004
 51
124.47506910584509
  0
LINE
  5
B09D
  8
0
 10
50.78558154887611
 20
171.1275664458521
 30
0.0
 11
50.000685234731947
 21
156.15084891417109
 31
0.0
  0
ARC
  5
B09E
  8
0
 10
75.624406133111478
 20
159.52468201615889
 30
0.0
 40
0.5
 50
270.0
 51
2.9999999999990772
  0
LINE
  5
B09F
  8
0
 10
76.123720933861051
 20
159.55085058906161
 30
0.0
 11
75.517010842627855
 21
171.1275664458521
 31
0.0
  0
ARC
  5
B0A0
  8
0
 10
74.518384707058118
 20
171.07523165827891
 30
0.0
 40
0.9999965443106784
 50
2.9999433246244021
 51
47.91610493816902
  0
ARC
  5
B0A1
  8
0
 10
51.784207684445867
 20
171.07523165827891
 30
0.0
 40
0.9999965443107001
 50
132.08389506183099
 51
177.00005667537559
  0
ARC
  5
B0A2
  8
0
 10
50.499999448411721
 20
156.12468091024721
 30
0.0
 40
0.4999994484117155
 50
176.9999937266459
 51
270.00004753970143
  0
LINE
  5
B0A3
  8
0
 10
50.49999986327343
 20
155.62468146183571
 30
0.0
 11
51.195842181510301
 21
155.62468146183571
 31
0.0
  0
ARC
  5
B0A4
  8
0
 10
51.195843298300218
 20
155.92467750951101
 30
0.0
 40
0.2999960476774146
 50
269.99978670602752
 51
333.63788833953208
  0
LINE
  5
B0A5
  8
0
 10
51.464641434318338
 20
155.7914664337882
 30
0.0
 11
51.495535266763483
 21
155.90241675474721
 31
0.0
  0
LINE
  5
B0A6
  8
0
 10
70.151296411818777
 20
152.62468283274251
 30
0.0
 11
70.151296411818777
 21
159.0246831367262
 31
0.0
  0
LINE
  5
B0A7
  8
0
 10
56.151295979685102
 20
159.0246831367262
 30
0.0
 11
56.151295979685102
 21
152.62468283274251
 31
0.0
  0
ARC
  5
B0A8
  8
0
 10
63.151296195751939
 20
129.02468201615889
 30
0.0
 40
3.0000000000000062
 50
255.16488841802379
 51
284.8351115819778
  0
LINE
  5
B0A9
  8
0
 10
72.151295808321748
 20
152.42468317248901
 30
0.0
 11
71.951296148068224
 21
152.62468283274251
 31
0.0
  0
LINE
  5
B0AA
  8
0
 10
54.351296243435662
 20
152.62468283274251
 30
0.0
 11
54.15129658318213
 21
152.42468317248901
 31
0.0
  0
LINE
  5
B0AB
  8
0
 10
72.151295808321748
 20
150.32468115189161
 30
0.0
 11
72.151295808321748
 21
152.42468317248901
 31
0.0
  0
LINE
  5
B0AC
  8
0
 10
54.15129658318213
 20
152.42468317248901
 30
0.0
 11
54.15129658318213
 21
150.32468115189161
 31
0.0
  0
LINE
  5
B0AD
  8
0
 10
54.15129658318213
 20
150.32468115189161
 30
0.0
 11
54.351296243435662
 21
150.124681491638
 31
0.0
  0
LINE
  5
B0AE
  8
0
 10
71.951296148068224
 20
150.124681491638
 30
0.0
 11
72.151295808321748
 21
150.32468115189161
 31
0.0
  0
LINE
  5
B0B1
  8
0
 10
68.161296160138164
 20
141.12468187906819
 30
0.0
 11
68.161296160138164
 21
143.12468220689379
 31
0.0
  0
LINE
  5
B0B2
  8
0
 10
58.141296231365722
 20
143.12468220689379
 30
0.0
 11
58.141296231365722
 21
141.12468187906819
 31
0.0
  0
LINE
  5
B0B3
  8
0
 10
68.15129608399323
 20
127.13468198874079
 30
0.0
 11
68.15129608399323
 21
133.82468124129849
 31
0.0
  0
LINE
  5
B0B4
  8
0
 10
68.15129608399323
 20
138.82468206086239
 30
0.0
 11
68.15129608399323
 21
141.12468187906819
 31
0.0
  0
LINE
  5
B0B5
  8
0
 10
58.151296307510648
 20
141.12468187906819
 30
0.0
 11
58.151296307510648
 21
138.82468206086239
 31
0.0
  0
LINE
  5
B0B6
  8
0
 10
58.151296307510648
 20
133.82468124129849
 30
0.0
 11
58.151296307510648
 21
127.13468198874079
 31
0.0
  0
LINE
  5
B0B7
  8
0
 10
58.151296307510648
 20
127.13468198874079
 30
0.0
 11
59.151296005762127
 21
126.13468182482799
 31
0.0
  0
LINE
  5
B0B8
  8
0
 10
67.151296385741745
 20
126.13468182482799
 30
0.0
 11
68.15129608399323
 21
127.13468198874079
 31
0.0
  0
LINE
  5
B0B9
  8
0
 10
59.151296005762127
 20
126.13468182482799
 30
0.0
 11
59.151296005762127
 21
126.1256824547895
 31
0.0
  0
LINE
  5
B0BA
  8
0
 10
67.151296385741745
 20
126.1256824547895
 30
0.0
 11
67.151296385741745
 21
126.13468182482799
 31
0.0
  0
LINE
  5
B0BB
  8
0
 10
59.151296005762127
 20
126.1256824547895
 30
0.0
 11
59.152296246207271
 21
126.1246822143443
 31
0.0
  0
LINE
  5
B0BC
  8
0
 10
67.150296145296608
 20
126.1246822143443
 30
0.0
 11
67.151296385741745
 21
126.1256824547895
 31
0.0
  0
ARC
  5
B0C3
  8
0
 10
58.719566760855713
 20
147.1175137530179
 30
0.0
 40
13.294074683413889
 50
270.78325426638941
 51
289.47291754647972
  0
ARC
  5
B0C4
  8
0
 10
59.0980157847155
 20
147.20143230542669
 30
0.0
 40
13.37819747646183
 50
250.58636483453219
 51
269.15746335260229
  0
ARC
  5
B0C6
  8
0
 10
59.083018128038951
 20
125.5318889633409
 30
0.0
 40
13.29403517665467
 50
90.783226246845217
 51
109.4729455660212
  0
ARC
  5
B0C7
  8
0
 10
58.704589372815718
 20
125.4480050478293
 30
0.0
 40
13.37812323886765
 50
70.58631285145286
 51
89.157515335679335
  0
LINE
  5
B0C8
  8
0
 10
63.151296195751939
 20
138.06549211242279
 30
0.0
 11
63.151296195751939
 21
134.58387118973809
 31
0.0
  0
ARC
  5
B0C9
  8
0
 10
67.598014954304887
 20
147.20142507077679
 30
0.0
 40
13.378190223590771
 50
250.58635975591039
 51
269.15746843122429
  0
ARC
  5
B0CB
  8
0
 10
67.583017397457894
 20
125.5318956391378
 30
0.0
 40
13.294028485180551
 50
90.783221501006864
 51
109.4729503118613
  0
ARC
  5
B0CD
  8
0
 10
67.219566030270727
 20
147.117520428837
 30
0.0
 40
13.294081374910929
 50
270.78325901221149
 51
289.47291280065679
  0
ARC
  5
B0CE
  8
0
 10
67.204588542419543
 20
125.4479978132602
 30
0.0
 40
13.378130491656711
 50
70.58631793006856
 51
89.157510257063834
  0
LINE
  5
B0D2
  8
0
 10
54.651295733815942
 20
133.82468124129849
 30
0.0
 11
54.651295733815942
 21
138.82468206086239
 31
0.0
  0
LINE
  5
B0D3
  8
0
 10
71.651296657687936
 20
133.82468124129849
 30
0.0
 11
54.651295733815942
 21
133.82468124129849
 31
0.0
  0
LINE
  5
B0D5
  8
0
 10
71.651296657687936
 20
138.82468206086239
 30
0.0
 11
54.651295733815921
 21
138.82468206086239
 31
0.0
  0
LINE
  5
B0D6
  8
0
 10
71.651296657687936
 20
138.82468206086239
 30
0.0
 11
71.651296657687936
 21
133.82468124129849
 31
0.0
  0
LINE
  5
B0D8
  8
0
 10
68.151296195751996
 20
174.52468201615889
 30
0.0
 11
58.151296307510648
 21
174.52468102076131
 31
0.0
  0
POLYLINE
  5
B0DC
  8
0
 66
     1
 10
0.0
 20
0.0
 30
0.0
 70
   128
  0
VERTEX
  5
D490
  8
0
 10
51.509005916482721
 20
155.960877735401
 30
0.0
  0
VERTEX
  5
D491
  8
0
 10
51.548055340713773
 20
156.12237652041989
 30
0.0
  0
VERTEX
  5
D492
  8
0
 10
51.616745037204538
 20
156.36441235640129
 30
0.0
  0
SEQEND
  5
D493
  8
0
  0
ARC
  5
B0DD
  8
0
 10
55.021558016510667
 20
155.2592020972015
 30
0.0
 40
3.5796984706943928
 50
127.5636073386372
 51
162.0164483853606
  0
LINE
  5
B0DF
  8
0
 10
56.13747980929076
 20
159.0246831367262
 30
0.0
 11
75.624406133111478
 21
159.02468201615889
 31
0.0
  0
POLYLINE
  5
B0E3
  8
0
 66
     1
 10
0.0
 20
0.0
 30
0.0
 70
   128
  0
VERTEX
  5
D494
  8
0
 10
51.495535266763483
 20
155.90241675474721
 30
0.0
  0
VERTEX
  5
D495
  8
0
 10
51.498299432164941
 20
155.91063847043591
 30
0.0
  0
VERTEX
  5
D496
  8
0
 10
51.509005916482721
 20
155.960877735401
 30
0.0
  0
SEQEND
  5
D497
  8
0
  0
LINE
  5
B0E4
  8
0
 10
70.151296411818777
 20
155.1246804485568
 30
0.0
 11
56.151295979685102
 21
155.1246804485568
 31
0.0
  0
LINE
  5
B0E6
  8
0
 10
54.351296243435662
 20
152.62468283274251
 30
0.0
 11
71.951296148068224
 21
152.62468283274251
 31
0.0
  0
LINE
  5
B0E9
  8
0
 10
71.95129614806828
 20
150.124681491638
 30
0.0
 11
54.351296243435662
 21
150.124681491638
 31
0.0
  0
LINE
  5
B0EB
  8
0
 10
63.151296195751939
 20
150.124681491638
 30
0.0
 11
63.151296195751939
 21
143.12468220689379
 31
0.0
  0
LINE
  5
B0EC
  8
0
 10
69.65129632986239
 20
143.12468220689379
 30
0.0
 11
56.651296061641489
 21
143.12468220689379
 31
0.0
  0
LINE
  5
B0ED
  8
0
 10
56.651296061641489
 20
150.124681491638
 30
0.0
 11
56.651296061641489
 21
143.12468220689379
 31
0.0
  0
LINE
  5
B0EE
  8
0
 10
69.65129632986239
 20
150.124681491638
 30
0.0
 11
69.65129632986239
 21
143.12468220689379
 31
0.0
  0
LINE
  5
B0F0
  8
0
 10
68.161296160138164
 20
141.12468187906819
 30
0.0
 11
58.141296231365722
 21
141.12468187906819
 31
0.0
  0
LINE
  5
B0F1
  8
0
 10
68.15129608399323
 20
127.13468198874079
 30
0.0
 11
58.151296307510648
 21
127.13468198874079
 31
0.0
  0
LINE
  5
B0F2
  8
0
 10
67.151296385741745
 20
126.13468182482799
 30
0.0
 11
59.151296005762127
 21
126.13468182482799
 31
0.0
  0
LINE
  5
B0F5
  8
0
 10
67.150296145296508
 20
126.1246822143443
 30
0.0
 11
59.152296246207271
 21
126.1246822143443
 31
0.0
  0
POLYLINE
  5
B0F8
  8
0
 66
     1
 10
0.0
 20
0.0
 30
0.0
 70
   128
  0
VERTEX
  5
D498
  8
0
 10
51.114467871553217
 20
171.81775470473849
 30
0.0
  0
VERTEX
  5
D499
  8
0
 10
51.113993828362737
 20
171.81739335157951
 30
0.0
  0
VERTEX
  5
D49A
  8
0
 10
51.196739045149599
 20
171.88035075762349
 30
0.0
  0
VERTEX
  5
D49B
  8
0
 10
51.422604327267919
 20
172.04820488789159
 30
0.0
  0
VERTEX
  5
D49C
  8
0
 10
51.751704854137223
 20
172.28273798921191
 30
0.0
  0
VERTEX
  5
D49D
  8
0
 10
52.149600316948209
 20
172.5512382874735
 30
0.0
  0
SEQEND
  5
D49E
  8
0
  0
ARC
  5
B0F9
  8
0
 10
64.722761970536823
 20
158.1455633877643
 30
0.0
 40
17.217802099305711
 50
52.565804892111629
 51
56.790475327076273
  0
ARC
  5
B0FA
  8
0
 10
69.029138693221995
 20
164.67812698468811
 30
0.0
 40
9.393601815036229
 50
56.943755261738282
 51
89.918292740952424
  0
LINE
  5
B0FB
  8
0
 10
69.042534534997259
 20
174.071719248081
 30
0.0
 11
57.26005785650662
 21
174.071719248081
 31
0.0
  0
ARC
  5
B0FC
  8
0
 10
57.273672654637181
 20
164.6773910549494
 30
0.0
 40
9.3943380587988887
 50
90.083036265033343
 51
123.0549157322758
  0
ARC
  5
B0FD
  8
0
 10
56.67003592986012
 20
159.47361098361711
 30
0.0
 40
0.4568918568542175
 50
170.267152164728
 51
259.28654159910451
  0
ARC
  5
B0FF
  8
0
 10
69.632556461643759
 20
159.47361098361711
 30
0.0
 40
0.4568918568542175
 50
280.7134584008972
 51
9.7328478352720325
  0
LINE
  5
B100
  8
0
 10
56.741908625877407
 20
173.16719641187271
 30
0.0
 11
56.219720249242101
 21
159.55085058906161
 31
0.0
  0
LINE
  5
B102
  8
0
 10
70.082872142261778
 20
159.55085058906161
 30
0.0
 11
69.560683765626464
 21
173.16719641187271
 31
0.0
  0
ARC
  5
B103
  8
0
 10
57.735400684426651
 20
173.19875221820061
 30
0.0
 40
0.9939930781013517
 50
118.56891370615131
 51
181.8192464291549
  0
ARC
  5
B104
  8
0
 10
68.567191707077228
 20
173.19875221820061
 30
0.0
 40
0.9939930781013799
 50
358.18075357084842
 51
61.431086293845581
  0
POLYLINE
  5
B107
  8
0
 66
     1
 10
0.0
 20
0.0
 30
0.0
 70
   128
  0
VERTEX
  5
D49F
  8
0
 10
74.403753471738611
 20
159.55085058906161
 30
0.0
  0
VERTEX
  5
D4A0
  8
0
 10
74.401246351367746
 20
159.4496977815875
 30
0.0
  0
VERTEX
  5
D4A1
  8
0
 10
74.388503064579282
 20
159.35162206389981
 30
0.0
  0
VERTEX
  5
D4A2
  8
0
 10
74.366047014660154
 20
159.2606467495211
 30
0.0
  0
VERTEX
  5
D4A3
  8
0
 10
74.334801142281805
 20
159.18050457933029
 30
0.0
  0
VERTEX
  5
D4A4
  8
0
 10
74.296045084661756
 20
159.11448125937071
 30
0.0
  0
VERTEX
  5
D4A5
  8
0
 10
74.251369540757452
 20
159.06528507568919
 30
0.0
  0
VERTEX
  5
D4A6
  8
0
 10
74.202608284718309
 20
159.03493886091789
 30
0.0
  0
VERTEX
  5
D4A7
  8
0
 10
74.151760866112028
 20
159.0246831367262
 30
0.0
  0
SEQEND
  5
D4A8
  8
0
  0
LINE
  5
B108
  8
0
 10
76.123720933861051
 20
159.55085058906161
 30
0.0
 11
54.214321975774077
 21
159.55085058906161
 31
0.0
  0
ARC
  5
B10A
  8
0
 10
54.37716975953893
 20
153.981995870671
 30
0.0
 40
5.5712352557775686
 50
91.675000149108044
 51
116.5917740075953
  0
LINE
  5
B10B
  8
0
 10
51.883313772446428
 20
158.96389757492619
 30
0.0
 11
52.222592723733698
 21
171.79152121045669
 31
0.0
  0
LINE
  5
B10E
  8
0
 10
74.079999667770181
 20
171.79152121045669
 30
0.0
 11
74.403753471738611
 21
159.55085058906161
 31
0.0
  0
ARC
  5
B10F
  8
0
 10
73.442072933072524
 20
172.23617723072749
 30
0.0
 40
0.7776049737527843
 50
325.12222847475698
 51
23.901687931834768
  0
ARC
  5
B110
  8
0
 10
52.860519458431348
 20
172.23617723072749
 30
0.0
 40
0.7776049737527843
 50
156.0983120681652
 51
214.87777152524299
  0
POLYLINE
  5
B117
  8
0
 66
     1
 10
0.0
 20
0.0
 30
0.0
 70
   128
  0
VERTEX
  5
D4A9
  8
0
 10
51.883313772446428
 20
158.96389757492619
 30
0.0
  0
VERTEX
  5
D4AA
  8
0
 10
51.482868348426138
 20
158.75393648841461
 30
0.0
  0
VERTEX
  5
D4AB
  8
0
 10
51.171648283666883
 20
158.4847917149313
 30
0.0
  0
SEQEND
  5
D4AC
  8
0
  0
ARC
  5
B119
  8
0
 10
54.669015799108173
 20
155.38328223212679
 30
0.0
 40
4.6744989688725038
 50
138.43298506955969
 51
165.20115931455371
  0
ARC
  5
B11A
  8
0
 10
46.815681297537729
 20
157.50215171237579
 30
0.0
 40
3.459806583833223
 50
337.0120628873924
 51
344.49506943216983
  0
ARC
  5
BE2B
  8
0
 10
213.15914599779629
 20
147.1174676630236
 30
0.0
 40
13.294028485181011
 50
250.52704968813981
 51
269.21677849899311
  0
ARC
  5
BE2C
  8
0
 10
212.78071714275791
 20
147.20136548890071
 30
0.0
 40
13.378130491656711
 50
270.8424897429361
 51
289.41368206993138
  0
ARC
  5
BE2D
  8
0
 10
204.2807179731542
 20
147.20135825433121
 30
0.0
 40
13.3781232388672
 50
270.84248466432069
 51
289.41368714854713
  0
ARC
  5
BE2E
  8
0
 10
204.65914672837729
 20
147.11747433881999
 30
0.0
 40
13.29403517665467
 50
250.52705443397869
 51
269.21677375315483
  0
ARC
  5
BE93
  8
0
 10
136.17585737339471
 20
53.66258336716605
 30
0.0
 40
3.7076605379467069
 50
222.20306925044261
 51
251.33842704488441
  0
ARC
  5
BE94
  8
0
 10
135.93936049592111
 20
53.085400203187689
 30
0.0
 40
3.085400203187695
 50
252.0696826971936
 51
287.93031730280637
  0
ARC
  5
BE95
  8
0
 10
135.7027197003666
 20
53.662803052174397
 30
0.0
 40
3.707914724193182
 50
288.66259369192232
 51
317.7959100127465
  0
LINE
  5
C916
  8
3
 10
140.43936030220601
 20
141.12468187906819
 30
0.0
 11
140.94936046030739
 21
142.0080280647679
 31
0.0
  0
LINE
  5
C91E
  8
3
 10
131.4393606896362
 20
141.12468187906819
 30
0.0
 11
130.92936053153491
 21
142.0080280647679
 31
0.0
  0
LINE
  5
C91F
  8
1
 10
135.93936049592111
 20
123.1246822143443
 30
0.0
 11
135.93936049592111
 21
177.52468102076131
 31
0.0
  0
LINE
  5
C9AB
  8
3
 10
58.651296389467021
 20
141.12468187906819
 30
0.0
 11
58.651296389467021
 21
138.82468206086239
 31
0.0
  0
LINE
  5
C9AC
  8
3
 10
58.651296389467021
 20
133.82468124129849
 30
0.0
 11
58.651296389467021
 21
126.63468190678439
 31
0.0
  0
LINE
  5
C9AD
  8
3
 10
67.651296002036844
 20
126.63468190678439
 30
0.0
 11
67.651296002036844
 21
133.82468124129849
 31
0.0
  0
LINE
  5
C9AE
  8
3
 10
67.651296002036844
 20
138.82468206086239
 30
0.0
 11
67.651296002036844
 21
141.12468187906819
 31
0.0
  0
LINE
  5
C9AF
  8
3
 10
67.651296002036844
 20
141.12468187906819
 30
0.0
 11
68.161296160138164
 21
142.0080280647679
 31
0.0
  0
LINE
  5
C9B0
  8
3
 10
58.651296389467021
 20
141.12468187906819
 30
0.0
 11
58.1412962313657
 21
142.0080280647679
 31
0.0
  0
LINE
  5
C9B1
  8
1
 10
63.151296195751939
 20
123.1246822143443
 30
0.0
 11
63.151296195751939
 21
177.52468151846011
 31
0.0
  0
LINE
  5
CAE5
  8
3
 10
204.22742498980551
 20
141.12468187906831
 30
0.0
 11
204.22742498980551
 21
138.82468206086239
 31
0.0
  0
LINE
  5
CAE6
  8
3
 10
204.22742498980551
 20
133.82468124129861
 30
0.0
 11
204.22742498980551
 21
126.63468190678439
 31
0.0
  0
LINE
  5
CAE7
  8
3
 10
213.22742460237529
 20
126.63468190678439
 30
0.0
 11
213.22742460237529
 21
133.82468124129861
 31
0.0
  0
LINE
  5
CAE8
  8
3
 10
213.22742460237529
 20
138.82468206086239
 30
0.0
 11
213.22742460237529
 21
141.12468187906831
 31
0.0
  0
LINE
  5
CAE9
  8
3
 10
213.22742460237529
 20
141.12468187906831
 30
0.0
 11
213.73742476047661
 21
142.00802806476801
 31
0.0
  0
LINE
  5
CAEA
  8
3
 10
204.22742498980551
 20
141.12468187906831
 30
0.0
 11
203.71742483170411
 21
142.00802806476801
 31
0.0
  0
LINE
  5
CAEB
  8
1
 10
208.72742479609039
 20
123.1246822143443
 30
0.0
 11
208.72742479609039
 21
177.52468151846011
 31
0.0
  0
CIRCLE
  5
CB3F
  8
0
 10
135.93936049592111
 20
237.497791007937
 30
0.0
 40
5.0
  0
LINE
  5
CB47
  8
1
 10
135.93936049592111
 20
253.6493632849218
 30
0.0
 11
135.93936049592111
 21
221.52468102076131
 31
0.0
  0
LINE
  5
CB48
  8
1
 10
123.12440613311151
 20
237.497791007937
 30
0.0
 11
148.75431485873079
 21
237.497791007937
 31
0.0
  0
LINE
  5
CB76
  8
0
 10
145.75431485873079
 20
63.151572276984822
 30
0.0
 11
140.84683767732599
 21
54.651571815048818
 31
0.0
  0
LINE
  5
CB77
  8
0
 10
126.12440613311151
 20
63.151572276984822
 30
0.0
 11
131.03188331451631
 21
54.651571815048818
 31
0.0
  0
LINE
  5
CB78
  8
0
 10
145.75431485873079
 20
63.151572276984822
 30
0.0
 11
140.84683767732599
 21
71.651572738920819
 31
0.0
  0
LINE
  5
CB79
  8
0
 10
126.12440613311151
 20
63.151572276984822
 30
0.0
 11
131.03188331451631
 21
71.651572738920819
 31
0.0
  0
LINE
  5
CB9C
  8
1
 10
135.93936049592111
 20
46.999999999999979
 30
0.0
 11
135.93936049592111
 21
79.124682214344361
 31
0.0
  0
LINE
  5
CB9D
  8
1
 10
148.75431485873079
 20
63.151572276984822
 30
0.0
 11
123.12440613311151
 21
63.151572276984822
 31
0.0
  0
LINE
  5
CBC5
  8
0
 10
413.98309644111117
 20
134.58387118973809
 30
0.0
 11
415.29805034198489
 21
133.82468124129849
 31
0.0
  0
LINE
  5
CBC6
  8
0
 10
415.29805034198489
 20
138.82468206086239
 30
0.0
 11
413.98309644111117
 21
138.06549211242279
 31
0.0
  0
LINE
  5
CBC7
  8
0
 10
433.61300516673049
 20
138.06549211242279
 30
0.0
 11
432.29805126585688
 21
138.82468206086239
 31
0.0
  0
LINE
  5
CBC8
  8
0
 10
432.29805126585688
 20
133.82468124129849
 30
0.0
 11
433.61300516673049
 21
134.58387118973809
 31
0.0
  0
LINE
  5
CBD1
  8
0
 10
430.79805101998772
 20
152.62468283274251
 30
0.0
 11
430.79805101998772
 21
154.5685832826552
 31
0.0
  0
LINE
  5
CBD2
  8
0
 10
416.79805058785399
 20
154.56858247760559
 30
0.0
 11
416.79805058785399
 21
152.62468283274251
 31
0.0
  0
LINE
  5
CBD4
  8
0
 10
414.79805119135108
 20
150.32468115189161
 30
0.0
 11
414.9980508516046
 21
150.124681491638
 31
0.0
  0
LINE
  5
CBD5
  8
0
 10
432.59805075623723
 20
150.124681491638
 30
0.0
 11
432.7980504164907
 21
150.32468115189161
 31
0.0
  0
LINE
  5
CBD6
  8
0
 10
432.7980504164907
 20
150.32468115189161
 30
0.0
 11
432.7980504164907
 21
152.42468317248901
 31
0.0
  0
LINE
  5
CBD7
  8
0
 10
414.79805119135108
 20
152.42468317248901
 30
0.0
 11
414.79805119135108
 21
150.32468115189161
 31
0.0
  0
LINE
  5
CBD8
  8
0
 10
432.7980504164907
 20
152.42468317248901
 30
0.0
 11
432.59805075623723
 21
152.62468283274251
 31
0.0
  0
LINE
  5
CBD9
  8
0
 10
414.9980508516046
 20
152.62468283274251
 30
0.0
 11
414.79805119135108
 21
152.42468317248901
 31
0.0
  0
LINE
  5
CBDA
  8
0
 10
428.80805076830711
 20
141.12468187906819
 30
0.0
 11
428.80805076830711
 21
143.12468220689379
 31
0.0
  0
LINE
  5
CBDB
  8
0
 10
418.78805083953461
 20
143.12468220689379
 30
0.0
 11
418.78805083953461
 21
141.12468187906819
 31
0.0
  0
LINE
  5
CBDC
  8
0
 10
428.79805069216218
 20
127.13468198874079
 30
0.0
 11
428.79805069216218
 21
133.82468124129849
 31
0.0
  0
LINE
  5
CBDD
  8
0
 10
428.79805069216218
 20
138.82468206086239
 30
0.0
 11
428.79805069216218
 21
141.12468187906819
 31
0.0
  0
LINE
  5
CBDE
  8
0
 10
418.7980509156796
 20
141.12468187906819
 30
0.0
 11
418.7980509156796
 21
138.82468206086239
 31
0.0
  0
LINE
  5
CBDF
  8
0
 10
418.7980509156796
 20
133.82468124129849
 30
0.0
 11
418.7980509156796
 21
127.13468198874079
 31
0.0
  0
LINE
  5
CBE0
  8
0
 10
418.7980509156796
 20
127.13468198874079
 30
0.0
 11
419.79805061393108
 21
126.13468182482799
 31
0.0
  0
LINE
  5
CBE1
  8
0
 10
427.79805099391069
 20
126.13468182482799
 30
0.0
 11
428.79805069216218
 21
127.13468198874079
 31
0.0
  0
LINE
  5
CBE2
  8
0
 10
419.79805061393108
 20
126.1256824547895
 30
0.0
 11
419.79905085437622
 21
126.1246822143443
 31
0.0
  0
LINE
  5
CBE3
  8
0
 10
427.7970507534655
 20
126.1246822143443
 30
0.0
 11
427.79805099391069
 21
126.1256824547895
 31
0.0
  0
LINE
  5
CBE4
  8
0
 10
419.79805061393108
 20
126.13468182482799
 30
0.0
 11
419.79805061393108
 21
126.1256824547895
 31
0.0
  0
LINE
  5
CBE5
  8
0
 10
427.79805099391069
 20
126.1256824547895
 30
0.0
 11
427.79805099391069
 21
126.13468182482799
 31
0.0
  0
ARC
  5
CBE6
  8
0
 10
416.26751653989709
 20
138.7168226473438
 30
0.0
 40
4.8950706031274462
 50
271.98223027853521
 51
302.40203911168197
  0
ARC
  5
CBE7
  8
0
 10
423.97239427232489
 20
151.192452576958
 30
0.0
 40
17.36864637249343
 50
252.9871676375823
 51
269.42486521596072
  0
ARC
  5
CBE8
  8
0
 10
423.5547817699034
 20
121.0113692093292
 30
0.0
 40
17.81497388629883
 50
73.194448939799955
 51
89.217583913739915
  0
ARC
  5
CBE9
  8
0
 10
431.32857227742818
 20
133.9325819943885
 30
0.0
 40
4.8950288458886266
 50
91.982097393532584
 51
122.402171996671
  0
ARC
  5
CBEA
  8
0
 10
423.55595756286522
 20
151.63039365351881
 30
0.0
 40
17.807358132077379
 50
270.77896722138951
 51
286.80899992507563
  0
ARC
  5
CBEB
  8
0
 10
431.34081554112498
 20
138.7563521312818
 30
0.0
 40
4.9350114193683901
 50
237.7239980347378
 51
267.89173257505718
  0
ARC
  5
CBEC
  8
0
 10
423.97134101984409
 20
121.46371905100639
 30
0.0
 40
17.361827845262209
 50
90.571884651455846
 51
107.01608249500551
  0
ARC
  5
CBED
  8
0
 10
416.25529345288862
 20
133.89303504334521
 30
0.0
 40
4.934987291344143
 50
57.723922534677627
 51
87.891808075111726
  0
LINE
  5
CBEE
  8
0
 10
418.890573622516
 20
138.06549211242279
 30
0.0
 11
418.890573622516
 21
134.58387118973809
 31
0.0
  0
LINE
  5
CBEF
  8
0
 10
428.70552798532572
 20
138.06549211242279
 30
0.0
 11
428.70552798532572
 21
134.58387118973809
 31
0.0
  0
ARC
  5
CBF0
  8
0
 10
416.61838328099168
 20
138.75634970604159
 30
0.0
 40
4.9350089865633819
 50
237.72399002639949
 51
267.89173444275281
  0
LINE
  5
CBF1
  8
0
 10
413.98309644111117
 20
138.06549211242279
 30
0.0
 11
413.98309644111117
 21
134.58387118973809
 31
0.0
  0
ARC
  5
CBF2
  8
0
 10
416.6061395600745
 20
133.93258588987649
 30
0.0
 40
4.8950249282616518
 50
91.982090694587484
 51
122.40218483626261
  0
ARC
  5
CBF3
  8
0
 10
430.9899492572743
 20
138.71681875177151
 30
0.0
 40
4.8950666854141627
 50
271.98222357949822
 51
302.40205195134831
  0
ARC
  5
CBF4
  8
0
 10
430.9777257130051
 20
133.8930374685271
 30
0.0
 40
4.934984858598197
 50
57.72391452646616
 51
87.891809942683352
  0
LINE
  5
CBF5
  8
0
 10
433.61300516673049
 20
138.06549211242279
 30
0.0
 11
433.61300516673049
 21
134.58387118973809
 31
0.0
  0
LINE
  5
CBF6
  8
0
 10
432.29805126585688
 20
133.82468124129849
 30
0.0
 11
415.29805034198489
 21
133.82468124129849
 31
0.0
  0
LINE
  5
CBF7
  8
0
 10
432.29805126585688
 20
138.82468206086239
 30
0.0
 11
415.29805034198489
 21
138.82468206086239
 31
0.0
  0
LINE
  5
CBFB
  8
0
 10
432.59805075623723
 20
150.124681491638
 30
0.0
 11
414.9980508516046
 21
150.124681491638
 31
0.0
  0
LINE
  5
CBFC
  8
0
 10
414.9980508516046
 20
152.62468283274251
 30
0.0
 11
432.59805075623723
 21
152.62468283274251
 31
0.0
  0
LINE
  5
CBFD
  8
0
 10
431.3036041127952
 20
150.124681491638
 30
0.0
 11
431.3036041127952
 21
143.12468220689379
 31
0.0
  0
LINE
  5
CBFE
  8
0
 10
427.55082745835813
 20
150.124681491638
 30
0.0
 11
427.55082745835813
 21
143.12468220689379
 31
0.0
  0
LINE
  5
CBFF
  8
0
 10
431.3036041127952
 20
143.12468220689379
 30
0.0
 11
416.29249749504652
 21
143.12468220689379
 31
0.0
  0
LINE
  5
CC00
  8
0
 10
420.0452741494837
 20
150.124681491638
 30
0.0
 11
420.0452741494837
 21
143.12468220689379
 31
0.0
  0
LINE
  5
CC01
  8
0
 10
416.29249749504652
 20
150.124681491638
 30
0.0
 11
416.29249749504652
 21
143.12468220689379
 31
0.0
  0
LINE
  5
CC02
  8
0
 10
428.80805076830711
 20
141.12468187906819
 30
0.0
 11
418.78805083953461
 21
141.12468187906819
 31
0.0
  0
LINE
  5
CC03
  8
0
 10
428.79805069216218
 20
127.13468198874079
 30
0.0
 11
418.7980509156796
 21
127.13468198874079
 31
0.0
  0
LINE
  5
CC04
  8
0
 10
427.79805099391069
 20
126.13468182482799
 30
0.0
 11
419.79805061393108
 21
126.13468182482799
 31
0.0
  0
LINE
  5
CC05
  8
0
 10
427.7970507534655
 20
126.1246822143443
 30
0.0
 11
419.79905085437622
 21
126.1246822143443
 31
0.0
  0
LINE
  5
CC18
  8
3
 10
419.29805099763598
 20
141.12468187906819
 30
0.0
 11
419.29805099763598
 21
138.82468206086239
 31
0.0
  0
LINE
  5
CC19
  8
3
 10
419.29805099763598
 20
133.82468124129849
 30
0.0
 11
419.29805099763598
 21
126.63468190678439
 31
0.0
  0
LINE
  5
CC1A
  8
3
 10
428.29805061020579
 20
126.63468190678439
 30
0.0
 11
428.29805061020579
 21
133.82468124129849
 31
0.0
  0
LINE
  5
CC1B
  8
3
 10
428.29805061020579
 20
138.82468206086239
 30
0.0
 11
428.29805061020579
 21
141.12468187906819
 31
0.0
  0
ARC
  5
CC1C
  8
0
 10
444.65331396181563
 20
218.07337342040171
 30
0.0
 40
19.026890062640469
 50
128.7827620064148
 51
137.03444897474469
  0
ARC
  5
CC1D
  8
0
 10
444.65331396181563
 20
256.92220859547263
 30
0.0
 40
19.026890062640469
 50
222.96555102525519
 51
231.2172379935852
  0
ARC
  5
CC1E
  8
0
 10
423.79805080392089
 20
237.49779100793711
 30
0.0
 40
9.4731099373595242
 50
222.96555102525519
 51
317.03444897474481
  0
ARC
  5
CC1F
  8
0
 10
423.79805080392089
 20
237.49779100793711
 30
0.0
 40
9.4731099373595171
 50
42.965551025255209
 51
137.03444897474469
  0
ARC
  5
CC20
  8
0
 10
402.94278764602609
 20
256.92220859547263
 30
0.0
 40
19.026890062640479
 50
300.31000368289108
 51
317.03444897474481
  0
ARC
  5
CC21
  8
0
 10
402.94278764602609
 20
218.07337342040171
 30
0.0
 40
19.026890062640479
 50
42.965551025255209
 51
59.689996317108893
  0
ARC
  5
CC22
  8
0
 10
414.29805080392077
 20
237.49779100793711
 30
0.0
 40
3.4731099373594998
 50
120.31000368289109
 51
239.68999631710889
  0
LINE
  5
CC70
  8
0
 10
423.14805080215137
 20
237.12251332503109
 30
0.0
 11
423.79805080392089
 21
236.7472356421251
 31
0.0
  0
LINE
  5
CC71
  8
0
 10
423.79805080392089
 20
236.7472356421251
 30
0.0
 11
424.4480508056904
 21
237.12251332503109
 31
0.0
  0
LINE
  5
CC72
  8
0
 10
424.4480508056904
 20
237.12251332503109
 30
0.0
 11
424.4480508056904
 21
237.8730686908431
 31
0.0
  0
LINE
  5
CC73
  8
0
 10
424.4480508056904
 20
237.8730686908431
 30
0.0
 11
423.79805080392089
 21
238.2483463737492
 31
0.0
  0
LINE
  5
CC74
  8
0
 10
423.79805080392089
 20
238.2483463737492
 30
0.0
 11
423.14805080215137
 21
237.8730686908431
 31
0.0
  0
LINE
  5
CC75
  8
0
 10
423.14805080215137
 20
237.8730686908431
 30
0.0
 11
423.14805080215137
 21
237.12251332503109
 31
0.0
  0
CIRCLE
  5
CC76
  8
0
 10
423.79805080392089
 20
237.49779100793711
 30
0.0
 40
2.0000000000000031
  0
ARC
  5
CC77
  8
0
 10
443.08785964717521
 20
220.0353427923427
 30
0.0
 40
16.516932743867109
 50
119.0565675817291
 51
128.8126097756936
  0
ARC
  5
CC78
  8
0
 10
443.08785798786539
 20
254.9602367574355
 30
0.0
 40
16.51692978227042
 50
231.1873893475223
 51
240.94343329505659
  0
POLYLINE
  5
CC79
  8
0
 66
     1
 10
0.0
 20
0.0
 30
0.0
 70
   128
  0
VERTEX
  5
D4AD
  8
0
 10
435.77769871600589
 20
234.9877693344217
 30
0.0
  0
VERTEX
  5
D4AE
  8
0
 10
435.46647865124669
 20
234.7323890429299
 30
0.0
  0
VERTEX
  5
D4AF
  8
0
 10
435.0660332272264
 20
234.47346483621109
 30
0.0
  0
SEQEND
  5
D4B0
  8
0
  0
POLYLINE
  5
CC7A
  8
0
 66
     1
 10
0.0
 20
0.0
 30
0.0
 70
   128
  0
VERTEX
  5
D4B1
  8
0
 10
435.0660332272264
 20
240.5221171796631
 30
0.0
  0
VERTEX
  5
D4B2
  8
0
 10
435.46647865124669
 20
240.2631929729443
 30
0.0
  0
VERTEX
  5
D4B3
  8
0
 10
435.77769871600589
 20
240.00781268145261
 30
0.0
  0
SEQEND
  5
D4B4
  8
0
  0
ARC
  5
CC7B
  8
0
 10
433.28703966392351
 20
237.2612941304634
 30
0.0
 40
3.7076605379467069
 50
18.661572955115449
 51
47.796930749555187
  0
ARC
  5
CC7C
  8
0
 10
433.86422292753417
 20
237.49779100793711
 30
0.0
 40
3.085400203187695
 50
342.06968269719317
 51
17.93031730280677
  0
ARC
  5
CC7D
  8
0
 10
433.28681997891522
 20
237.73443180349159
 30
0.0
 40
3.707914724193182
 50
312.20408998725571
 51
341.33740630807722
  0
ARC
  5
CC7E
  8
0
 10
433.9655151837531
 20
237.49779100793711
 30
0.0
 40
1.86621711843672
 50
296.55248298827871
 51
63.447517011721303
  0
ARC
  5
CC7F
  8
0
 10
443.32374914456148
 20
219.0885627494504
 30
0.0
 40
18.7851322137506
 50
116.9853871286013
 51
136.53637487043511
  0
ARC
  5
CC80
  8
0
 10
423.79805080392089
 20
237.49779100793711
 30
0.0
 40
8.050739316599655
 50
222.96555102525519
 51
317.03444897474481
  0
ARC
  5
CC81
  8
0
 10
404.29517124235542
 20
219.11910869865389
 30
0.0
 40
18.747558832364511
 50
43.44384040283699
 51
63.034397598134341
  0
ARC
  5
CC82
  8
0
 10
413.63058642408862
 20
237.49779100793711
 30
0.0
 40
1.86621711843672
 50
116.5524829882787
 51
243.44751701172291
  0
ARC
  5
CC83
  8
0
 10
404.22882953891519
 20
255.96528044825419
 30
0.0
 40
18.85680319682119
 50
297.02290449978892
 51
316.49885749924113
  0
ARC
  5
CC84
  8
0
 10
423.79805080392089
 20
237.49779100793711
 30
0.0
 40
8.050739316599655
 50
42.965551025255209
 51
137.03444897474469
  0
ARC
  5
CC85
  8
0
 10
443.30093036548652
 20
255.8764733172205
 30
0.0
 40
18.747558832364529
 50
223.443840402837
 51
243.03439759813429
  0
LINE
  5
CC86
  8
0
 10
432.73502502389869
 20
232.90587152618281
 30
0.0
 11
432.73545436360558
 21
232.90533741268629
 31
0.0
  0
LINE
  5
CC87
  8
0
 10
432.73545436360558
 20
242.09024460318801
 30
0.0
 11
432.73502502389869
 21
242.08971048969141
 31
0.0
  0
POLYLINE
  5
CC88
  8
0
 66
     1
 10
0.0
 20
0.0
 30
0.0
 70
   128
  0
VERTEX
  5
D4B5
  8
0
 10
435.73886065218329
 20
65.696004689817784
 30
0.0
  0
VERTEX
  5
D4B6
  8
0
 10
435.45641007307648
 20
65.923175453355086
 30
0.0
  0
VERTEX
  5
D4B7
  8
0
 10
435.0660331774107
 20
66.175898448710583
 30
0.0
  0
SEQEND
  5
D4B8
  8
0
  0
POLYLINE
  5
CC89
  8
0
 66
     1
 10
0.0
 20
0.0
 30
0.0
 70
   128
  0
VERTEX
  5
D4B9
  8
0
 10
435.04082600060588
 20
60.114736813267243
 30
0.0
  0
VERTEX
  5
D4BA
  8
0
 10
435.39114950630551
 20
60.333129861538779
 30
0.0
  0
VERTEX
  5
D4BB
  8
0
 10
435.73895285311818
 20
60.60720552239335
 30
0.0
  0
SEQEND
  5
D4BC
  8
0
  0
ARC
  5
CC8A
  8
0
 10
442.67451427320589
 20
46.315825216607927
 30
0.0
 40
15.76969111605078
 50
118.9517830723892
 51
129.06956424218211
  0
ARC
  5
CC8B
  8
0
 10
444.65331391199959
 20
82.575989864520295
 30
0.0
 40
19.026890062640479
 50
222.9655510252563
 51
231.2172379935852
  0
ARC
  5
CC8C
  8
0
 10
444.65331391199959
 20
43.727154689449357
 30
0.0
 40
19.026890062640479
 50
128.78276200641349
 51
137.0344489747437
  0
ARC
  5
CC8D
  8
0
 10
423.79805075410491
 20
63.151572276984822
 30
0.0
 40
9.4731099373595171
 50
42.965551025256318
 51
56.1976328075975
  0
ARC
  5
CC8E
  8
0
 10
423.79805075410491
 20
63.151572276984822
 30
0.0
 40
9.4731099373595136
 50
63.802373940486198
 51
116.1976260595209
  0
ARC
  5
CC8F
  8
0
 10
423.79805075410491
 20
63.151572276984822
 30
0.0
 40
9.4731099373595171
 50
222.9655510252563
 51
236.19763280759611
  0
ARC
  5
CC90
  8
0
 10
423.79805075410491
 20
63.151572276984822
 30
0.0
 40
9.4731099373595153
 50
303.80236719240389
 51
317.03444897474373
  0
ARC
  5
CC91
  8
0
 10
402.94278759621022
 20
43.727154689449357
 30
0.0
 40
19.026890062640479
 50
42.965551025256318
 51
59.6899963171116
  0
ARC
  5
CC92
  8
0
 10
402.94278759621022
 20
82.575989864520295
 30
0.0
 40
19.026890062640479
 50
300.31000368288841
 51
317.03444897474373
  0
ARC
  5
CC93
  8
0
 10
414.29805075410479
 20
63.151572276984822
 30
0.0
 40
3.4731099373595109
 50
120.31000368288839
 51
239.68999631711159
  0
POLYLINE
  5
CC96
  8
0
 66
     1
 10
0.0
 20
0.0
 30
0.0
 70
   128
  0
VERTEX
  5
D4BD
  8
0
 10
433.69326835904008
 20
64.626546022628915
 30
0.0
  0
VERTEX
  5
D4BE
  8
0
 10
433.10467249188309
 20
64.769236166176853
 30
0.0
  0
VERTEX
  5
D4BF
  8
0
 10
432.62859548638102
 20
64.889812689376001
 30
0.0
  0
SEQEND
  5
D4C0
  8
0
  0
POLYLINE
  5
CC97
  8
0
 66
     1
 10
0.0
 20
0.0
 30
0.0
 70
   128
  0
VERTEX
  5
D4C1
  8
0
 10
433.69326835904008
 20
61.67659853134073
 30
0.0
  0
VERTEX
  5
D4C2
  8
0
 10
433.10467249188309
 20
61.533908387792771
 30
0.0
  0
VERTEX
  5
D4C3
  8
0
 10
432.6285954811529
 20
61.413331838033891
 30
0.0
  0
SEQEND
  5
D4C4
  8
0
  0
ARC
  5
CC98
  8
0
 10
433.36227213553269
 20
63.151572276984822
 30
0.0
 40
1.511656723702665
 50
282.64810636933441
 51
77.351893630665643
  0
POLYLINE
  5
CC99
  8
0
 66
     1
 10
0.0
 20
0.0
 30
0.0
 70
   128
  0
VERTEX
  5
D4C5
  8
0
 10
435.77769866619002
 20
65.661593950500261
 30
0.0
  0
VERTEX
  5
D4C6
  8
0
 10
435.7464788708437
 20
65.690382062604201
 30
0.0
  0
VERTEX
  5
D4C7
  8
0
 10
435.73886065218329
 20
65.696004689817784
 30
0.0
  0
SEQEND
  5
D4C8
  8
0
  0
POLYLINE
  5
CC9A
  8
0
 66
     1
 10
0.0
 20
0.0
 30
0.0
 70
   128
  0
VERTEX
  5
D4C9
  8
0
 10
435.77769866619002
 20
60.641550603469383
 30
0.0
  0
VERTEX
  5
D4CA
  8
0
 10
435.7464788708437
 20
60.612762491365437
 30
0.0
  0
VERTEX
  5
D4CB
  8
0
 10
435.73895285311818
 20
60.60720552239335
 30
0.0
  0
SEQEND
  5
D4CC
  8
0
  0
ARC
  5
CC9C
  8
0
 10
443.08785959735292
 20
80.614020492569168
 30
0.0
 40
16.516932743855229
 50
231.18739022429719
 51
240.9434324182738
  0
LINE
  5
CC9D
  8
0
 10
414.96627314422022
 20
64.883536105190885
 30
0.0
 11
413.90982179376959
 21
64.600461074297783
 31
0.0
  0
ARC
  5
CC9E
  8
0
 10
414.29805075410479
 20
63.151572276984822
 30
0.0
 40
1.499999999999998
 50
104.999999999981
 51
254.99999999999829
  0
LINE
  5
CC9F
  8
0
 10
414.96627314422022
 20
61.41960844877876
 30
0.0
 11
413.90982179376959
 21
61.70268347967184
 31
0.0
  0
CIRCLE
  5
CCA0
  8
0
 10
423.79805075410491
 20
63.151572276984822
 30
0.0
 40
1.639192297674178
  0
CIRCLE
  5
CCA1
  8
0
 10
423.79805075410491
 20
63.151572276984822
 30
0.0
 40
2.5
  0
CIRCLE
  5
CCA2
  8
3
 10
423.79805075410491
 20
63.151572276984822
 30
0.0
 40
4.4999998062849178
  0
CIRCLE
  5
CCA3
  8
0
 10
423.79805075410491
 20
63.151572276984822
 30
0.0
 40
3.2500000000000031
  0
CIRCLE
  5
CCA4
  8
0
 10
423.79805075410491
 20
63.151572276984822
 30
0.0
 40
5.0
  0
ARC
  5
CCA5
  8
0
 10
423.79805075410491
 20
63.151572276984822
 30
0.0
 40
9.0000000000000053
 50
250.8118724937535
 51
289.18812750624647
  0
ARC
  5
CCA8
  8
0
 10
423.79805075410491
 20
63.151572276984822
 30
0.0
 40
9.0000000000000036
 50
70.811872493753455
 51
109.1881275062465
  0
POLYLINE
  5
CCAB
  8
0
 66
     1
 10
0.0
 20
0.0
 30
0.0
 70
   128
  0
VERTEX
  5
D4CD
  8
0
 10
435.73782315883523
 20
62.634388362204199
 30
0.0
  0
VERTEX
  5
D4CE
  8
0
 10
435.69433691385871
 20
62.224905325712179
 30
0.0
  0
VERTEX
  5
D4CF
  8
0
 10
435.6228383484829
 20
61.922844178189997
 30
0.0
  0
SEQEND
  5
D4D0
  8
0
  0
POLYLINE
  5
CCAC
  8
0
 66
     1
 10
0.0
 20
0.0
 30
0.0
 70
   128
  0
VERTEX
  5
D4D1
  8
0
 10
435.73782315883523
 20
63.668756191765439
 30
0.0
  0
VERTEX
  5
D4D2
  8
0
 10
435.75384563240891
 20
63.151572276984602
 30
0.0
  0
VERTEX
  5
D4D3
  8
0
 10
435.73782315883523
 20
62.634388362204199
 30
0.0
  0
SEQEND
  5
D4D4
  8
0
  0
POLYLINE
  5
CCAD
  8
0
 66
     1
 10
0.0
 20
0.0
 30
0.0
 70
   128
  0
VERTEX
  5
D4D5
  8
0
 10
435.6228383484829
 20
64.38030037577964
 30
0.0
  0
VERTEX
  5
D4D6
  8
0
 10
435.69433691385871
 20
64.078239228257459
 30
0.0
  0
VERTEX
  5
D4D7
  8
0
 10
435.73782315883523
 20
63.668756191765439
 30
0.0
  0
SEQEND
  5
D4D8
  8
0
  0
ARC
  5
CCAE
  8
0
 10
430.70339952860797
 20
63.151572276984822
 30
0.0
 40
5.7473520935328013
 50
347.6554337554528
 51
12.34456624454721
  0
ARC
  5
CCAF
  8
0
 10
432.97308227160011
 20
63.254797436838921
 30
0.0
 40
2.9656882422470519
 50
295.90869137156437
 51
333.3126893775181
  0
ARC
  5
CCB0
  8
0
 10
432.9744693403581
 20
63.049753164665091
 30
0.0
 40
2.9638175187079949
 50
26.675067812798108
 51
64.103551438122423
  0
ARC
  5
CCB1
  8
0
 10
433.29035197304842
 20
63.325563231508951
 30
0.0
 40
3.2059847732637921
 50
19.207488117911009
 51
48.211009749482592
  0
ARC
  5
CCB2
  8
0
 10
433.2903546102288
 20
62.977579563064801
 30
0.0
 40
3.2059817040625989
 50
311.78897606320589
 51
340.79252606940219
  0
ARC
  5
CCB3
  8
0
 10
433.31323005620908
 20
63.151572276984822
 30
0.0
 40
0.8901186224030102
 50
284.05618835261532
 51
75.943811647384692
  0
ARC
  5
CCB5
  8
0
 10
442.11097669619659
 20
82.486983777277871
 30
0.0
 40
17.968592054094952
 50
237.3706423484316
 51
246.0403002835555
  0
POLYLINE
  5
CCB6
  8
0
 66
     1
 10
0.0
 20
0.0
 30
0.0
 70
   128
  0
VERTEX
  5
D4D9
  8
0
 10
434.81403964046132
 20
66.066721598764431
 30
0.0
  0
VERTEX
  5
D4DA
  8
0
 10
435.14977863464242
 20
65.895224833076369
 30
0.0
  0
VERTEX
  5
D4DB
  8
0
 10
435.4267856333006
 20
65.715958508809564
 30
0.0
  0
SEQEND
  5
D4DC
  8
0
  0
POLYLINE
  5
CCB7
  8
0
 66
     1
 10
0.0
 20
0.0
 30
0.0
 70
   128
  0
VERTEX
  5
D4DD
  8
0
 10
435.4267856333006
 20
60.58718604516006
 30
0.0
  0
VERTEX
  5
D4DE
  8
0
 10
435.14977863464242
 20
60.407919720893268
 30
0.0
  0
VERTEX
  5
D4DF
  8
0
 10
434.81403964046132
 20
60.236422955205207
 30
0.0
  0
SEQEND
  5
D4E0
  8
0
  0
ARC
  5
CCB8
  8
0
 10
442.10264680396739
 20
43.831634605101883
 30
0.0
 40
17.95106891512588
 50
113.9554601200299
 51
122.6335972479847
  0
LINE
  5
CCB9
  8
0
 10
433.04871794090172
 20
62.17420162284013
 30
0.0
 11
433.5294161218751
 21
62.288105574117523
 31
0.0
  0
LINE
  5
CCBA
  8
0
 10
433.04871797865138
 20
64.128942865744861
 30
0.0
 11
433.5294161218751
 21
64.015038979852122
 31
0.0
  0
ARC
  5
CCBD
  8
0
 10
414.29805079248229
 20
63.151572276984822
 30
0.0
 40
2.9731102228108699
 50
120.3100105971192
 51
239.68998940288071
  0
LINE
  5
CCC0
  8
0
 10
414.54738351215832
 20
64.128942835607162
 30
0.0
 11
414.06668538633471
 21
64.015038979852122
 31
0.0
  0
ARC
  5
CCC1
  8
0
 10
414.28287145200062
 20
63.151572276984822
 30
0.0
 40
0.8901186224030118
 50
104.05618835261529
 51
255.94381164738471
  0
LINE
  5
CCC2
  8
0
 10
414.06668538633471
 20
62.288105574117523
 30
0.0
 11
414.5473835870003
 21
62.17420158873243
 31
0.0
  0
LINE
  5
CCCF
  8
0
 10
503.42245715309912
 20
152.62468283274271
 30
0.0
 11
503.42245715309912
 21
154.5685802886733
 31
0.0
  0
LINE
  5
CCD0
  8
0
 10
489.42245672096539
 20
154.56858028867319
 30
0.0
 11
489.42245672096539
 21
152.62468283274259
 31
0.0
  0
LINE
  5
CCD2
  8
0
 10
505.42245654960209
 20
150.32468115189161
 30
0.0
 11
505.42245654960209
 21
152.42468317248901
 31
0.0
  0
LINE
  5
CCD3
  8
0
 10
487.42245732446241
 20
152.42468317248901
 30
0.0
 11
487.42245732446241
 21
150.32468115189161
 31
0.0
  0
LINE
  5
CCD4
  8
0
 10
505.42245654960209
 20
152.42468317248901
 30
0.0
 11
505.22245688934851
 21
152.62468283274251
 31
0.0
  0
LINE
  5
CCD5
  8
0
 10
487.622456984716
 20
152.62468283274251
 30
0.0
 11
487.42245732446241
 21
152.42468317248901
 31
0.0
  0
LINE
  5
CCD6
  8
0
 10
487.42245732446241
 20
150.32468115189161
 30
0.0
 11
487.622456984716
 21
150.124681491638
 31
0.0
  0
LINE
  5
CCD7
  8
0
 10
505.22245688934851
 20
150.124681491638
 30
0.0
 11
505.42245654960209
 21
150.32468115189161
 31
0.0
  0
LINE
  5
CCD8
  8
0
 10
501.4324569014185
 20
141.12468187906819
 30
0.0
 11
501.4324569014185
 21
143.12468220689379
 31
0.0
  0
LINE
  5
CCD9
  8
0
 10
491.412456972646
 20
143.12468220689379
 30
0.0
 11
491.412456972646
 21
141.12468187906819
 31
0.0
  0
LINE
  5
CCDA
  8
0
 10
501.42245682527351
 20
127.13468198874079
 30
0.0
 11
501.42245682527351
 21
133.82468124129849
 31
0.0
  0
LINE
  5
CCDB
  8
0
 10
501.42245682527351
 20
138.82468206086239
 30
0.0
 11
501.42245682527351
 21
141.12468187906819
 31
0.0
  0
LINE
  5
CCDC
  8
0
 10
491.42245704879099
 20
141.12468187906819
 30
0.0
 11
491.42245704879099
 21
138.82468206086239
 31
0.0
  0
LINE
  5
CCDD
  8
0
 10
491.42245704879099
 20
133.82468124129849
 30
0.0
 11
491.42245704879099
 21
127.13468198874079
 31
0.0
  0
LINE
  5
CCDE
  8
0
 10
491.42245704879099
 20
127.13468198874079
 30
0.0
 11
492.42245674704247
 21
126.13468182482799
 31
0.0
  0
LINE
  5
CCDF
  8
0
 10
500.42245712702208
 20
126.13468182482799
 30
0.0
 11
501.42245682527351
 21
127.13468198874079
 31
0.0
  0
LINE
  5
CCE0
  8
0
 10
492.42245674704247
 20
126.13468182482799
 30
0.0
 11
492.42245674704247
 21
126.1256824547895
 31
0.0
  0
LINE
  5
CCE1
  8
0
 10
500.42245712702208
 20
126.1256824547895
 30
0.0
 11
500.42245712702208
 21
126.13468182482799
 31
0.0
  0
LINE
  5
CCE2
  8
0
 10
492.42245674704247
 20
126.1256824547895
 30
0.0
 11
492.42345698748761
 21
126.1246822143443
 31
0.0
  0
LINE
  5
CCE3
  8
0
 10
500.42145688657689
 20
126.1246822143443
 30
0.0
 11
500.42245712702208
 21
126.1256824547895
 31
0.0
  0
LINE
  5
CCE4
  8
0
 10
487.92245647509628
 20
133.82468124129849
 30
0.0
 11
504.92245739896828
 21
133.82468124129849
 31
0.0
  0
LINE
  5
CCE5
  8
0
 10
496.42245693703228
 20
138.06549211242279
 30
0.0
 11
496.42245693703228
 21
134.58387118973809
 31
0.0
  0
ARC
  5
CCE6
  8
0
 10
500.85417813873829
 20
125.5318956391373
 30
0.0
 40
13.294028485181011
 50
90.783221501005244
 51
109.4729503118628
  0
ARC
  5
CCE7
  8
0
 10
500.47574928369988
 20
125.4479978132602
 30
0.0
 40
13.378130491656711
 50
70.586317930066926
 51
89.157510257063834
  0
ARC
  5
CCE8
  8
0
 10
491.97575011409612
 20
125.4480050478298
 30
0.0
 40
13.3781232388672
 50
70.586312851454338
 51
89.157515335680955
  0
ARC
  5
CCE9
  8
0
 10
492.3541788693193
 20
125.5318889633409
 30
0.0
 40
13.29403517665467
 50
90.783226246845217
 51
109.47294556602429
  0
LINE
  5
CCEA
  8
0
 10
504.92245739896828
 20
138.82468206086239
 30
0.0
 11
504.92245739896828
 21
133.82468124129849
 31
0.0
  0
LINE
  5
CCEB
  8
0
 10
504.92245739896828
 20
138.82468206086239
 30
0.0
 11
487.92245647509628
 21
138.82468206086239
 31
0.0
  0
LINE
  5
CCEC
  8
0
 10
487.92245647509628
 20
133.82468124129849
 30
0.0
 11
487.92245647509628
 21
138.82468206086239
 31
0.0
  0
LINE
  5
CCF1
  8
0
 10
487.622456984716
 20
152.62468283274251
 30
0.0
 11
494.62203413688718
 21
152.62468283274251
 31
0.0
  0
LINE
  5
CCF2
  8
0
 10
505.22245688934851
 20
150.124681491638
 30
0.0
 11
487.622456984716
 21
150.124681491638
 31
0.0
  0
LINE
  5
CCF3
  8
0
 10
502.92245707114267
 20
150.124681491638
 30
0.0
 11
502.92245707114267
 21
143.12468220689379
 31
0.0
  0
LINE
  5
CCF4
  8
0
 10
496.42245693703228
 20
150.124681491638
 30
0.0
 11
496.42245693703228
 21
143.12468220689379
 31
0.0
  0
LINE
  5
CCF5
  8
0
 10
489.92245680292177
 20
150.124681491638
 30
0.0
 11
489.92245680292177
 21
143.12468220689379
 31
0.0
  0
LINE
  5
CCF6
  8
0
 10
502.92245707114267
 20
143.12468220689379
 30
0.0
 11
489.92245680292177
 21
143.12468220689379
 31
0.0
  0
LINE
  5
CCF8
  8
0
 10
501.4324569014185
 20
141.12468187906831
 30
0.0
 11
491.412456972646
 21
141.12468187906819
 31
0.0
  0
LINE
  5
CCF9
  8
0
 10
501.42245682527351
 20
127.13468198874079
 30
0.0
 11
491.42245704879099
 21
127.13468198874079
 31
0.0
  0
LINE
  5
CCFA
  8
0
 10
500.42245712702208
 20
126.13468182482799
 30
0.0
 11
492.42245674704247
 21
126.13468182482799
 31
0.0
  0
LINE
  5
CCFB
  8
0
 10
500.42145688657689
 20
126.1246822143443
 30
0.0
 11
492.42345698748761
 21
126.1246822143443
 31
0.0
  0
ARC
  5
CD64
  8
0
 10
500.85417813873829
 20
147.1174676630236
 30
0.0
 40
13.294028485181011
 50
250.5270496881372
 51
269.21677849899481
  0
ARC
  5
CD65
  8
0
 10
500.47574928369988
 20
147.20136548890071
 30
0.0
 40
13.378130491656711
 50
270.8424897429361
 51
289.41368206993297
  0
ARC
  5
CD66
  8
0
 10
491.97575011409612
 20
147.20135825433121
 30
0.0
 40
13.3781232388672
 50
270.8424846643191
 51
289.4136871485457
  0
ARC
  5
CD67
  8
0
 10
492.3541788693193
 20
147.11747433881999
 30
0.0
 40
13.29403517665467
 50
250.52705443397571
 51
269.21677375315483
  0
ARC
  5
CD68
  8
0
 10
433.28703966392362
 20
63.388069154458471
 30
0.0
 40
3.7076605379467069
 50
312.20306925044127
 51
341.33842704488461
  0
ARC
  5
CD69
  8
0
 10
433.86422282790198
 20
63.151572276984822
 30
0.0
 40
3.085400203187695
 50
342.06968269719317
 51
17.93031730280677
  0
ARC
  5
CD6A
  8
0
 10
433.28681997891528
 20
62.914931481430287
 30
0.0
 40
3.707914724193182
 50
18.662593691922751
 51
47.795910012747761
  0
LINE
  5
CD6B
  8
3
 10
428.29805061020579
 20
141.12468187906819
 30
0.0
 11
428.80805076830711
 21
142.0080280647679
 31
0.0
  0
LINE
  5
CD6C
  8
3
 10
419.29805099763598
 20
141.12468187906819
 30
0.0
 11
418.78805083953461
 21
142.0080280647679
 31
0.0
  0
LINE
  5
CD6D
  8
1
 10
423.79805080392089
 20
118.9246820161589
 30
0.0
 11
423.79805080392089
 21
173.0685816651837
 31
0.0
  0
LINE
  5
CD75
  8
3
 10
491.92245713074738
 20
141.12468187906831
 30
0.0
 11
491.92245713074738
 21
138.82468206086239
 31
0.0
  0
LINE
  5
CD76
  8
3
 10
491.92245713074738
 20
133.82468124129861
 30
0.0
 11
491.92245713074738
 21
126.63468190678439
 31
0.0
  0
LINE
  5
CD77
  8
3
 10
500.92245674331718
 20
126.63468190678439
 30
0.0
 11
500.92245674331718
 21
133.82468124129861
 31
0.0
  0
LINE
  5
CD78
  8
3
 10
500.92245674331718
 20
138.82468206086239
 30
0.0
 11
500.92245674331718
 21
141.12468187906831
 31
0.0
  0
LINE
  5
CD79
  8
3
 10
500.92245674331718
 20
141.12468187906831
 30
0.0
 11
501.4324569014185
 21
142.00802806476801
 31
0.0
  0
LINE
  5
CD7A
  8
3
 10
491.92245713074738
 20
141.12468187906831
 30
0.0
 11
491.412456972646
 21
142.00802806476801
 31
0.0
  0
LINE
  5
CD7B
  8
1
 10
496.42245693703228
 20
118.9246820161589
 30
0.0
 11
496.42245693703228
 21
173.06858189799851
 31
0.0
  0
CIRCLE
  5
CD7C
  8
0
 10
423.79805085373698
 20
237.49779100793711
 30
0.0
 40
5.0
  0
LINE
  5
CD7D
  8
1
 10
439.94962313072182
 20
237.49779100793711
 30
0.0
 11
407.82494086656129
 21
237.49779100793711
 31
0.0
  0
LINE
  5
CD7E
  8
1
 10
423.79805085373698
 20
249.97090094529659
 30
0.0
 11
423.79805085373698
 21
225.0246810705776
 31
0.0
  0
LINE
  5
CD83
  8
1
 10
439.94962303108969
 20
63.151572276984822
 30
0.0
 11
407.82494081674542
 21
63.151572276984822
 31
0.0
  0
LINE
  5
CD84
  8
1
 10
423.79805075410491
 20
75.624682214344361
 30
0.0
 11
423.79805075410491
 21
50.678462339625277
 31
0.0
  0
LINE
  5
CE11
  8
0
 10
358.35130166055342
 20
152.62468283274251
 30
0.0
 11
358.35130166055342
 21
154.5685802886733
 31
0.0
  0
LINE
  5
CE12
  8
0
 10
344.35130122841969
 20
154.5685802886733
 30
0.0
 11
344.35130122841969
 21
152.62468283274251
 31
0.0
  0
LINE
  5
CE13
  8
0
 10
360.35130105705639
 20
152.42468317248901
 30
0.0
 11
360.15130139680292
 21
152.62468283274251
 31
0.0
  0
LINE
  5
CE14
  8
0
 10
342.5513014921703
 20
152.62468283274251
 30
0.0
 11
342.35130183191683
 21
152.42468317248901
 31
0.0
  0
LINE
  5
CE15
  8
0
 10
360.35130105705639
 20
150.32468115189161
 30
0.0
 11
360.35130105705639
 21
152.42468317248901
 31
0.0
  0
LINE
  5
CE16
  8
0
 10
342.35130183191683
 20
152.42468317248901
 30
0.0
 11
342.35130183191683
 21
150.32468115189161
 31
0.0
  0
LINE
  5
CE17
  8
0
 10
342.35130183191683
 20
150.32468115189161
 30
0.0
 11
342.5513014921703
 21
150.124681491638
 31
0.0
  0
LINE
  5
CE18
  8
0
 10
360.15130139680292
 20
150.124681491638
 30
0.0
 11
360.35130105705639
 21
150.32468115189161
 31
0.0
  0
LINE
  5
CE19
  8
0
 10
356.36130140887281
 20
141.12468187906819
 30
0.0
 11
356.36130140887281
 21
143.12468220689379
 31
0.0
  0
LINE
  5
CE1A
  8
0
 10
346.34130148010041
 20
143.12468220689379
 30
0.0
 11
346.34130148010041
 21
141.12468187906819
 31
0.0
  0
LINE
  5
CE1B
  8
0
 10
356.35130133272793
 20
127.13468198874079
 30
0.0
 11
356.35130133272793
 21
133.82468124129849
 31
0.0
  0
LINE
  5
CE1C
  8
0
 10
356.35130133272793
 20
138.82468206086239
 30
0.0
 11
356.35130133272793
 21
141.12468187906819
 31
0.0
  0
LINE
  5
CE1D
  8
0
 10
346.35130155624529
 20
141.12468187906819
 30
0.0
 11
346.35130155624529
 21
138.82468206086239
 31
0.0
  0
LINE
  5
CE1E
  8
0
 10
346.35130155624529
 20
133.82468124129849
 30
0.0
 11
346.35130155624529
 21
127.13468198874079
 31
0.0
  0
LINE
  5
CE1F
  8
0
 10
346.35130155624529
 20
127.13468198874079
 30
0.0
 11
347.35130125449678
 21
126.13468182482799
 31
0.0
  0
LINE
  5
CE20
  8
0
 10
355.35130163447639
 20
126.13468182482799
 30
0.0
 11
356.35130133272793
 21
127.13468198874079
 31
0.0
  0
LINE
  5
CE21
  8
0
 10
347.35130125449678
 20
126.13468182482799
 30
0.0
 11
347.35130125449678
 21
126.1256824547895
 31
0.0
  0
LINE
  5
CE22
  8
0
 10
355.35130163447639
 20
126.1256824547895
 30
0.0
 11
355.35130163447639
 21
126.13468182482799
 31
0.0
  0
LINE
  5
CE23
  8
0
 10
347.35130125449678
 20
126.1256824547895
 30
0.0
 11
347.35230149494191
 21
126.1246822143443
 31
0.0
  0
LINE
  5
CE24
  8
0
 10
355.35030139403119
 20
126.1246822143443
 30
0.0
 11
355.35130163447639
 21
126.1256824547895
 31
0.0
  0
ARC
  5
CE25
  8
0
 10
346.91957200959041
 20
147.1175137530179
 30
0.0
 40
13.294074683413889
 50
270.78325426638622
 51
289.47291754647972
  0
ARC
  5
CE26
  8
0
 10
347.29802103345008
 20
147.20143230542669
 30
0.0
 40
13.37819747646183
 50
250.58636483453219
 51
269.15746335260388
  0
ARC
  5
CE27
  8
0
 10
347.2830233767736
 20
125.5318889633409
 30
0.0
 40
13.29403517665467
 50
90.783226246845217
 51
109.47294556602429
  0
ARC
  5
CE28
  8
0
 10
346.90459462155042
 20
125.4480050478293
 30
0.0
 40
13.37812323886765
 50
70.586312851454338
 51
89.157515335680955
  0
LINE
  5
CE29
  8
0
 10
351.35130144448658
 20
138.06549211242279
 30
0.0
 11
351.35130144448658
 21
134.58387118973809
 31
0.0
  0
ARC
  5
CE2A
  8
0
 10
355.79802020303953
 20
147.20142507077679
 30
0.0
 40
13.378190223590771
 50
250.58635975591349
 51
269.15746843122753
  0
ARC
  5
CE2B
  8
0
 10
355.78302264619248
 20
125.5318956391378
 30
0.0
 40
13.294028485180551
 50
90.783221501005244
 51
109.4729503118628
  0
ARC
  5
CE2C
  8
0
 10
355.41957127900542
 20
147.117520428837
 30
0.0
 40
13.294081374910929
 50
270.78325901221308
 51
289.47291280065667
  0
ARC
  5
CE2D
  8
0
 10
355.40459379115418
 20
125.4479978132602
 30
0.0
 40
13.378130491656711
 50
70.586317930066926
 51
89.157510257063834
  0
LINE
  5
CE2E
  8
0
 10
342.85130098255058
 20
133.82468124129849
 30
0.0
 11
342.85130098255058
 21
138.82468206086239
 31
0.0
  0
LINE
  5
CE2F
  8
0
 10
359.85130190642258
 20
133.82468124129849
 30
0.0
 11
342.85130098255058
 21
133.82468124129849
 31
0.0
  0
LINE
  5
CE30
  8
0
 10
359.85130190642258
 20
138.82468206086239
 30
0.0
 11
342.85130098255058
 21
138.82468206086239
 31
0.0
  0
LINE
  5
CE31
  8
0
 10
359.85130190642258
 20
138.82468206086239
 30
0.0
 11
359.85130190642258
 21
133.82468124129849
 31
0.0
  0
LINE
  5
CE33
  8
0
 10
342.5513014921703
 20
152.62468283274251
 30
0.0
 11
360.15130139680292
 21
152.62468283274251
 31
0.0
  0
LINE
  5
CE34
  8
0
 10
360.15130139680292
 20
150.124681491638
 30
0.0
 11
342.5513014921703
 21
150.124681491638
 31
0.0
  0
LINE
  5
CE35
  8
0
 10
351.35130144448658
 20
150.124681491638
 30
0.0
 11
351.35130144448658
 21
143.12468220689379
 31
0.0
  0
LINE
  5
CE36
  8
0
 10
357.85130157859697
 20
143.12468220689379
 30
0.0
 11
344.85130131037607
 21
143.12468220689379
 31
0.0
  0
LINE
  5
CE37
  8
0
 10
344.85130131037607
 20
150.124681491638
 30
0.0
 11
344.85130131037607
 21
143.12468220689379
 31
0.0
  0
LINE
  5
CE38
  8
0
 10
357.85130157859697
 20
150.124681491638
 30
0.0
 11
357.85130157859697
 21
143.12468220689379
 31
0.0
  0
LINE
  5
CE39
  8
0
 10
356.36130140887281
 20
141.12468187906819
 30
0.0
 11
346.34130148010041
 21
141.12468187906819
 31
0.0
  0
LINE
  5
CE3A
  8
0
 10
356.35130133272793
 20
127.13468198874079
 30
0.0
 11
346.35130155624529
 21
127.13468198874079
 31
0.0
  0
LINE
  5
CE3B
  8
0
 10
355.35130163447639
 20
126.13468182482799
 30
0.0
 11
347.35130125449678
 21
126.13468182482799
 31
0.0
  0
LINE
  5
CE3C
  8
0
 10
355.35030139403108
 20
126.1246822143443
 30
0.0
 11
347.35230149494191
 21
126.1246822143443
 31
0.0
  0
LINE
  5
CE3D
  8
3
 10
346.85130163820168
 20
141.12468187906819
 30
0.0
 11
346.85130163820168
 21
138.82468206086239
 31
0.0
  0
LINE
  5
CE3E
  8
3
 10
346.85130163820168
 20
133.82468124129849
 30
0.0
 11
346.85130163820168
 21
126.63468190678439
 31
0.0
  0
LINE
  5
CE3F
  8
3
 10
355.85130125077148
 20
126.63468190678439
 30
0.0
 11
355.85130125077148
 21
133.82468124129849
 31
0.0
  0
LINE
  5
CE40
  8
3
 10
355.85130125077148
 20
138.82468206086239
 30
0.0
 11
355.85130125077148
 21
141.12468187906819
 31
0.0
  0
LINE
  5
CE41
  8
3
 10
355.85130125077148
 20
141.12468187906819
 30
0.0
 11
356.36130140887281
 21
142.0080280647679
 31
0.0
  0
LINE
  5
CE42
  8
3
 10
346.85130163820168
 20
141.12468187906819
 30
0.0
 11
346.34130148010041
 21
142.0080280647679
 31
0.0
  0
LINE
  5
CE43
  8
1
 10
351.35130144448658
 20
118.9246820161589
 30
0.0
 11
351.35130144448658
 21
173.06857867045991
 31
0.0
  0
ARC
  5
CE44
  8
0
 10
356.35183092920192
 20
159.56857916810591
 30
0.0
 40
10.5
 50
73.109316909685674
 51
90.0
  0
ARC
  5
CE45
  8
0
 10
346.35183092920192
 20
159.56857916810591
 30
0.0
 40
10.5
 50
90.0
 51
106.8906830903143
  0
ARC
  5
CE46
  8
0
 10
360.32494086656141
 20
155.06857916810591
 30
0.0
 40
0.5
 50
270.0
 51
3.0000000000023381
  0
ARC
  5
CE47
  8
0
 10
342.37872099184227
 20
155.06857916810591
 30
0.0
 40
0.5000000000000023
 50
176.99999999999761
 51
270.0
  0
LINE
  5
CE48
  8
0
 10
360.82425602493879
 20
155.0947477410086
 30
0.0
 11
360.1106533852041
 21
168.7110935638197
 31
0.0
  0
LINE
  5
CE49
  8
0
 10
342.59300847319957
 20
168.7110935638197
 30
0.0
 11
341.87940583346489
 21
155.0947477410086
 31
0.0
  0
ARC
  5
CE4A
  8
0
 10
343.59163821418309
 20
168.65875717384139
 30
0.0
 40
0.9999999999999994
 50
106.8906830903143
 51
177.00000000000091
  0
ARC
  5
CE4B
  8
0
 10
359.11202364422059
 20
168.65875717384139
 30
0.0
 40
1.000000000000002
 50
2.9999999999990772
 51
73.109316909685674
  0
LINE
  5
CE4C
  8
0
 10
356.3518308174431
 20
170.06857817270841
 30
0.0
 11
346.35183092920192
 21
170.06857916810591
 31
0.0
  0
LINE
  5
CE4D
  8
0
 10
342.37766242389841
 20
154.5685802886733
 30
0.0
 11
360.3249404650748
 21
154.5685802886733
 31
0.0
  0
ARC
  5
CE4E
  8
0
 10
353.87906657672738
 20
155.0405753629075
 30
0.0
 40
0.4736427115574539
 50
274.78045229251558
 51
6.5675155892083232
  0
ARC
  5
CE4F
  8
0
 10
348.8245952816763
 20
155.0405753629075
 30
0.0
 40
0.473642711557461
 50
173.4324844107916
 51
265.21954770748442
  0
LINE
  5
CE50
  8
0
 10
348.90787797762158
 20
167.33541836240369
 30
0.0
 11
348.35406072219911
 21
155.0947477410086
 31
0.0
  0
LINE
  5
CE51
  8
0
 10
354.34960113620463
 20
155.0947477410086
 30
0.0
 11
353.7957838807821
 21
167.33541836240369
 31
0.0
  0
ARC
  5
CE52
  8
0
 10
351.35183092920192
 20
169.59538833866051
 30
0.0
 40
2.2444560367598339
 50
221.9457030687839
 51
318.05429693121607
  0
ARC
  5
CE53
  8
0
 10
352.61747450018078
 20
166.908785085565
 30
0.0
 40
1.253167566337132
 50
19.903922284650609
 51
71.205704745953994
  0
ARC
  5
CE54
  8
0
 10
350.08618735822301
 20
166.908785085565
 30
0.0
 40
1.2531675663371269
 50
108.79429525404601
 51
160.0960777153494
  0
LINE
  5
CE55
  8
0
 10
359.4025706943691
 20
169.6156164000281
 30
0.0
 11
356.83888085899952
 21
169.6156164000281
 31
0.0
  0
ARC
  5
CE56
  8
0
 10
356.45660886140593
 20
165.02243141732521
 30
0.0
 40
4.609064999050374
 50
85.242470849208345
 51
138.1897847935565
  0
ARC
  5
CE57
  8
0
 10
346.28078890216159
 20
165.1071365922368
 30
0.0
 40
4.527632135279732
 50
41.295857826060633
 51
95.271886531170679
  0
LINE
  5
CE58
  8
0
 10
345.86478099940422
 20
169.6156164000281
 30
0.0
 11
343.30109116403457
 21
169.6156164000281
 31
0.0
  0
ARC
  5
CE59
  8
0
 10
357.36240844724659
 20
155.00970726914039
 30
0.0
 40
0.4534795211095901
 50
283.4037934230526
 51
10.808602978436401
  0
ARC
  5
CE5A
  8
0
 10
345.34125341115708
 20
155.00970726914039
 30
0.0
 40
0.453479521109591
 50
169.1913970215636
 51
256.5962065769474
  0
LINE
  5
CE5B
  8
0
 10
344.8958190229356
 20
155.0947477410086
 30
0.0
 11
345.3821812827706
 21
168.7110935638197
 31
0.0
  0
LINE
  5
CE5C
  8
0
 10
357.32148057563307
 20
168.7110935638197
 30
0.0
 11
357.80784283546808
 21
155.0947477410086
 31
0.0
  0
ARC
  5
CE5D
  8
0
 10
346.38797709673548
 20
168.75546530043189
 30
0.0
 40
1.0067740910448471
 50
121.3105050606827
 51
182.52602548193121
  0
ARC
  5
CE5E
  8
0
 10
356.31568476166819
 20
168.75546530043189
 30
0.0
 40
1.0067740910448499
 50
357.4739745180687
 51
58.689494939317242
  0
LINE
  5
CE5F
  8
0
 10
360.82425602493879
 20
155.0947477410086
 30
0.0
 11
341.87940583346489
 21
155.09474774100849
 31
0.0
  0
ARC
  5
CED5
  8
0
 10
428.79805075198612
 20
159.5685818832273
 30
0.0
 40
10.50000027965506
 50
47.915996642014292
 51
89.999999716605146
  0
ARC
  5
CED6
  8
0
 10
418.79805085585429
 20
159.56858188323099
 30
0.0
 40
10.500000279651371
 50
90.000000283388331
 51
132.0840033579928
  0
ARC
  5
CED7
  8
0
 10
431.08006036643451
 20
149.19622275206501
 30
0.0
 40
5.3790505908442157
 50
55.715119190299802
 51
92.857885512004955
  0
LINE
  5
CED8
  8
0
 10
436.94866176494088
 20
151.69474906089459
 30
0.0
 11
436.16376545079669
 21
166.6714665925756
 31
0.0
  0
ARC
  5
CED9
  8
0
 10
411.32494086656129
 20
155.06858216288239
 30
0.0
 40
0.5
 50
177.00000000000091
 51
270.0
  0
LINE
  5
CEDA
  8
0
 10
411.43233615704497
 20
166.6714665925756
 30
0.0
 11
410.82562606581178
 21
155.094750735785
 31
0.0
  0
ARC
  5
CEDB
  8
0
 10
412.43096229261488
 20
166.6191318050023
 30
0.0
 40
0.999996544310688
 50
132.08389506182851
 51
177.00005667537559
  0
ARC
  5
CEDC
  8
0
 10
435.16513931522701
 20
166.6191318050023
 30
0.0
 40
0.999996544310669
 50
2.9999433246244021
 51
47.916104938171443
  0
ARC
  5
CEDD
  8
0
 10
436.4493475512611
 20
151.66858105697071
 30
0.0
 40
0.4999994484117155
 50
269.99995246030028
 51
3.000006273354098
  0
LINE
  5
CEDE
  8
0
 10
435.75350481816258
 20
151.16858160855921
 30
0.0
 11
436.44934713639941
 21
151.16858160855921
 31
0.0
  0
LINE
  5
CEDF
  8
0
 10
435.44034108319011
 20
151.5047778821245
 30
0.0
 11
435.48456679829093
 21
151.335645977284
 31
0.0
  0
ARC
  5
CEE0
  8
0
 10
435.75350411274371
 20
151.46857909805129
 30
0.0
 40
0.2999974894929556
 50
206.3027431051338
 51
270.00013472619401
  0
LINE
  5
CEFF
  8
0
 10
428.79805080392089
 20
170.06858216288239
 30
0.0
 11
418.7980509156796
 21
170.06858116748481
 31
0.0
  0
LINE
  5
CF00
  8
0
 10
411.32494086656129
 20
154.56858216288239
 30
0.0
 11
430.81186719038197
 21
154.5685832834497
 31
0.0
  0
ARC
  5
CF01
  8
0
 10
431.9277900687801
 20
150.8031030100272
 30
0.0
 40
3.5796972015847919
 50
17.983545316433389
 51
52.436398959570923
  0
POLYLINE
  5
CF02
  8
0
 66
     1
 10
0.0
 20
0.0
 30
0.0
 70
   128
  0
VERTEX
  5
D4E1
  8
0
 10
435.33260196246829
 20
151.90831250312479
 30
0.0
  0
VERTEX
  5
D4E2
  8
0
 10
435.401291658959
 20
151.66627666714339
 30
0.0
  0
VERTEX
  5
D4E3
  8
0
 10
435.44034108319011
 20
151.5047778821245
 30
0.0
  0
SEQEND
  5
D4E4
  8
0
  0
ARC
  5
CF0E
  8
0
 10
425.3695165787089
 20
153.68946353449451
 30
0.0
 40
17.217802099298488
 50
52.565804892104389
 51
56.790475327069203
  0
ARC
  5
CF0F
  8
0
 10
429.67731853507343
 20
160.22681745526779
 30
0.0
 40
9.3888095707233603
 50
56.935099383974588
 51
89.926948618713695
  0
LINE
  5
CF10
  8
0
 10
429.68928914316621
 20
169.6156193948045
 30
0.0
 11
417.90681246467562
 21
169.6156193948045
 31
0.0
  0
ARC
  5
CF11
  8
0
 10
417.92042726280602
 20
160.2212912016729
 30
0.0
 40
9.3943380587988976
 50
90.083036265030046
 51
123.0549157322784
  0
POLYLINE
  5
CF12
  8
0
 66
     1
 10
0.0
 20
0.0
 30
0.0
 70
   128
  0
VERTEX
  5
D4E5
  8
0
 10
412.7963549251171
 20
168.095138434197
 30
0.0
  0
VERTEX
  5
D4E6
  8
0
 10
412.39845946230611
 20
167.8266381359353
 30
0.0
  0
VERTEX
  5
D4E7
  8
0
 10
412.06935893543692
 20
167.59210503461509
 30
0.0
  0
VERTEX
  5
D4E8
  8
0
 10
411.84349365331849
 20
167.42425090434699
 30
0.0
  0
VERTEX
  5
D4E9
  8
0
 10
411.76074843653169
 20
167.36129349830301
 30
0.0
  0
SEQEND
  5
D4EA
  8
0
  0
ARC
  5
CF13
  8
0
 10
430.27931106981271
 20
155.01751113034061
 30
0.0
 40
0.4568918568542149
 50
280.7134584008972
 51
9.7328478352720325
  0
ARC
  5
CF14
  8
0
 10
417.31679053802912
 20
155.01751113034061
 30
0.0
 40
0.4568918568542401
 50
170.267152164728
 51
259.2865415991028
  0
LINE
  5
CF15
  8
0
 10
417.38866323404631
 20
168.71109655859621
 30
0.0
 11
416.86647485741099
 21
155.094750735785
 31
0.0
  0
LINE
  5
CF16
  8
0
 10
430.72962675043073
 20
155.094750735785
 30
0.0
 11
430.20743837379541
 21
168.71109655859621
 31
0.0
  0
ARC
  5
CF17
  8
0
 10
418.3821552925956
 20
168.74265236492411
 30
0.0
 40
0.9939930781013409
 50
118.5689137061544
 51
181.8192464291549
  0
ARC
  5
CF18
  8
0
 10
429.21394631524618
 20
168.74265236492411
 30
0.0
 40
0.9939930781013341
 50
358.18075357084842
 51
61.431086293845581
  0
LINE
  5
CF19
  8
0
 10
432.73502502389869
 20
155.094750735785
 30
0.0
 11
410.82562606581178
 21
155.0947507357852
 31
0.0
  0
POLYLINE
  5
CF1A
  8
0
 66
     1
 10
0.0
 20
0.0
 30
0.0
 70
   128
  0
VERTEX
  5
D4EB
  8
0
 10
412.54559352793422
 20
155.094750735785
 30
0.0
  0
VERTEX
  5
D4EC
  8
0
 10
412.54810064830508
 20
154.99359792831089
 30
0.0
  0
VERTEX
  5
D4ED
  8
0
 10
412.56084393509349
 20
154.89552221062331
 30
0.0
  0
VERTEX
  5
D4EE
  8
0
 10
412.58329998501267
 20
154.8045468962446
 30
0.0
  0
VERTEX
  5
D4EF
  8
0
 10
412.61454585739102
 20
154.72440472605371
 30
0.0
  0
VERTEX
  5
D4F0
  8
0
 10
412.65330191501113
 20
154.65838140609409
 30
0.0
  0
VERTEX
  5
D4F1
  8
0
 10
412.69797745891537
 20
154.60918522241261
 30
0.0
  0
VERTEX
  5
D4F2
  8
0
 10
412.74673871495452
 20
154.57883900764131
 30
0.0
  0
VERTEX
  5
D4F3
  8
0
 10
412.7975861335608
 20
154.5685832834497
 30
0.0
  0
SEQEND
  5
D4F4
  8
0
  0
LINE
  5
CF1B
  8
0
 10
434.72675427593907
 20
167.33542135718011
 30
0.0
 11
435.0660332272264
 21
154.50779772164969
 31
0.0
  0
ARC
  5
CF1C
  8
0
 10
432.57267010965012
 20
149.52785338511879
 30
0.0
 40
5.5692643348144362
 50
63.403746199203027
 51
88.329479644094633
  0
LINE
  5
CF1D
  8
0
 10
412.54559352793422
 20
155.094750735785
 30
0.0
 11
412.86934733190259
 21
167.33542135718011
 31
0.0
  0
ARC
  5
CF1E
  8
0
 10
434.08882754124153
 20
167.78007737745099
 30
0.0
 40
0.7776049737527723
 50
325.12222847475351
 51
23.901687931834768
  0
ARC
  5
CF1F
  8
0
 10
413.5072740666003
 20
167.78007737745099
 30
0.0
 40
0.7776049737528104
 50
156.0983120681652
 51
214.87777152524549
  0
POLYLINE
  5
CF20
  8
0
 66
     1
 10
0.0
 20
0.0
 30
0.0
 70
   128
  0
VERTEX
  5
D4F5
  8
0
 10
435.77769871600589
 20
154.02869186165481
 30
0.0
  0
VERTEX
  5
D4F6
  8
0
 10
435.46647865124669
 20
154.29783663513811
 30
0.0
  0
VERTEX
  5
D4F7
  8
0
 10
435.0660332272264
 20
154.50779772164969
 30
0.0
  0
SEQEND
  5
D4F8
  8
0
  0
POLYLINE
  5
CF21
  8
0
 66
     1
 10
0.0
 20
0.0
 30
0.0
 70
   128
  0
VERTEX
  5
D4F9
  8
0
 10
436.79977029361447
 20
152.12117186548861
 30
0.0
  0
VERTEX
  5
D4FA
  8
0
 10
436.8552165830942
 20
151.9401525593058
 30
0.0
  0
VERTEX
  5
D4FB
  8
0
 10
436.90463069625821
 20
151.8041533863798
 30
0.0
  0
VERTEX
  5
D4FC
  8
0
 10
436.93711988427373
 20
151.72222307684569
 30
0.0
  0
VERTEX
  5
D4FD
  8
0
 10
436.94866176494088
 20
151.69474906089459
 30
0.0
  0
VERTEX
  5
D4FE
  8
0
 10
436.94861240484443
 20
151.69486827018409
 30
0.0
  0
SEQEND
  5
D4FF
  8
0
  0
ARC
  5
CF22
  8
0
 10
432.25951061506458
 20
150.91602646504001
 30
0.0
 40
4.6974816002715398
 50
14.86553133552253
 51
41.500324280368389
  0
LINE
  5
CF2F
  8
0
 10
421.29805085980018
 20
125.6246821323879
 30
0.0
 11
422.15885846209397
 21
122.4121040033646
 31
0.0
  0
LINE
  5
CF30
  8
0
 10
425.43724314574769
 20
122.4121040033646
 30
0.0
 11
426.29805074804148
 21
125.6246821323879
 31
0.0
  0
LINE
  5
CF31
  8
0
 10
421.29805085980018
 20
126.1246822143443
 30
0.0
 11
421.29805085980018
 21
125.6246821323879
 31
0.0
  0
LINE
  5
CF32
  8
0
 10
426.29805074804148
 20
125.6246821323879
 30
0.0
 11
426.29805074804148
 21
126.1246822143443
 31
0.0
  0
ARC
  5
CF33
  8
0
 10
423.79805080392089
 20
124.9246820161589
 30
0.0
 40
2.999999999999992
 50
236.8797865257537
 51
303.1202111032527
  0
LINE
  5
CF34
  8
0
 10
422.15885846209397
 20
122.4121040033646
 30
0.0
 11
425.43724314574769
 21
122.4121040033646
 31
0.0
  0
LINE
  5
CF35
  8
0
 10
421.29805085980018
 20
125.6246821323879
 30
0.0
 11
426.29805074804148
 21
125.6246821323879
 31
0.0
  0
LINE
  5
CFE7
  8
0
 10
493.92245699291158
 20
126.1246822143443
 30
0.0
 11
493.92245699291158
 21
125.6246821323879
 31
0.0
  0
LINE
  5
CFE8
  8
0
 10
498.92245688115293
 20
125.6246821323879
 30
0.0
 11
498.92245688115293
 21
126.1246822143443
 31
0.0
  0
LINE
  5
CFE9
  8
0
 10
493.92245699291158
 20
125.6246821323879
 30
0.0
 11
494.78326459520542
 21
122.4121040033646
 31
0.0
  0
LINE
  5
CFEA
  8
0
 10
498.06164927885908
 20
122.4121040033646
 30
0.0
 11
498.92245688115293
 21
125.6246821323879
 31
0.0
  0
ARC
  5
CFEB
  8
0
 10
496.42245693703228
 20
124.9246820161589
 30
0.0
 40
3.0000000000000049
 50
236.87978889674741
 51
303.1202111032527
  0
LINE
  5
CFEC
  8
0
 10
493.92245699291158
 20
125.6246821323879
 30
0.0
 11
498.92245688115293
 21
125.624682132388
 31
0.0
  0
LINE
  5
CFED
  8
0
 10
494.78326459520542
 20
122.4121040033646
 30
0.0
 11
498.06164927885908
 21
122.4121040033646
 31
0.0
  0
ARC
  5
CFFD
  8
0
 10
501.42245693703228
 20
159.5685820161589
 30
0.0
 40
10.50000000000002
 50
73.109316909683258
 51
90.0
  0
ARC
  5
CFFE
  8
0
 10
491.42245693703228
 20
159.5685820161589
 30
0.0
 40
10.50000000000002
 50
90.0
 51
106.8906830903167
  0
ARC
  5
CFFF
  8
0
 10
487.4493469996728
 20
155.0685820161589
 30
0.0
 40
0.5
 50
177.00000000000091
 51
270.0
  0
ARC
  5
D000
  8
0
 10
505.39556687439182
 20
155.0685820161589
 30
0.0
 40
0.5
 50
270.0
 51
2.9999999999990772
  0
LINE
  5
D001
  8
0
 10
505.8948820327692
 20
155.0947514662989
 30
0.0
 11
505.18127939303452
 21
168.71109728911
 31
0.0
  0
LINE
  5
D002
  8
0
 10
487.66363448102999
 20
168.71109728911
 30
0.0
 11
486.9500318412953
 21
155.0947514662989
 31
0.0
  0
ARC
  5
D003
  8
0
 10
504.182649652051
 20
168.65876002189441
 30
0.0
 40
1.000000000000024
 50
2.9999999999990772
 51
73.109316909683258
  0
ARC
  5
D004
  8
0
 10
488.66226422201362
 20
168.65876002189441
 30
0.0
 40
1.000000000000024
 50
106.8906830903167
 51
177.00000000000091
  0
ARC
  5
D005
  8
0
 10
496.42245693703228
 20
152.66857911666139
 30
0.0
 40
1.4999977629076511
 50
214.99987580837779
 51
325.00012419162567
  0
POLYLINE
  5
D006
  8
0
 66
     1
 10
0.0
 20
0.0
 30
0.0
 70
   128
  0
VERTEX
  5
D500
  8
0
 10
493.85807070520752
 20
153.71573467948519
 30
0.0
  0
VERTEX
  5
D501
  8
0
 10
494.25029883732128
 20
153.1555739531764
 30
0.0
  0
VERTEX
  5
D502
  8
0
 10
494.70030435931909
 20
152.51290177204689
 30
0.0
  0
VERTEX
  5
D503
  8
0
 10
495.1937288382374
 20
151.80821840860921
 30
0.0
  0
SEQEND
  5
D504
  8
0
  0
POLYLINE
  5
D007
  8
0
 66
     1
 10
0.0
 20
0.0
 30
0.0
 70
   128
  0
VERTEX
  5
D505
  8
0
 10
497.6511850358271
 20
151.80821840860921
 30
0.0
  0
VERTEX
  5
D506
  8
0
 10
498.14447063126647
 20
152.5127006063708
 30
0.0
  0
VERTEX
  5
D507
  8
0
 10
498.59451701504219
 20
153.1554361174353
 30
0.0
  0
VERTEX
  5
D508
  8
0
 10
498.98684316885698
 20
153.71573467948519
 30
0.0
  0
SEQEND
  5
D509
  8
0
  0
LINE
  5
D008
  8
0
 10
501.42245682527351
 20
170.06858189799871
 30
0.0
 11
491.42245704879099
 21
170.06858189799871
 31
0.0
  0
POLYLINE
  5
D009
  8
0
 66
     1
 10
0.0
 20
0.0
 30
0.0
 70
   128
  0
VERTEX
  5
D50A
  8
0
 10
493.50730761525261
 20
154.09901862242299
 30
0.0
  0
VERTEX
  5
D50B
  8
0
 10
493.67880438094068
 20
153.93650283315259
 30
0.0
  0
VERTEX
  5
D50C
  8
0
 10
493.85807070520752
 20
153.71573467948519
 30
0.0
  0
SEQEND
  5
D50D
  8
0
  0
POLYLINE
  5
D00A
  8
0
 66
     1
 10
0.0
 20
0.0
 30
0.0
 70
   128
  0
VERTEX
  5
D50E
  8
0
 10
498.98684316885698
 20
153.71573467948519
 30
0.0
  0
VERTEX
  5
D50F
  8
0
 10
499.16610949312383
 20
153.93650283315259
 30
0.0
  0
VERTEX
  5
D510
  8
0
 10
499.33760625881189
 20
154.09901862242299
 30
0.0
  0
SEQEND
  5
D511
  8
0
  0
ARC
  5
D00B
  8
0
 10
492.2197716219809
 20
152.5685904818445
 30
0.0
 40
1.9999898068353339
 50
49.926387514504029
 51
90.000146852980308
  0
ARC
  5
D00C
  8
0
 10
500.62513876144538
 20
152.5686000531974
 30
0.0
 40
1.999980235494351
 50
89.999753145903924
 51
130.07371248660971
  0
LINE
  5
D00D
  8
0
 10
500.62514737819367
 20
154.5685802886733
 30
0.0
 11
505.39556687439182
 21
154.5685820161589
 31
0.0
  0
LINE
  5
D00F
  8
0
 10
487.44934740115929
 20
154.5685802886733
 30
0.0
 11
492.2197716219809
 21
154.5685802886733
 31
0.0
  0
ARC
  5
D012
  8
0
 10
496.42245693703228
 20
152.95377461885599
 30
0.0
 40
1.2631239859133001
 50
221.23591440938091
 51
318.76408559062253
  0
POLYLINE
  5
D014
  8
0
 66
     1
 10
0.0
 20
0.0
 30
0.0
 70
   128
  0
VERTEX
  5
D512
  8
0
 10
493.91243526351678
 20
154.02869259216871
 30
0.0
  0
VERTEX
  5
D513
  8
0
 10
493.65705497202509
 20
154.2978373656519
 30
0.0
  0
VERTEX
  5
D514
  8
0
 10
493.39813076530629
 20
154.50779472687319
 30
0.0
  0
SEQEND
  5
D515
  8
0
  0
LINE
  5
D015
  8
0
 10
493.97850398545199
 20
167.33542208769401
 30
0.0
 11
493.39813076530629
 21
154.50779472687319
 31
0.0
  0
LINE
  5
D017
  8
0
 10
499.44678310875821
 20
154.50779472687319
 30
0.0
 11
498.86640988861251
 21
167.33542208769401
 31
0.0
  0
POLYLINE
  5
D018
  8
0
 66
     1
 10
0.0
 20
0.0
 30
0.0
 70
   128
  0
VERTEX
  5
D516
  8
0
 10
499.44678310875821
 20
154.50779472687319
 30
0.0
  0
VERTEX
  5
D517
  8
0
 10
499.18785890203941
 20
154.2978373656519
 30
0.0
  0
VERTEX
  5
D518
  8
0
 10
498.93247861054772
 20
154.02869259216871
 30
0.0
  0
SEQEND
  5
D519
  8
0
  0
POLYLINE
  5
D019
  8
0
 66
     1
 10
0.0
 20
0.0
 30
0.0
 70
   128
  0
VERTEX
  5
D51A
  8
0
 10
498.93247861054772
 20
154.02869259216871
 30
0.0
  0
VERTEX
  5
D51B
  8
0
 10
498.7187570763104
 20
153.7682761738547
 30
0.0
  0
VERTEX
  5
D51C
  8
0
 10
498.4803252258622
 20
153.47735707857689
 30
0.0
  0
VERTEX
  5
D51D
  8
0
 10
498.21712566644931
 20
153.155931581045
 30
0.0
  0
VERTEX
  5
D51E
  8
0
 10
497.8221452432968
 20
152.67267574765759
 30
0.0
  0
VERTEX
  5
D51F
  8
0
 10
497.372328546951
 20
152.1211725960024
 30
0.0
  0
SEQEND
  5
D520
  8
0
  0
POLYLINE
  5
D01A
  8
0
 66
     1
 10
0.0
 20
0.0
 30
0.0
 70
   128
  0
VERTEX
  5
D521
  8
0
 10
495.47258532711351
 20
152.1211725960024
 30
0.0
  0
VERTEX
  5
D522
  8
0
 10
495.16667449952149
 20
152.496402461315
 30
0.0
  0
VERTEX
  5
D523
  8
0
 10
494.88500611496198
 20
152.84132336475929
 30
0.0
  0
VERTEX
  5
D524
  8
0
 10
494.6277882076152
 20
153.155931581045
 30
0.0
  0
VERTEX
  5
D525
  8
0
 10
494.24228340958291
 20
153.62661828496539
 30
0.0
  0
VERTEX
  5
D526
  8
0
 10
493.91243526351678
 20
154.02869259216871
 30
0.0
  0
SEQEND
  5
D527
  8
0
  0
ARC
  5
D01D
  8
0
 10
495.15681960489047
 20
166.90878245000761
 30
0.0
 40
1.2531755980140451
 50
108.79447159366541
 51
160.09590137573329
  0
ARC
  5
D01E
  8
0
 10
496.42245693703228
 20
169.5953920639507
 30
0.0
 40
2.2444560367598339
 50
221.94570306878489
 51
318.05429693121499
  0
ARC
  5
D01F
  8
0
 10
497.68809426917409
 20
166.90878245000761
 30
0.0
 40
1.253175598014072
 50
19.90409862426668
 51
71.205528406334537
  0
ARC
  5
D020
  8
0
 10
491.3259626856543
 20
165.0432340697491
 30
0.0
 40
4.5890356262629739
 50
41.685608855210752
 51
94.882135502018244
  0
LINE
  5
D021
  8
0
 10
490.93540700723457
 20
169.6156201253184
 30
0.0
 11
488.37171717186499
 21
169.6156201253184
 31
0.0
  0
LINE
  5
D022
  8
0
 10
504.47319670219952
 20
169.6156201253184
 30
0.0
 11
501.90950686682987
 21
169.6156201253184
 31
0.0
  0
ARC
  5
D023
  8
0
 10
501.52723868856191
 20
165.0224255529323
 30
0.0
 40
4.609074238924074
 50
85.242528051169515
 51
138.18972759159911
  0
ARC
  5
D024
  8
0
 10
493.77742875147271
 20
154.39013084138051
 30
0.0
 40
0.3971293898204383
 50
162.7653313394496
 51
227.1419612595713
  0
ARC
  5
D025
  8
0
 10
499.0674851225919
 20
154.39013084138051
 30
0.0
 40
0.3971293898204383
 50
312.8580387404287
 51
17.234668660550408
  0
LINE
  5
D026
  8
0
 10
491.83053745527798
 20
155.0947514662989
 30
0.0
 11
486.9500318412953
 21
155.0947514662989
 31
0.0
  0
LINE
  5
D027
  8
0
 10
489.96644503076601
 20
155.0947514662989
 30
0.0
 11
490.45280729060107
 21
168.71109728911
 31
0.0
  0
ARC
  5
D029
  8
0
 10
491.8281232856059
 20
152.70152920361039
 30
0.0
 40
2.3932234803383929
 50
49.002803935325538
 51
89.942202741267906
  0
ARC
  5
D02A
  8
0
 10
501.01680629269458
 20
152.7014872620947
 30
0.0
 40
2.393265437725669
 50
90.0581722116588
 51
130.9968211117469
  0
LINE
  5
D02C
  8
0
 10
502.39210658346349
 20
168.71109728911
 30
0.0
 11
502.87846884329849
 21
155.0947514662989
 31
0.0
  0
LINE
  5
D02D
  8
0
 10
505.8948820327692
 20
155.0947514662989
 30
0.0
 11
501.01437641878658
 21
155.0947514662989
 31
0.0
  0
ARC
  5
D030
  8
0
 10
491.4586031045659
 20
168.75546902572219
 30
0.0
 40
1.0067740910448379
 50
121.31050506068151
 51
182.52602548193121
  0
ARC
  5
D031
  8
0
 10
501.38631076949861
 20
168.75546902572219
 30
0.0
 40
1.006774091044857
 50
357.4739745180687
 51
58.689494939317242
  0
ARC
  5
D032
  8
0
 10
502.43302546351219
 20
155.0097136867231
 30
0.0
 40
0.4534878482943056
 50
283.40471055466628
 51
10.808055816730651
  0
ARC
  5
D033
  8
0
 10
490.41188841055242
 20
155.0097136867231
 30
0.0
 40
0.4534878482943056
 50
169.1919441832693
 51
256.59528944533361
  0
LINE
  5
D0D0
  8
0
 10
498.22288110518338
 20
152.62468283274259
 30
0.0
 11
505.22245688934851
 21
152.62468283274259
 31
0.0
  0
LINE
  5
D1F0
  8
0
 10
418.89057357270008
 20
54.651571815048818
 30
0.0
 11
413.9830986609515
 21
63.151572276984822
 31
0.0
  0
LINE
  5
D1F2
  8
0
 10
428.70552793550968
 20
54.651571815048818
 30
0.0
 11
433.6130028472582
 21
63.151572276984822
 31
0.0
  0
LINE
  5
D1F3
  8
0
 10
428.70552793550968
 20
71.651572738920819
 30
0.0
 11
433.6130028472582
 21
63.151572276984822
 31
0.0
  0
LINE
  5
D1F4
  8
0
 10
418.89057357270008
 20
71.651572738920819
 30
0.0
 11
413.9830986609515
 21
63.151572276984822
 31
0.0
  0
ARC
  5
D270
  8
0
 10
423.79805075410491
 20
63.151572276984822
 30
0.0
 40
9.4731099373595171
 50
243.8023739404791
 51
296.19762605951382
  0
ARC
  5
D271
  8
0
 10
423.79805075410491
 20
63.151572276984822
 30
0.0
 40
9.4731099373595136
 50
123.80236719240391
 51
137.0344489747437
  0
ARC
  5
D28E
  8
0
 10
316.23347727624088
 20
298.69819198422891
 30
0.0
 40
265.761572310904
 50
295.8277083209224
 51
296.36834927595089
  0
ARC
  5
D2BB
  8
0
 10
441.41053263177361
 20
83.206550068393085
 30
0.0
 40
18.892422823851451
 50
240.19249267938559
 51
247.78919073398251
  0
POLYLINE
  5
D2C8
  8
0
 66
     1
 10
0.0
 20
0.0
 30
0.0
 70
   128
  0
VERTEX
  5
D528
  8
0
 10
432.42226915839802
 20
58.948881835823428
 30
0.0
  0
VERTEX
  5
D529
  8
0
 10
431.35875931415438
 20
58.029490900372629
 30
0.0
  0
VERTEX
  5
D52A
  8
0
 10
430.6782068228128
 20
57.349550864561238
 30
0.0
  0
SEQEND
  5
D52B
  8
0
  0
ARC
  5
D2C9
  8
0
 10
403.07484268671249
 20
43.915340738873148
 30
0.0
 40
19.297791415564699
 50
44.433905538738003
 51
59.746500116746439
  0
ARC
  5
D2CB
  8
0
 10
402.94643447492319
 20
82.571434512965467
 30
0.0
 40
19.521116645346179
 50
300.30750971021052
 51
315.3472116045931
  0
POLYLINE
  5
D2CC
  8
0
 66
     1
 10
0.0
 20
0.0
 30
0.0
 70
   128
  0
VERTEX
  5
D52C
  8
0
 10
430.67820682281291
 20
68.953593689408351
 30
0.0
  0
VERTEX
  5
D52D
  8
0
 10
431.35875931415438
 20
68.273653653597009
 30
0.0
  0
VERTEX
  5
D52E
  8
0
 10
432.42226915839802
 20
67.354262718146217
 30
0.0
  0
SEQEND
  5
D52F
  8
0
  0
ENDSEC
  0
EOF
