  0
SECTION
  2
HEADER
  9
$ACADVER
  1
AC1009
  9
$INSBASE
 10
0.0
 20
0.0
 30
0.0
  9
$EXTMIN
 10
0.0
 20
-2.960436562073669
 30
0.0
  9
$EXTMAX
 10
535.21152205891781
 20
275.65254238170888
 30
0.0
  9
$LIMMIN
 10
0.0
 20
0.0
  9
$LIMMAX
 10
187.5
 20
135.0
  9
$ORTHOMODE
 70
     1
  9
$REGENMODE
 70
     1
  9
$FILLMODE
 70
     1
  9
$QTEXTMODE
 70
     0
  9
$MIRRTEXT
 70
     0
  9
$DRAGMODE
 70
     2
  9
$LTSCALE
 40
5.0
  9
$OSMODE
 70
    37
  9
$ATTMODE
 70
     1
  9
$TEXTSIZE
 40
4.0
  9
$TRACEWID
 40
0.05
  9
$TEXTSTYLE
  7
STANDARD
  9
$CLAYER
  8
0
  9
$CELTYPE
  6
BYLAYER
  9
$CECOLOR
 62
   256
  9
$DIMSCALE
 40
1.0
  9
$DIMASZ
 40
3.0
  9
$DIMEXO
 40
2.0
  9
$DIMDLI
 40
0.38
  9
$DIMRND
 40
0.0
  9
$DIMDLE
 40
0.0
  9
$DIMEXE
 40
2.0
  9
$DIMTP
 40
0.0
  9
$DIMTM
 40
0.0
  9
$DIMTXT
 40
3.2000000000000002
  9
$DIMCEN
 40
0.0
  9
$DIMTSZ
 40
0.0
  9
$DIMTOL
 70
     0
  9
$DIMLIM
 70
     0
  9
$DIMTIH
 70
     0
  9
$DIMTOH
 70
     0
  9
$DIMSE1
 70
     0
  9
$DIMSE2
 70
     0
  9
$DIMTAD
 70
     1
  9
$DIMZIN
 70
     8
  9
$DIMBLK
  1

  9
$DIMASO
 70
     0
  9
$DIMSHO
 70
     0
  9
$DIMPOST
  1

  9
$DIMAPOST
  1

  9
$DIMALT
 70
     0
  9
$DIMALTD
 70
     2
  9
$DIMALTF
 40
25.399999999999999
  9
$DIMLFAC
 40
1.0
  9
$DIMTOFL
 70
     1
  9
$DIMTVP
 40
1.6000000000000001
  9
$DIMTIX
 70
     0
  9
$DIMSOXD
 70
     0
  9
$DIMSAH
 70
     0
  9
$DIMBLK1
  1

  9
$DIMBLK2
  1

  9
$DIMSTYLE
  2
STANDARD
  9
$DIMCLRD
 70
     4
  9
$DIMCLRE
 70
     4
  9
$DIMCLRT
 70
     4
  9
$DIMTFAC
 40
1.0
  9
$DIMGAP
 40
0.5
  9
$LUNITS
 70
     2
  9
$LUPREC
 70
     1
  9
$SKETCHINC
 40
0.1
  9
$FILLETRAD
 40
0.0
  9
$AUNITS
 70
     0
  9
$AUPREC
 70
     1
  9
$MENU
  1
E:\r13\win\SUPPORT\ACAD
  9
$ELEVATION
 40
0.0
  9
$PELEVATION
 40
0.0
  9
$THICKNESS
 40
0.0
  9
$LIMCHECK
 70
     0
  9
$BLIPMODE
 70
     0
  9
$CHAMFERA
 40
1.1999999999999991
  9
$CHAMFERB
 40
1.1999999999999991
  9
$SKPOLY
 70
     0
  9
$TDCREATE
 40
2449933.4048958332
  9
$TDUPDATE
 40
2459046.41243257
  9
$TDINDWG
 40
1.2937755440000001
  9
$TDUSRTIMER
 40
1.2937755440000001
  9
$USRTIMER
 70
     1
  9
$ANGBASE
 50
0.0
  9
$ANGDIR
 70
     0
  9
$PDMODE
 70
     0
  9
$PDSIZE
 40
0.0
  9
$PLINEWID
 40
0.0
  9
$COORDS
 70
     1
  9
$SPLFRAME
 70
     0
  9
$SPLINETYPE
 70
     6
  9
$SPLINESEGS
 70
     8
  9
$ATTDIA
 70
     0
  9
$ATTREQ
 70
     1
  9
$HANDLING
 70
     1
  9
$HANDSEED
  5
134E6
  9
$SURFTAB1
 70
     6
  9
$SURFTAB2
 70
     6
  9
$SURFTYPE
 70
     6
  9
$SURFU
 70
     6
  9
$SURFV
 70
     6
  9
$UCSNAME
  2

  9
$UCSORG
 10
0.0
 20
0.0
 30
0.0
  9
$UCSXDIR
 10
1.0
 20
0.0
 30
0.0
  9
$UCSYDIR
 10
0.0
 20
1.0
 30
0.0
  9
$PUCSNAME
  2

  9
$PUCSORG
 10
0.0
 20
0.0
 30
0.0
  9
$PUCSXDIR
 10
1.0
 20
0.0
 30
0.0
  9
$PUCSYDIR
 10
0.0
 20
1.0
 30
0.0
  9
$USERI1
 70
     0
  9
$USERI2
 70
     1
  9
$USERI3
 70
     0
  9
$USERI4
 70
     0
  9
$USERI5
 70
     0
  9
$USERR1
 40
0.0
  9
$USERR2
 40
0.0
  9
$USERR3
 40
0.0
  9
$USERR4
 40
0.0
  9
$USERR5
 40
0.0
  9
$WORLDVIEW
 70
     1
  9
$SHADEDGE
 70
     3
  9
$SHADEDIF
 70
    70
  9
$TILEMODE
 70
     1
  9
$MAXACTVP
 70
    16
  9
$PLIMCHECK
 70
     0
  9
$PEXTMIN
 10
1.0000000000000000E+020
 20
1.0000000000000000E+020
 30
1.0000000000000000E+020
  9
$PEXTMAX
 10
-1.0000000000000000E+020
 20
-1.0000000000000000E+020
 30
-1.0000000000000000E+020
  9
$PLIMMIN
 10
0.0
 20
0.0
  9
$PLIMMAX
 10
12.0
 20
9.0
  9
$UNITMODE
 70
     0
  9
$VISRETAIN
 70
     0
  9
$PLINEGEN
 70
     0
  9
$PSLTSCALE
 70
     0
  0
ENDSEC
  0
SECTION
  2
TABLES
  0
TABLE
  2
VPORT
 70
     1
  0
VPORT
  2
*ACTIVE
 70
     0
 10
0.0
 20
0.0
 11
1.0
 21
1.0
 12
422.73773006134962
 22
175.0
 13
0.0
 23
0.0
 14
5.0
 24
5.0
 15
5.0
 25
5.0
 16
0.0
 26
0.0
 36
1.0
 17
0.0
 27
0.0
 37
0.0
 40
350.0
 41
2.415644171779141
 42
50.0
 43
0.0
 44
0.0
 50
0.0
 51
0.0
 71
     0
 72
   500
 73
     1
 74
     0
 75
     0
 76
     0
 77
     0
 78
     2
  0
ENDTAB
  0
TABLE
  2
LTYPE
 70
     5
  0
LTYPE
  2
CONTINUOUS
 70
     0
  3
Solid Line
 72
    65
 73
     0
 40
0.0
  0
LTYPE
  2
CENTER
 70
     0
  3
____ _ ____ _ ____ _ ____ _ ____ _ ____ _ ____
 72
    65
 73
     4
 40
2.0
 49
1.25
 49
-0.25
 49
0.25
 49
-0.25
  0
LTYPE
  2
PHANTOM2
 70
     0
  3
___ _ _ ___ _ _ ___ _ _ ___ _ _
 72
    65
 73
     6
 40
1.25
 49
0.625
 49
-0.125
 49
0.125
 49
-0.125
 49
0.125
 49
-0.125
  0
LTYPE
  2
PHANTOM
 70
     0
  3
_____ _ _ _____ _ _ _____ _ _ _____ _ _ ____
 72
    65
 73
     6
 40
2.5
 49
1.25
 49
-0.25
 49
0.25
 49
-0.25
 49
0.25
 49
-0.25
  0
LTYPE
  2
DASHED
 70
     0
  3
Dashed __ __ __ __ __ __ __ __ __ __ __ __ __ _
 72
    65
 73
     2
 40
0.75
 49
0.5
 49
-0.25
  0
ENDTAB
  0
TABLE
  2
LAYER
 70
     6
  0
LAYER
  2
0
 70
     0
 62
     7
  6
CONTINUOUS
  0
LAYER
  2
1
 70
     0
 62
     1
  6
CENTER
  0
LAYER
  2
DEFPOINTS
 70
     0
 62
     7
  6
CONTINUOUS
  0
LAYER
  2
3
 70
     0
 62
     3
  6
CONTINUOUS
  0
LAYER
  2
5
 70
     0
 62
     3
  6
PHANTOM
  0
LAYER
  2
2
 70
     0
 62
     2
  6
DASHED
  0
ENDTAB
  0
TABLE
  2
STYLE
 70
     2
  0
STYLE
  2
STANDARD
 70
     0
 40
0.0
 41
1.0
 50
0.0
 71
     0
 42
4.0
  3
SIMPLEX
  4
BIGFONT
  0
STYLE
  2
STANDARD1
 70
     0
 40
0.0
 41
1.0
 50
0.0
 71
     0
 42
3.0
  3
txt
  4

  0
ENDTAB
  0
TABLE
  2
VIEW
 70
     1
  0
VIEW
  2
ALL
 70
     0
 40
175.0
 10
143.1020066889632
 20
87.5
 41
286.2040133779264
 11
0.0
 21
0.0
 31
1.0
 12
0.0
 22
0.0
 32
0.0
 42
50.0
 43
0.0
 44
0.0
 50
0.0
 71
     0
  0
ENDTAB
  0
TABLE
  2
UCS
 70
     0
  0
ENDTAB
  0
TABLE
  2
APPID
 70
    11
  0
APPID
  2
ACAD
 70
     0
  0
APPID
  2
ACAD_DSTYLE_DIMJAG
 70
     0
  0
APPID
  2
ACAD_DSTYLE_DIMTALN
 70
     0
  0
APPID
  2
ACAD_EXEMPT_FROM_CAD_STANDARDS
 70
     0
  0
APPID
  2
ACAD_DSTYLE_DIMRADIAL_EXTENSION
 70
     0
  0
APPID
  2
ACAD_MLEADERVER
 70
     0
  0
APPID
  2
ACAD_NAV_VCDISPLAY
 70
     0
  0
APPID
  2
ACAD_PSEXT
 70
     0
  0
APPID
  2
ACADANNOTATIVE
 70
     0
  0
APPID
  2
ACAECLAYERSTANDARD
 70
     0
  0
APPID
  2
ACCMTRANSPARENCY
 70
     0
  0
ENDTAB
  0
TABLE
  2
DIMSTYLE
 70
     1
  0
DIMSTYLE
  2
STANDARD
 70
     0
  3

  4

  5

  6

  7

 40
1.0
 41
0.18
 42
0.0625
 43
0.38
 44
0.18
 45
0.0
 46
0.0
 47
0.0
 48
0.0
140
0.18
141
0.09
142
0.0
143
25.399999999999999
144
1.0
145
0.0
146
1.0
147
0.09
 71
     0
 72
     0
 73
     1
 74
     1
 75
     0
 76
     0
 77
     0
 78
     0
170
     0
171
     2
172
     0
173
     0
174
     0
175
     0
176
     0
177
     0
178
     0
  0
ENDTAB
  0
ENDSEC
  0
SECTION
  2
BLOCKS
  0
BLOCK
  8
0
  2
$MODEL_SPACE
 70
     0
 10
0.0
 20
0.0
 30
0.0
  3
$MODEL_SPACE
  1

  0
ENDBLK
  5
8A
  8
0
  0
BLOCK
 67
     1
  8
0
  2
$PAPER_SPACE
 70
     0
 10
0.0
 20
0.0
 30
0.0
  3
$PAPER_SPACE
  1

  0
ENDBLK
  5
88
 67
     1
  8
0
  0
ENDSEC
  0
SECTION
  2
ENTITIES
  0
TEXT
  5
5B60
  8
0
 62
     3
 10
0.0
 20
0.0
 30
0.0
 40
10.0
  1
QCIC07M12-3P
  7
STANDARD1
  0
LINE
  5
ED62
  8
0
 10
132.6278609234104
 20
142.96191647282279
 30
0.0
 11
134.5975159677873
 21
141.8247362189594
 31
0.0
  0
LINE
  5
ED63
  8
0
 10
152.59751519292689
 20
141.8247362189594
 30
0.0
 11
154.56717023730371
 21
142.96191647282279
 31
0.0
  0
LINE
  5
ED64
  8
0
 10
154.56717023730371
 20
146.68755508592761
 30
0.0
 11
152.59751519292689
 21
147.8247372024361
 31
0.0
  0
LINE
  5
ED65
  8
0
 10
134.5975159677873
 20
147.8247372024361
 30
0.0
 11
132.6278609234104
 21
146.68755508592761
 31
0.0
  0
ARC
  5
ED66
  8
0
 10
149.59752862100811
 20
177.2247897146664
 30
0.0
 40
12.49994522876038
 50
71.694324503892133
 51
90.000059535145496
  0
ARC
  5
ED67
  8
0
 10
137.59750253970611
 20
177.2247897146662
 30
0.0
 40
12.4999452287606
 50
89.999940464854745
 51
108.3056754961078
  0
ARC
  5
ED68
  8
0
 10
132.62440822879699
 20
171.72473711629701
 30
0.0
 40
0.5000024113021967
 50
176.99992403540429
 51
269.99970369063209
  0
ARC
  5
ED69
  8
0
 10
154.57062293191791
 20
171.72473711629661
 30
0.0
 40
0.5000024113014105
 50
270.0002878683789
 51
3.0000759646543829
  0
LINE
  5
ED6A
  8
0
 10
132.98689508915041
 20
188.19510839512981
 30
0.0
 11
132.1250910881171
 21
171.75090588262711
 31
0.0
  0
LINE
  5
ED6B
  8
0
 10
155.06994007259701
 20
171.75090588262711
 30
0.0
 11
154.2081360715637
 21
188.19510839512981
 31
0.0
  0
ARC
  5
ED6C
  8
0
 10
153.20950650283581
 20
188.14277285081451
 30
0.0
 40
1.000000012368216
 50
2.999976328756254
 51
71.694344380191566
  0
ARC
  5
ED6D
  8
0
 10
133.9855246578781
 20
188.14277285081451
 30
0.0
 40
1.000000012368079
 50
108.30565561979969
 51
177.0000236712437
  0
LINE
  5
ED6E
  8
0
 10
152.09751604229311
 20
163.62473643949659
 30
0.0
 11
152.09751604229311
 21
171.22473470500151
 31
0.0
  0
LINE
  5
ED6F
  8
0
 10
135.09751511842109
 20
171.22473470500151
 30
0.0
 11
135.09751511842109
 21
163.62473643949659
 31
0.0
  0
ARC
  5
ED70
  8
0
 10
143.59751558035711
 20
138.02473633816879
 30
0.0
 40
6.0
 50
259.52468615677122
 51
280.47531384322878
  0
LINE
  5
ED71
  8
0
 10
153.59751535683961
 20
163.42473677924309
 30
0.0
 11
153.39751569658611
 21
163.62473643949659
 31
0.0
  0
LINE
  5
ED72
  8
0
 10
133.797515464128
 20
163.62473643949659
 30
0.0
 11
133.5975158038745
 21
163.42473677924309
 31
0.0
  0
LINE
  5
ED73
  8
0
 10
133.5975158038745
 20
160.32473645737801
 30
0.0
 11
133.797515464128
 21
160.12473679712451
 31
0.0
  0
LINE
  5
ED74
  8
0
 10
153.39751569658611
 20
160.12473679712451
 30
0.0
 11
153.59751535683961
 21
160.32473645737801
 31
0.0
  0
LINE
  5
ED75
  8
0
 10
153.59751535683961
 20
160.32473645737801
 30
0.0
 11
153.59751535683961
 21
163.42473677924309
 31
0.0
  0
LINE
  5
ED76
  8
0
 10
133.5975158038745
 20
163.42473677924309
 30
0.0
 11
133.5975158038745
 21
160.32473645737801
 31
0.0
  0
LINE
  5
ED79
  8
0
 10
149.60751570865611
 20
149.1247368567291
 30
0.0
 11
149.60751570865611
 21
152.1247354858223
 31
0.0
  0
LINE
  5
ED7A
  8
0
 10
137.58751545205811
 20
152.1247354858223
 30
0.0
 11
137.58751545205811
 21
149.1247368567291
 31
0.0
  0
LINE
  5
ED7B
  8
0
 10
149.59751563251109
 20
133.1347366385761
 30
0.0
 11
149.59751563251109
 21
141.8247362189594
 31
0.0
  0
LINE
  5
ED7C
  8
0
 10
149.59751563251109
 20
147.8247372024361
 30
0.0
 11
149.59751563251109
 21
149.1247368567291
 31
0.0
  0
LINE
  5
ED7D
  8
0
 10
137.59751552820299
 20
149.1247368567291
 30
0.0
 11
137.59751552820299
 21
147.8247372024361
 31
0.0
  0
LINE
  5
ED7E
  8
0
 10
137.59751552820299
 20
141.8247362189594
 30
0.0
 11
137.59751552820299
 21
133.1347366385761
 31
0.0
  0
LINE
  5
ED7F
  8
0
 10
137.59751552820299
 20
133.1347366385761
 30
0.0
 11
138.59751569211579
 21
132.13473647466341
 31
0.0
  0
LINE
  5
ED80
  8
0
 10
148.5975154685984
 20
132.13473647466341
 30
0.0
 11
149.59751563251109
 21
133.1347366385761
 31
0.0
  0
LINE
  5
ED81
  8
0
 10
138.59751569211579
 20
132.13473647466341
 30
0.0
 11
138.59751569211579
 21
132.1257361733023
 31
0.0
  0
LINE
  5
ED82
  8
0
 10
148.5975154685984
 20
132.1257361733023
 30
0.0
 11
148.5975154685984
 21
132.13473647466341
 31
0.0
  0
LINE
  5
ED83
  8
0
 10
138.59751569211579
 20
132.1257361733023
 30
0.0
 11
138.59851546689961
 21
132.12473593285711
 31
0.0
  0
LINE
  5
ED84
  8
0
 10
148.5965156938145
 20
132.12473593285711
 30
0.0
 11
148.5975154685984
 21
132.1257361733023
 31
0.0
  0
ARC
  5
ED85
  8
0
 10
143.59751558035711
 20
128.9854366267208
 30
0.0
 40
18.532358963903029
 50
72.78491907430174
 51
107.2150809256982
  0
LINE
  5
ED86
  8
0
 10
149.08234290883041
 20
146.68755508592761
 30
0.0
 11
149.08234290883041
 21
142.96191647282279
 31
0.0
  0
ARC
  5
ED87
  8
0
 10
143.59751558035711
 20
160.65811658541929
 30
0.0
 40
18.526705839091559
 50
252.77950209620889
 51
287.22049790379401
  0
LINE
  5
ED88
  8
0
 10
138.1126882518837
 20
146.68755508592761
 30
0.0
 11
138.1126882518837
 21
142.96191647282279
 31
0.0
  0
ARC
  5
ED89
  8
0
 10
151.82475657306711
 20
147.10511038550149
 30
0.0
 40
4.9685901927860563
 50
236.499101514204
 51
303.50089848579597
  0
ARC
  5
ED8A
  8
0
 10
135.37027458764709
 20
147.10511017871619
 30
0.0
 40
4.9685900203525506
 50
236.49910019804301
 51
303.50089980195668
  0
LINE
  5
ED8B
  8
0
 10
152.59751519292689
 20
141.8247362189594
 30
0.0
 11
134.5975159677873
 21
141.8247362189594
 31
0.0
  0
ARC
  5
ED8C
  8
0
 10
151.82475657306711
 20
142.5443660300343
 30
0.0
 40
4.9685861428242992
 50
56.499070601392582
 51
123.5009293986074
  0
LINE
  5
ED8D
  8
0
 10
154.56717023730371
 20
146.68755508592761
 30
0.0
 11
154.56717023730371
 21
142.96191647282279
 31
0.0
  0
ARC
  5
ED8E
  8
0
 10
135.37027458764709
 20
142.54436582325101
 30
0.0
 40
4.9685863152562284
 50
56.499071917543247
 51
123.5009280824567
  0
LINE
  5
ED8F
  8
0
 10
152.59751519292689
 20
147.8247372024361
 30
0.0
 11
134.5975159677873
 21
147.8247372024361
 31
0.0
  0
LINE
  5
ED90
  8
0
 10
132.6278609234104
 20
146.68755508592761
 30
0.0
 11
132.6278609234104
 21
142.96191647282279
 31
0.0
  0
LINE
  5
ED92
  8
0
 10
149.59751563251109
 20
189.72473494342
 30
0.0
 11
137.59751552820299
 21
189.72473494342
 31
0.0
  0
LINE
  5
ED96
  8
0
 10
154.57062544405551
 20
171.22473470500151
 30
0.0
 11
132.62440564299749
 21
171.22473470500151
 31
0.0
  0
LINE
  5
ED97
  8
0
 10
152.09751604229311
 20
166.12473778060109
 30
0.0
 11
135.09751511842109
 21
166.12473778060109
 31
0.0
  0
LINE
  5
ED99
  8
0
 10
133.797515464128
 20
163.62473643949659
 30
0.0
 11
153.39751569658611
 21
163.62473643949659
 31
0.0
  0
LINE
  5
ED9A
  8
0
 10
153.39751569658611
 20
160.12473679712451
 30
0.0
 11
133.797515464128
 21
160.12473679712451
 31
0.0
  0
LINE
  5
ED9C
  8
0
 10
147.6389675411591
 20
160.12473679712451
 30
0.0
 11
147.6389675411591
 21
152.1247354858223
 31
0.0
  0
LINE
  5
ED9E
  8
0
 10
139.556063619555
 20
160.12473679712451
 30
0.0
 11
139.556063619555
 21
152.1247354858223
 31
0.0
  0
LINE
  5
ED9F
  8
0
 10
151.68041950196121
 20
160.12473679712451
 30
0.0
 11
151.68041950196121
 21
152.1247354858223
 31
0.0
  0
LINE
  5
EDA1
  8
0
 10
135.5146116587529
 20
160.12473679712451
 30
0.0
 11
135.5146116587529
 21
152.1247354858223
 31
0.0
  0
LINE
  5
EDA2
  8
0
 10
151.68041950196121
 20
152.1247354858223
 30
0.0
 11
135.5146116587529
 21
152.1247354858223
 31
0.0
  0
LINE
  5
EDA3
  8
0
 10
149.60751570865611
 20
149.1247368567291
 30
0.0
 11
137.58751545205811
 21
149.1247368567291
 31
0.0
  0
LINE
  5
EDA4
  8
0
 10
149.59751563251109
 20
133.1347366385761
 30
0.0
 11
137.59751552820299
 21
133.1347366385761
 31
0.0
  0
LINE
  5
EDA5
  8
0
 10
148.5975154685984
 20
132.13473647466341
 30
0.0
 11
138.59751569211579
 21
132.13473647466341
 31
0.0
  0
LINE
  5
EDA7
  8
0
 10
148.5965156938145
 20
132.12473593285711
 30
0.0
 11
138.59851546689961
 21
132.12473593285711
 31
0.0
  0
ARC
  5
EDA9
  8
0
 10
147.0546779047875
 20
171.6997154477622
 30
0.0
 40
0.4762433072856404
 50
274.17297681317689
 51
6.1705292262669946
  0
ARC
  5
EDAA
  8
0
 10
140.14035325592661
 20
171.6997154477622
 30
0.0
 40
0.4762433072856333
 50
173.82947077373299
 51
265.8270231868263
  0
LINE
  5
EDAB
  8
0
 10
140.34128170564861
 20
186.39319292834429
 30
0.0
 11
139.66686911985369
 21
171.75090588262711
 31
0.0
  0
LINE
  5
EDAD
  8
0
 10
147.52816204086039
 20
171.75090588262711
 30
0.0
 11
146.8537494550655
 21
186.39319292834429
 31
0.0
  0
ARC
  5
EDAE
  8
0
 10
143.59751558035711
 20
189.05040492013001
 30
0.0
 40
3.1423710296895671
 50
217.58936534522289
 51
322.41063465477708
  0
ARC
  5
EDAF
  8
0
 10
145.69311223284291
 20
185.95871128615431
 30
0.0
 40
1.239295388117245
 50
20.523261849666721
 51
71.441829150063086
  0
ARC
  5
EDB0
  8
0
 10
141.5019189278712
 20
185.95871128615451
 30
0.0
 40
1.239295388117204
 50
108.5581708499368
 51
159.4767381503367
  0
LINE
  5
EDB1
  8
0
 10
153.52359255880211
 20
189.09216574958
 30
0.0
 11
150.55115548998211
 21
189.09216574958
 31
0.0
  0
ARC
  5
EDB2
  8
0
 10
150.1200580402778
 20
184.00907886645371
 30
0.0
 40
5.1013348520315747
 50
85.152335838177621
 51
142.23067395612591
  0
ARC
  5
EDB3
  8
0
 10
137.0819044556936
 20
184.02487525202719
 30
0.0
 40
5.0861873936223878
 50
37.676486343675933
 51
94.940503862017792
  0
LINE
  5
EDB4
  8
0
 10
136.643875670732
 20
189.09216574958
 30
0.0
 11
133.671438601912
 21
189.09216574958
 31
0.0
  0
ARC
  5
EDB5
  8
0
 10
136.0076548906037
 20
171.66875276813749
 30
0.0
 40
0.4545476240683013
 50
169.58736797795041
 51
257.64351304038252
  0
ARC
  5
EDB8
  8
0
 10
151.18737627011041
 20
171.66875276813749
 30
0.0
 40
0.4545476240683013
 50
282.35648695961748
 51
10.41263202204958
  0
LINE
  5
EDB9
  8
0
 10
135.56059291690681
 20
171.75090588262711
 30
0.0
 11
136.16432417288519
 21
188.19510839512981
 31
0.0
  0
LINE
  5
EDBC
  8
0
 10
151.03070698782901
 20
188.19510839512981
 30
0.0
 11
151.6344382438073
 21
171.75090588262711
 31
0.0
  0
ARC
  5
EDBD
  8
0
 10
150.01857463382029
 20
188.23074845937711
 30
0.0
 40
1.0127596537237631
 50
357.98328560222939
 51
58.27310796463339
  0
ARC
  5
EDBE
  8
0
 10
137.17645652689379
 20
188.23074845937711
 30
0.0
 40
1.0127596537237651
 50
121.7268920353666
 51
182.01671439777391
  0
LINE
  5
EDC0
  8
0
 10
155.06994007259701
 20
171.75090588262711
 30
0.0
 11
132.1250910881171
 21
171.75090588262711
 31
0.0
  0
LINE
  5
EDD1
  8
3
 10
138.3475156511376
 20
149.1247368567291
 30
0.0
 11
138.3475156511376
 21
147.8247372024361
 31
0.0
  0
LINE
  5
EDD2
  8
3
 10
138.3475156511376
 20
141.8247362189594
 30
0.0
 11
138.3475156511376
 21
132.38473604998029
 31
0.0
  0
LINE
  5
EDD3
  8
3
 10
148.84751550957651
 20
132.38473604998029
 30
0.0
 11
148.84751550957651
 21
141.8247362189594
 31
0.0
  0
LINE
  5
EDD4
  8
3
 10
148.84751550957651
 20
147.8247372024361
 30
0.0
 11
148.84751550957651
 21
149.1247368567291
 31
0.0
  0
ARC
  5
F5CF
  8
0
 10
167.76623520938639
 20
280.31741009817108
 30
0.0
 40
23.02689006264071
 50
211.93516539574611
 51
225.52944706424319
  0
ARC
  5
F5D0
  8
0
 10
119.4287959513277
 20
280.31741009817108
 30
0.0
 40
23.02689006264071
 50
314.47055293576148
 51
328.06483460425392
  0
ARC
  5
F5D1
  8
0
 10
143.59751558035711
 20
255.69784488077971
 30
0.0
 40
11.473109937359609
 50
314.47055293576148
 51
45.529447064238511
  0
ARC
  5
F5D3
  8
0
 10
143.59751558035711
 20
255.69784488077971
 30
0.0
 40
11.473109937359601
 50
134.47055293576159
 51
225.52944706424319
  0
ARC
  5
F5D4
  8
0
 10
167.76623520938639
 20
231.0782796633882
 30
0.0
 40
23.02689006264071
 50
134.47055293576139
 51
151.50545429053491
  0
ARC
  5
F5D5
  8
0
 10
119.4287959513277
 20
231.0782796633882
 30
0.0
 40
23.02689006264071
 50
28.49454570946504
 51
45.529447064238511
  0
ARC
  5
F5D6
  8
0
 10
143.59751558035711
 20
244.1978448807796
 30
0.0
 40
4.473109937359558
 50
208.4945457094685
 51
331.50545429053523
  0
CIRCLE
  5
F621
  8
0
 10
143.59751558035711
 20
255.69784488077971
 30
0.0
 40
3.0000000000000631
  0
LINE
  5
F622
  8
0
 10
142.59751558035711
 20
255.12049461159009
 30
0.0
 11
143.59751558035711
 21
254.5431443424003
 31
0.0
  0
LINE
  5
F623
  8
0
 10
143.59751558035711
 20
254.5431443424003
 30
0.0
 11
144.59751558035711
 21
255.12049461159009
 31
0.0
  0
LINE
  5
F624
  8
0
 10
144.59751558035711
 20
255.12049461159009
 30
0.0
 11
144.59751558035711
 21
256.27519514996931
 31
0.0
  0
LINE
  5
F625
  8
0
 10
144.59751558035711
 20
256.27519514996931
 30
0.0
 11
143.59751558035711
 21
256.85254541915901
 31
0.0
  0
LINE
  5
F626
  8
0
 10
143.59751558035711
 20
256.85254541915901
 30
0.0
 11
142.59751558035711
 21
256.27519514996931
 31
0.0
  0
LINE
  5
F627
  8
0
 10
142.59751558035711
 20
256.27519514996931
 30
0.0
 11
142.59751558035711
 21
255.12049461159009
 31
0.0
  0
ARC
  5
F62F
  8
0
 10
143.2123179135279
 20
266.98753056645791
 30
0.0
 40
4.9166320891673649
 50
28.50700507513395
 51
55.184861502882811
  0
ARC
  5
F630
  8
0
 10
143.98225280202371
 20
266.98794291664888
 30
0.0
 40
4.9160306702021694
 50
124.81347649361081
 51
151.49465692836819
  0
POLYLINE
  5
F631
  8
0
 66
     1
 10
0.0
 20
0.0
 30
0.0
 70
   128
  0
VERTEX
  5
13359
  8
0
 10
142.6793032753439
 20
271.73411061405778
 30
0.0
  0
VERTEX
  5
1335A
  8
0
 10
141.8568705444813
 20
271.42721204493199
 30
0.0
  0
VERTEX
  5
1335B
  8
0
 10
141.17565798581259
 20
271.0240775883355
 30
0.0
  0
SEQEND
  5
1335C
  8
0
  0
ARC
  5
F632
  8
0
 10
143.59751558035711
 20
268.1375499196883
 30
0.0
 40
3.711921694400468
 50
75.678155096347012
 51
104.3218449036529
  0
POLYLINE
  5
F633
  8
0
 66
     1
 10
0.0
 20
0.0
 30
0.0
 70
   128
  0
VERTEX
  5
1335D
  8
0
 10
146.01937317490149
 20
271.0240775883355
 30
0.0
  0
VERTEX
  5
1335E
  8
0
 10
145.33816061628499
 20
271.42721204490738
 30
0.0
  0
VERTEX
  5
1335F
  8
0
 10
144.51572788537021
 20
271.73411061405778
 30
0.0
  0
SEQEND
  5
13360
  8
0
  0
ARC
  5
F63C
  8
0
 10
143.59751558035711
 20
267.93022248910569
 30
0.0
 40
2.7461719531649229
 50
24.943327560031459
 51
155.05667243996851
  0
ARC
  5
F63D
  8
0
 10
166.47449946164309
 20
278.78331644509831
 30
0.0
 40
22.574779331249449
 50
205.4333210527266
 51
225.14137300866111
  0
ARC
  5
F63E
  8
0
 10
143.59751558035711
 20
255.69784488077971
 30
0.0
 40
9.9260770978179824
 50
314.47055293576148
 51
45.529447064238319
  0
ARC
  5
F63F
  8
0
 10
166.39400829665769
 20
232.66933755571861
 30
0.0
 40
22.477631361862478
 50
134.81561029707191
 51
154.60969564154161
  0
ARC
  5
F640
  8
0
 10
143.59751558035711
 20
243.4654672724435
 30
0.0
 40
2.7461719531606081
 50
204.94332755984109
 51
335.05667244016252
  0
ARC
  5
F641
  8
0
 10
120.7770498361715
 20
232.6523716527353
 30
0.0
 40
22.50656402817831
 50
25.403155034885419
 51
45.171539026501527
  0
ARC
  5
F642
  8
0
 10
143.59751558035711
 20
255.69784488077971
 30
0.0
 40
9.9260770978179718
 50
134.47055293576159
 51
225.5294470642431
  0
ARC
  5
F643
  8
0
 10
120.77834501530199
 20
278.74240150022632
 30
0.0
 40
22.50500086817566
 50
314.82776754060109
 51
334.59753839801488
  0
LINE
  5
F65A
  8
0
 10
138.97050167466449
 20
268.13712260651278
 30
0.0
 11
139.6621796903506
 21
269.33407289176921
 31
0.0
  0
LINE
  5
F65F
  8
0
 10
147.53285147036351
 20
269.33407289176921
 30
0.0
 11
148.22452948604959
 21
268.13712260651278
 31
0.0
  0
LINE
  5
F666
  8
0
 10
148.2245294860497
 20
268.13712260651272
 30
0.0
 11
148.22394796530469
 21
268.13676014634888
 31
0.0
  0
LINE
  5
F669
  8
0
 10
211.54373528057911
 20
142.11341062041711
 30
0.0
 11
212.04373528057911
 21
141.8247354858222
 31
0.0
  0
LINE
  5
F66A
  8
0
 10
230.043735280579
 20
141.8247354858222
 30
0.0
 11
230.54373528057911
 21
142.11341062041711
 31
0.0
  0
LINE
  5
F66B
  8
0
 10
230.54373528057911
 20
147.53606035122749
 30
0.0
 11
230.04373528057911
 21
147.8247354858222
 31
0.0
  0
LINE
  5
F66C
  8
0
 10
212.04373528057911
 20
147.8247354858222
 30
0.0
 11
211.54373528057911
 21
147.53606035122749
 31
0.0
  0
ARC
  5
F66D
  8
0
 10
227.04373528057911
 20
177.22473548582221
 30
0.0
 40
12.50000000000025
 50
44.056483870946863
 51
90.0
  0
ARC
  5
F66E
  8
0
 10
215.0437352914627
 20
177.22473543225809
 30
0.0
 40
12.500000053564349
 50
90.000000049887603
 51
135.9477744863145
  0
ARC
  5
F66F
  8
0
 10
231.5779951260366
 20
166.4473933148295
 30
0.0
 40
4.7806554864711384
 50
53.676100302153337
 51
92.133292404820423
  0
LINE
  5
F670
  8
0
 10
237.1943464348692
 20
168.35090346414421
 30
0.0
 11
236.30748758785879
 21
185.27317963874941
 31
0.0
  0
ARC
  5
F671
  8
0
 10
205.5706253432194
 20
171.72473548582221
 30
0.0
 40
0.5
 50
176.99999999999761
 51
270.0
  0
LINE
  5
F672
  8
0
 10
205.7799829732993
 20
185.27317963874941
 30
0.0
 11
205.07131057584289
 21
171.7509034639437
 31
0.0
  0
POLYLINE
  5
F673
  8
0
 66
     1
 10
0.0
 20
0.0
 30
0.0
 70
   128
  0
VERTEX
  5
13361
  8
0
 10
206.05990630905609
 20
185.9161575341918
 30
0.0
  0
VERTEX
  5
13362
  8
0
 10
205.86173430678829
 20
185.62001068937019
 30
0.0
  0
VERTEX
  5
13363
  8
0
 10
205.7799829732993
 20
185.27317963874941
 30
0.0
  0
SEQEND
  5
13364
  8
0
  0
POLYLINE
  5
F674
  8
0
 66
     1
 10
0.0
 20
0.0
 30
0.0
 70
   128
  0
VERTEX
  5
13365
  8
0
 10
236.30748758785879
 20
185.27317963874941
 30
0.0
  0
VERTEX
  5
13366
  8
0
 10
236.22573625436991
 20
185.62001068937019
 30
0.0
  0
VERTEX
  5
13367
  8
0
 10
236.0269182327215
 20
185.91682522582991
 30
0.0
  0
SEQEND
  5
13368
  8
0
  0
ARC
  5
F675
  8
0
 10
236.69503165746221
 20
168.3247355053349
 30
0.0
 40
0.5000000032993945
 50
270.0000005528828
 51
2.999999165619879
  0
LINE
  5
F676
  8
0
 10
235.9991895048756
 20
167.82473548344541
 30
0.0
 11
236.69503166228699
 21
167.82473550203551
 31
0.0
  0
LINE
  5
F678
  8
0
 10
235.68752251093471
 20
168.16033562302559
 30
0.0
 11
235.73025131211099
 21
167.991798486562
 31
0.0
  0
ARC
  5
F679
  8
0
 10
235.9991895163418
 20
168.1247354919312
 30
0.0
 40
0.3000000084857535
 50
206.30333289589569
 51
269.99999781010757
  0
LINE
  5
F67A
  8
0
 10
229.54373528057911
 20
163.6247354858223
 30
0.0
 11
229.54373528057911
 21
171.22473548582221
 31
0.0
  0
LINE
  5
F67B
  8
0
 10
212.54373528057911
 20
171.22473548582221
 30
0.0
 11
212.54373528057911
 21
163.6247354858223
 31
0.0
  0
ARC
  5
F67C
  8
0
 10
221.04373528057911
 20
138.0247354858223
 30
0.0
 40
5.9999999999999929
 50
259.524686156771
 51
280.47531384322889
  0
LINE
  5
F67D
  8
0
 10
231.04373528057911
 20
163.42473548582231
 30
0.0
 11
230.84373528057901
 21
163.6247354858223
 31
0.0
  0
LINE
  5
F67E
  8
0
 10
211.24373528057899
 20
163.6247354858223
 30
0.0
 11
211.04373528057911
 21
163.42473548582231
 31
0.0
  0
LINE
  5
F67F
  8
0
 10
211.04373528057911
 20
160.3247354858222
 30
0.0
 11
211.24373528057899
 21
160.1247354858223
 31
0.0
  0
LINE
  5
F680
  8
0
 10
230.84373528057901
 20
160.1247354858223
 30
0.0
 11
231.04373528057911
 21
160.3247354858222
 31
0.0
  0
LINE
  5
F681
  8
0
 10
231.04373528057911
 20
160.3247354858222
 30
0.0
 11
231.04373528057911
 21
163.42473548582231
 31
0.0
  0
LINE
  5
F682
  8
0
 10
211.04373528057911
 20
163.42473548582231
 30
0.0
 11
211.04373528057911
 21
160.3247354858222
 31
0.0
  0
LINE
  5
F685
  8
0
 10
227.0537352805791
 20
149.1247354858223
 30
0.0
 11
227.0537352805791
 21
152.1247354858223
 31
0.0
  0
LINE
  5
F686
  8
0
 10
215.03373528057909
 20
152.1247354858223
 30
0.0
 11
215.03373528057909
 21
149.1247354858223
 31
0.0
  0
LINE
  5
F687
  8
0
 10
227.04373528057911
 20
133.1347354858222
 30
0.0
 11
227.04373528057911
 21
141.8247354858222
 31
0.0
  0
LINE
  5
F688
  8
0
 10
227.04373528057911
 20
147.8247354858222
 30
0.0
 11
227.04373528057911
 21
149.1247354858223
 31
0.0
  0
LINE
  5
F689
  8
0
 10
215.04373528057911
 20
149.1247354858223
 30
0.0
 11
215.04373528057911
 21
147.8247354858222
 31
0.0
  0
LINE
  5
F68A
  8
0
 10
215.04373528057911
 20
141.8247354858222
 30
0.0
 11
215.04373528057911
 21
133.1347354858222
 31
0.0
  0
LINE
  5
F68B
  8
0
 10
215.04373528057911
 20
133.1347354858222
 30
0.0
 11
216.04373528057911
 21
132.1347354858222
 31
0.0
  0
LINE
  5
F68C
  8
0
 10
226.04373528057911
 20
132.1347354858222
 30
0.0
 11
227.04373528057911
 21
133.1347354858222
 31
0.0
  0
LINE
  5
F68D
  8
0
 10
216.04373528057911
 20
132.1257354858223
 30
0.0
 11
216.04473528057909
 21
132.12473548582221
 31
0.0
  0
LINE
  5
F68E
  8
0
 10
226.04273528057911
 20
132.12473548582221
 30
0.0
 11
226.04373528057911
 21
132.1257354858223
 31
0.0
  0
LINE
  5
F68F
  8
0
 10
216.04373528057911
 20
132.1347354858222
 30
0.0
 11
216.04373528057911
 21
132.1257354858223
 31
0.0
  0
LINE
  5
F690
  8
0
 10
226.04373528057911
 20
132.1257354858223
 30
0.0
 11
226.04373528057911
 21
132.1347354858222
 31
0.0
  0
LINE
  5
F694
  8
0
 10
212.0437352805792
 20
141.8247354858222
 30
0.0
 11
230.04373528057911
 21
141.8247354858222
 31
0.0
  0
ARC
  5
F695
  8
0
 10
216.29373528057911
 20
156.08498167663649
 30
0.0
 40
13.95626534385419
 50
250.10186570735729
 51
289.89813429264569
  0
ARC
  5
F696
  8
0
 10
225.79373528057911
 20
156.0849816766364
 30
0.0
 40
13.956265343854019
 50
250.10186570735729
 51
289.89813429264569
  0
LINE
  5
F697
  8
0
 10
230.54373528057911
 20
147.5360603512276
 30
0.0
 11
230.54373528057911
 21
142.1134106204172
 31
0.0
  0
LINE
  5
F698
  8
0
 10
211.543735280579
 20
147.53606035122749
 30
0.0
 11
211.54373528057911
 21
142.113410620417
 31
0.0
  0
ARC
  5
F69A
  8
0
 10
225.79373528057911
 20
133.564489295008
 30
0.0
 40
13.956265343854129
 50
70.101865707357277
 51
109.89813429264269
  0
LINE
  5
F69C
  8
0
 10
221.04373528057911
 20
146.68755457519561
 30
0.0
 11
221.04373528057911
 21
142.961916396449
 31
0.0
  0
ARC
  5
F69D
  8
0
 10
216.29373528057911
 20
133.564489295008
 30
0.0
 40
13.956265343854129
 50
70.101865707357277
 51
109.89813429264269
  0
LINE
  5
F6A0
  8
0
 10
230.04373528057911
 20
147.8247354858222
 30
0.0
 11
212.04373528057911
 21
147.8247354858222
 31
0.0
  0
LINE
  5
F6A2
  8
0
 10
227.04373528057911
 20
189.72473548582221
 30
0.0
 11
215.043735280579
 21
189.72473548582221
 31
0.0
  0
ARC
  5
F6A8
  8
0
 10
232.1185323169087
 20
167.47900782627019
 30
0.0
 40
3.6335605973464968
 50
17.381429326821682
 51
50.906461347240992
  0
POLYLINE
  5
F6A9
  8
0
 66
     1
 10
0.0
 20
0.0
 30
0.0
 70
   128
  0
VERTEX
  5
13369
  8
0
 10
235.5861743754416
 20
168.5644667930132
 30
0.0
  0
VERTEX
  5
1336A
  8
0
 10
235.65148529457721
 20
168.321653022943
 30
0.0
  0
VERTEX
  5
1336B
  8
0
 10
235.68752251093471
 20
168.16033562302559
 30
0.0
  0
SEQEND
  5
1336C
  8
0
  0
LINE
  5
F6AB
  8
0
 10
231.40003821669771
 20
171.22473548582221
 30
0.0
 11
205.5706253432194
 21
171.22473548582221
 31
0.0
  0
LINE
  5
F6B1
  8
0
 10
211.24373528057899
 20
163.6247354858223
 30
0.0
 11
230.8437352805791
 21
163.6247354858223
 31
0.0
  0
LINE
  5
F6B2
  8
0
 10
230.84373528057901
 20
160.1247354858223
 30
0.0
 11
211.24373528057899
 21
160.1247354858223
 31
0.0
  0
LINE
  5
F6B7
  8
0
 10
229.54373528057911
 20
166.1247354858223
 30
0.0
 11
212.54373528057911
 21
166.1247354858223
 31
0.0
  0
LINE
  5
F6B8
  8
0
 10
228.04373528057911
 20
160.1247354858223
 30
0.0
 11
228.04373528057911
 21
152.1247354858223
 31
0.0
  0
LINE
  5
F6BA
  8
0
 10
221.04373528057911
 20
160.1247354858223
 30
0.0
 11
221.04373528057911
 21
152.1247354858223
 31
0.0
  0
LINE
  5
F6BB
  8
0
 10
214.04373528057911
 20
160.1247354858223
 30
0.0
 11
214.04373528057911
 21
152.1247354858223
 31
0.0
  0
LINE
  5
F6BC
  8
0
 10
228.04373528057911
 20
152.1247354858223
 30
0.0
 11
214.04373528057911
 21
152.1247354858223
 31
0.0
  0
LINE
  5
F6BD
  8
0
 10
227.0537352805791
 20
149.1247354858223
 30
0.0
 11
215.03373528057909
 21
149.1247354858223
 31
0.0
  0
LINE
  5
F6BF
  8
0
 10
227.04373528057911
 20
133.1347354858222
 30
0.0
 11
215.04373528057911
 21
133.1347354858222
 31
0.0
  0
LINE
  5
F6C2
  8
0
 10
226.04373528057911
 20
132.1347354858222
 30
0.0
 11
216.04373528057911
 21
132.13473548582229
 31
0.0
  0
LINE
  5
F6C4
  8
0
 10
226.04273528057911
 20
132.12473548582221
 30
0.0
 11
216.04473528057909
 21
132.12473548582221
 31
0.0
  0
ARC
  5
F6C6
  8
0
 10
223.0845912200634
 20
170.62789892676031
 30
0.0
 40
20.031260087748439
 50
49.750608981256612
 51
55.486771754299227
  0
ARC
  5
F6C7
  8
0
 10
228.10748499759299
 20
177.89451453956269
 30
0.0
 40
11.19766911027024
 50
55.597306251171858
 51
89.899691110872396
  0
LINE
  5
F6C8
  8
0
 10
228.12708897514679
 20
189.0921664892868
 30
0.0
 11
213.96038158601141
 21
189.0921664892868
 31
0.0
  0
ARC
  5
F6C9
  8
0
 10
213.9798750405518
 20
177.89487044890441
 30
0.0
 40
11.19731300851849
 50
90.099746540675255
 51
124.4032560972831
  0
POLYLINE
  5
F6CA
  8
0
 66
     1
 10
0.0
 20
0.0
 30
0.0
 70
   128
  0
VERTEX
  5
1336D
  8
0
 10
207.6532376220151
 20
187.1335650312092
 30
0.0
  0
VERTEX
  5
1336E
  8
0
 10
207.04802306614801
 20
186.70042027978141
 30
0.0
  0
VERTEX
  5
1336F
  8
0
 10
206.7751771739693
 20
186.4939244244751
 30
0.0
  0
VERTEX
  5
13370
  8
0
 10
206.5434986953434
 20
186.3127780306931
 30
0.0
  0
VERTEX
  5
13371
  8
0
 10
206.3399659854951
 20
186.1489811283673
 30
0.0
  0
VERTEX
  5
13372
  8
0
 10
206.1915184131928
 20
186.02668332323481
 30
0.0
  0
VERTEX
  5
13373
  8
0
 10
206.09333973791169
 20
185.94441714578741
 30
0.0
  0
VERTEX
  5
13374
  8
0
 10
206.05991703945739
 20
185.9161666049512
 30
0.0
  0
SEQEND
  5
13375
  8
0
  0
ARC
  5
F6CC
  8
0
 10
228.78224267981719
 20
171.67078174027029
 30
0.0
 40
0.4554392868394279
 50
281.65667115679418
 51
10.132308761940481
  0
ARC
  5
F6CD
  8
0
 10
213.30522788134101
 20
171.67078174027029
 30
0.0
 40
0.4554392868394494
 50
169.86769123805951
 51
258.34332884319929
  0
LINE
  5
F6CE
  8
0
 10
213.47188419278689
 20
188.19510796525259
 30
0.0
 11
212.8568915640607
 21
171.7509034639437
 31
0.0
  0
LINE
  5
F6D0
  8
0
 10
229.23057899709741
 20
171.7509034639437
 30
0.0
 11
228.6155863683712
 21
188.19510796525259
 31
0.0
  0
ARC
  5
F6D1
  8
0
 10
214.48022291521499
 20
188.22754844844479
 30
0.0
 40
1.0088604284526339
 50
121.0158892933264
 51
181.84269615445561
  0
ARC
  5
F6D2
  8
0
 10
227.60724764594309
 20
188.22754844844479
 30
0.0
 40
1.008860428452663
 50
358.15730384554757
 51
58.984110706668929
  0
POLYLINE
  5
F6D3
  8
0
 66
     1
 10
0.0
 20
0.0
 30
0.0
 70
   128
  0
VERTEX
  5
13376
  8
0
 10
207.64826346461331
 20
171.22473548582221
 30
0.0
  0
VERTEX
  5
13377
  8
0
 10
207.6001968788332
 20
171.2349917760427
 30
0.0
  0
VERTEX
  5
13378
  8
0
 10
207.5541022324679
 20
171.2653398807478
 30
0.0
  0
VERTEX
  5
13379
  8
0
 10
207.51187056580011
 20
171.31453476405949
 30
0.0
  0
VERTEX
  5
1337A
  8
0
 10
207.4752344397493
 20
171.3805581979754
 30
0.0
  0
VERTEX
  5
1337B
  8
0
 10
207.44569685728069
 20
171.46070156049711
 30
0.0
  0
VERTEX
  5
1337C
  8
0
 10
207.42446960246741
 20
171.55167695728349
 30
0.0
  0
VERTEX
  5
1337D
  8
0
 10
207.4124235268529
 20
171.64975210804519
 30
0.0
  0
VERTEX
  5
1337E
  8
0
 10
207.41005282262731
 20
171.7509034639437
 30
0.0
  0
SEQEND
  5
1337F
  8
0
  0
LINE
  5
F6D5
  8
0
 10
233.48265054614839
 20
171.7509034639437
 30
0.0
 11
205.07131057584209
 21
171.7509034639437
 31
0.0
  0
LINE
  5
F6D8
  8
0
 10
234.31132463745621
 20
186.3931946240599
 30
0.0
 11
234.67996329156711
 21
171.64909130585229
 31
0.0
  0
LINE
  5
F6D9
  8
0
 10
234.67996329156861
 20
171.6490913056887
 30
0.0
 11
233.48265054614839
 21
171.7509034639437
 31
0.0
  0
LINE
  5
F6DA
  8
0
 10
207.41005282263049
 20
171.75090346407291
 30
0.0
 11
207.7761459237019
 21
186.3931946240599
 31
0.0
  0
ARC
  5
F6DC
  8
0
 10
208.440975916822
 20
186.88394967982589
 30
0.0
 40
0.8263409978643412
 50
162.41784163407189
 51
216.43349146415079
  0
ARC
  5
F6DD
  8
0
 10
233.64649464433589
 20
186.88394967982589
 30
0.0
 40
0.8263409978645677
 50
323.56650853585779
 51
17.582158365917749
  0
ARC
  5
F6E4
  8
0
 10
234.6124315641315
 20
169.56759839921349
 30
0.0
 40
2.0825881143225979
 50
32.443661797261711
 51
88.141753834492391
  0
POLYLINE
  5
F6E6
  8
0
 66
     1
 10
0.0
 20
0.0
 30
0.0
 70
   128
  0
VERTEX
  5
13380
  8
0
 10
237.08000101385721
 20
168.77732702758419
 30
0.0
  0
VERTEX
  5
13381
  8
0
 10
237.1226109772133
 20
168.5965968134249
 30
0.0
  0
VERTEX
  5
13382
  8
0
 10
237.16043128912051
 20
168.460799642702
 30
0.0
  0
VERTEX
  5
13383
  8
0
 10
237.18545218740351
 20
168.37849314219369
 30
0.0
  0
VERTEX
  5
13384
  8
0
 10
237.19434628680801
 20
168.35090392342539
 30
0.0
  0
SEQEND
  5
13385
  8
0
  0
POLYLINE
  5
F6E7
  8
0
 66
     1
 10
0.0
 20
0.0
 30
0.0
 70
   128
  0
VERTEX
  5
13386
  8
0
 10
236.36996798813479
 20
170.6848445548134
 30
0.0
  0
VERTEX
  5
13387
  8
0
 10
236.77310244470681
 20
169.8212508215874
 30
0.0
  0
VERTEX
  5
13388
  8
0
 10
237.08000053891911
 20
168.77732926153061
 30
0.0
  0
SEQEND
  5
13389
  8
0
  0
LINE
  5
F6F6
  8
0
 10
75.651295880135166
 20
147.53606035122749
 30
0.0
 11
75.151295880135166
 21
147.8247354858222
 31
0.0
  0
LINE
  5
F6F7
  8
0
 10
57.151295880135173
 20
147.8247354858222
 30
0.0
 11
56.651295880135173
 21
147.53606035122749
 31
0.0
  0
LINE
  5
F6F8
  8
0
 10
56.651295880135173
 20
142.11341062041711
 30
0.0
 11
57.151295880135173
 21
141.8247354858222
 31
0.0
  0
LINE
  5
F6F9
  8
0
 10
75.151295880135166
 20
141.8247354858222
 30
0.0
 11
75.651295880135166
 21
142.11341062041711
 31
0.0
  0
ARC
  5
F6FA
  8
0
 10
72.151295869251101
 20
177.2247354322574
 30
0.0
 40
12.500000053565151
 50
44.05222551368599
 51
89.999999950110066
  0
ARC
  5
F6FB
  8
0
 10
60.151294091590827
 20
177.22474428805879
 30
0.0
 40
12.49999119776386
 50
89.999991801910852
 51
135.94773384453339
  0
ARC
  5
F6FC
  8
0
 10
55.438087444253341
 20
166.84501546881481
 30
0.0
 40
4.3552569347975041
 50
95.401448056807553
 51
127.52582160973949
  0
LINE
  5
F6FD
  8
0
 10
50.887543572855371
 20
185.27317963874941
 30
0.0
 11
50.000684732198778
 21
168.3509034763577
 31
0.0
  0
ARC
  5
F6FE
  8
0
 10
81.624405817494875
 20
171.72473548582221
 30
0.0
 40
0.5
 50
270.0
 51
3.0000000000023381
  0
LINE
  5
F6FF
  8
0
 10
82.123720584871378
 20
171.7509034639437
 30
0.0
 11
81.415048187415067
 21
185.27317963874941
 31
0.0
  0
POLYLINE
  5
F700
  8
0
 66
     1
 10
0.0
 20
0.0
 30
0.0
 70
   128
  0
VERTEX
  5
1338A
  8
0
 10
81.415048187415067
 20
185.27317963874941
 30
0.0
  0
VERTEX
  5
1338B
  8
0
 10
81.333296853926043
 20
185.62001068937019
 30
0.0
  0
VERTEX
  5
1338C
  8
0
 10
81.135124851658105
 20
185.9161575341918
 30
0.0
  0
SEQEND
  5
1338D
  8
0
  0
POLYLINE
  5
F701
  8
0
 66
     1
 10
0.0
 20
0.0
 30
0.0
 70
   128
  0
VERTEX
  5
1338E
  8
0
 10
51.16746690861234
 20
185.9161575341918
 30
0.0
  0
VERTEX
  5
1338F
  8
0
 10
50.969294906344402
 20
185.62001068937019
 30
0.0
  0
VERTEX
  5
13390
  8
0
 10
50.887543572855371
 20
185.27317963874941
 30
0.0
  0
SEQEND
  5
13391
  8
0
  0
ARC
  5
F702
  8
0
 10
50.50002369059083
 20
168.3247444285154
 30
0.0
 40
0.5000236905908365
 50
177.00116695665619
 51
269.55994347402458
  0
LINE
  5
F703
  8
0
 10
50.496183328757041
 20
167.82473548582229
 30
0.0
 11
51.195879410287482
 21
167.82473548582229
 31
0.0
  0
ARC
  5
F704
  8
0
 10
51.195841644372379
 20
168.12473549193089
 30
0.0
 40
0.3000000084856829
 50
270.00721275829773
 51
333.69666710412241
  0
LINE
  5
F706
  8
0
 10
51.464779848603229
 20
167.99179848656189
 30
0.0
 11
51.494696562728187
 21
168.1041545832029
 31
0.0
  0
LINE
  5
F707
  8
0
 10
74.651295880135166
 20
163.6247354858223
 30
0.0
 11
74.651295880135166
 21
171.22473548582221
 31
0.0
  0
LINE
  5
F708
  8
0
 10
57.651295880135159
 20
171.22473548582221
 30
0.0
 11
57.651295880135173
 21
163.6247354858223
 31
0.0
  0
ARC
  5
F709
  8
0
 10
66.151295880135166
 20
138.0247354858223
 30
0.0
 40
5.9999999999999929
 50
259.524686156771
 51
280.47531384322889
  0
LINE
  5
F70A
  8
0
 10
76.151295880135166
 20
160.3247354858222
 30
0.0
 11
76.151295880135166
 21
163.42473548582231
 31
0.0
  0
LINE
  5
F70B
  8
0
 10
56.151295880135159
 20
163.42473548582231
 30
0.0
 11
56.151295880135159
 21
160.3247354858222
 31
0.0
  0
LINE
  5
F70C
  8
0
 10
76.151295880135166
 20
163.42473548582231
 30
0.0
 11
75.951295880135234
 21
163.6247354858223
 31
0.0
  0
LINE
  5
F70D
  8
0
 10
56.351295880135211
 20
163.6247354858223
 30
0.0
 11
56.151295880135159
 21
163.42473548582231
 31
0.0
  0
LINE
  5
F70E
  8
0
 10
56.151295880135159
 20
160.3247354858222
 30
0.0
 11
56.351295880135211
 21
160.1247354858223
 31
0.0
  0
LINE
  5
F70F
  8
0
 10
75.951295880135234
 20
160.1247354858223
 30
0.0
 11
76.151295880135166
 21
160.3247354858222
 31
0.0
  0
LINE
  5
F712
  8
0
 10
72.16129588013527
 20
149.1247354858223
 30
0.0
 11
72.16129588013527
 21
152.1247354858223
 31
0.0
  0
LINE
  5
F713
  8
0
 10
60.141295880135168
 20
152.1247354858223
 30
0.0
 11
60.141295880135168
 21
149.1247354858223
 31
0.0
  0
LINE
  5
F714
  8
0
 10
72.151295880135166
 20
133.1347354858222
 30
0.0
 11
72.151295880135166
 21
141.8247354858222
 31
0.0
  0
LINE
  5
F715
  8
0
 10
72.151295880135166
 20
147.8247354858222
 30
0.0
 11
72.151295880135166
 21
149.1247354858223
 31
0.0
  0
LINE
  5
F716
  8
0
 10
60.151295880135159
 20
149.1247354858223
 30
0.0
 11
60.151295880135159
 21
147.8247354858222
 31
0.0
  0
LINE
  5
F717
  8
0
 10
60.151295880135159
 20
141.8247354858222
 30
0.0
 11
60.151295880135159
 21
133.1347354858222
 31
0.0
  0
LINE
  5
F718
  8
0
 10
60.151295880135159
 20
133.1347354858222
 30
0.0
 11
61.151295880135159
 21
132.1347354858222
 31
0.0
  0
LINE
  5
F719
  8
0
 10
71.151295880135166
 20
132.1347354858222
 30
0.0
 11
72.151295880135166
 21
133.1347354858222
 31
0.0
  0
LINE
  5
F71A
  8
0
 10
61.151295880135159
 20
132.1257354858223
 30
0.0
 11
61.152295880135263
 21
132.12473548582221
 31
0.0
  0
LINE
  5
F71B
  8
0
 10
71.150295880135189
 20
132.12473548582221
 30
0.0
 11
71.151295880135166
 21
132.1257354858223
 31
0.0
  0
LINE
  5
F71C
  8
0
 10
61.151295880135159
 20
132.1347354858222
 30
0.0
 11
61.151295880135159
 21
132.1257354858223
 31
0.0
  0
LINE
  5
F71D
  8
0
 10
71.151295880135166
 20
132.1257354858223
 30
0.0
 11
71.151295880135166
 21
132.1347354858222
 31
0.0
  0
LINE
  5
F724
  8
0
 10
75.651295880135166
 20
147.53606035122729
 30
0.0
 11
75.651295880135166
 21
142.1134106204172
 31
0.0
  0
ARC
  5
F725
  8
0
 10
70.901295880135166
 20
133.56448929500829
 30
0.0
 40
13.956265343853881
 50
70.101865707357277
 51
109.89813429264269
  0
ARC
  5
F726
  8
0
 10
61.40129588013528
 20
133.56448929500769
 30
0.0
 40
13.95626534385439
 50
70.101865707357277
 51
109.89813429264269
  0
LINE
  5
F727
  8
0
 10
56.651295880135173
 20
142.11341062041711
 30
0.0
 11
56.651295880135173
 21
147.53606035122729
 31
0.0
  0
LINE
  5
F728
  8
0
 10
75.151295880135166
 20
147.8247354858222
 30
0.0
 11
57.151295880135173
 21
147.8247354858222
 31
0.0
  0
ARC
  5
F72A
  8
0
 10
61.40129588013528
 20
156.08498167663669
 30
0.0
 40
13.95626534385427
 50
250.10186570735729
 51
289.89813429264569
  0
ARC
  5
F72B
  8
0
 10
70.90129588013528
 20
156.0849816766364
 30
0.0
 40
13.95626534385411
 50
250.10186570735729
 51
289.89813429264569
  0
LINE
  5
F72D
  8
0
 10
75.151295880135166
 20
141.8247354858222
 30
0.0
 11
57.151295880135173
 21
141.8247354858222
 31
0.0
  0
LINE
  5
F72E
  8
0
 10
66.15129588013528
 20
146.68755457519561
 30
0.0
 11
66.15129588013528
 21
142.961916396449
 31
0.0
  0
LINE
  5
F732
  8
0
 10
72.15129588013528
 20
189.72473548582221
 30
0.0
 11
60.151295880135159
 21
189.72473548582261
 31
0.0
  0
LINE
  5
F734
  8
0
 10
81.624405817494846
 20
171.2247354858211
 30
0.0
 11
55.794992944014979
 21
171.22473548582229
 31
0.0
  0
POLYLINE
  5
F736
  8
0
 66
     1
 10
0.0
 20
0.0
 30
0.0
 70
   128
  0
VERTEX
  5
13392
  8
0
 10
51.507508649779503
 20
168.16033562302559
 30
0.0
  0
VERTEX
  5
13393
  8
0
 10
51.543545866137009
 20
168.321653022943
 30
0.0
  0
VERTEX
  5
13394
  8
0
 10
51.608856785272643
 20
168.5644667930132
 30
0.0
  0
SEQEND
  5
13395
  8
0
  0
ARC
  5
F737
  8
0
 10
55.057575145652642
 20
167.4918413117615
 30
0.0
 40
3.611673262111633
 50
128.98892518278669
 51
162.7231841431514
  0
POLYLINE
  5
F73A
  8
0
 66
     1
 10
0.0
 20
0.0
 30
0.0
 70
   128
  0
VERTEX
  5
13396
  8
0
 10
51.494696562728187
 20
168.1041545832029
 30
0.0
  0
VERTEX
  5
13397
  8
0
 10
51.496694819655289
 20
168.11014973050641
 30
0.0
  0
VERTEX
  5
13398
  8
0
 10
51.507508649779503
 20
168.16033562302559
 30
0.0
  0
SEQEND
  5
13399
  8
0
  0
LINE
  5
F73B
  8
0
 10
74.651295880135166
 20
166.1247354858223
 30
0.0
 11
57.651295880135159
 21
166.1247354858223
 31
0.0
  0
LINE
  5
F73E
  8
0
 10
56.351295880135211
 20
163.6247354858223
 30
0.0
 11
75.951295880135234
 21
163.6247354858223
 31
0.0
  0
LINE
  5
F73F
  8
0
 10
75.951295880135234
 20
160.1247354858223
 30
0.0
 11
56.351295880135211
 21
160.1247354858223
 31
0.0
  0
LINE
  5
F740
  8
0
 10
66.151295880135166
 20
160.1247354858223
 30
0.0
 11
66.151295880135166
 21
152.1247354858223
 31
0.0
  0
LINE
  5
F741
  8
0
 10
73.151295880135166
 20
152.1247354858223
 30
0.0
 11
59.151295880135173
 21
152.1247354858223
 31
0.0
  0
LINE
  5
F742
  8
0
 10
59.151295880135173
 20
160.1247354858223
 30
0.0
 11
59.151295880135173
 21
152.1247354858223
 31
0.0
  0
LINE
  5
F743
  8
0
 10
73.151295880135166
 20
160.1247354858223
 30
0.0
 11
73.151295880135166
 21
152.1247354858223
 31
0.0
  0
LINE
  5
F745
  8
0
 10
72.16129588013527
 20
149.1247354858223
 30
0.0
 11
60.141295880135168
 21
149.1247354858223
 31
0.0
  0
LINE
  5
F746
  8
0
 10
72.151295880135166
 20
133.1347354858222
 30
0.0
 11
60.151295880135159
 21
133.1347354858222
 31
0.0
  0
LINE
  5
F747
  8
0
 10
71.151295880135166
 20
132.1347354858222
 30
0.0
 11
61.151295880135159
 21
132.1347354858222
 31
0.0
  0
LINE
  5
F74B
  8
0
 10
71.150295880135189
 20
132.12473548582221
 30
0.0
 11
61.152295880135227
 21
132.1247354858223
 31
0.0
  0
POLYLINE
  5
F74D
  8
0
 66
     1
 10
0.0
 20
0.0
 30
0.0
 70
   128
  0
VERTEX
  5
1339A
  8
0
 10
52.760798221571207
 20
187.1335650312092
 30
0.0
  0
VERTEX
  5
1339B
  8
0
 10
52.155583665704143
 20
186.7004202797815
 30
0.0
  0
VERTEX
  5
1339C
  8
0
 10
51.882737773514208
 20
186.4939244244668
 30
0.0
  0
VERTEX
  5
1339D
  8
0
 10
51.651059294899447
 20
186.3127780306931
 30
0.0
  0
VERTEX
  5
1339E
  8
0
 10
51.447526585056011
 20
186.1489811283715
 30
0.0
  0
VERTEX
  5
1339F
  8
0
 10
51.29907901274894
 20
186.02668332323489
 30
0.0
  0
VERTEX
  5
133A0
  8
0
 10
51.20090033747735
 20
185.94441714579619
 30
0.0
  0
VERTEX
  5
133A1
  8
0
 10
51.167477639013519
 20
185.9161666049512
 30
0.0
  0
SEQEND
  5
133A2
  8
0
  0
ARC
  5
F74E
  8
0
 10
68.19202642508273
 20
170.62772600075331
 30
0.0
 40
20.03147362608787
 50
49.748939537233341
 51
55.486756465339091
  0
ARC
  5
F74F
  8
0
 10
73.217018805055844
 20
177.9008687196266
 30
0.0
 40
11.19131165740834
 50
55.587261054014327
 51
89.909736308029949
  0
LINE
  5
F750
  8
0
 10
73.234649574702843
 20
189.0921664892868
 30
0.0
 11
59.067942185567489
 21
189.0921664892868
 31
0.0
  0
ARC
  5
F751
  8
0
 10
59.085670427018577
 20
177.90055483815911
 30
0.0
 40
11.191625692463459
 50
90.090760168901966
 51
124.412242469056
  0
ARC
  5
F753
  8
0
 10
73.889803279373353
 20
171.6707817402702
 30
0.0
 40
0.4554392868394198
 50
281.65667115679747
 51
10.13230876194379
  0
ARC
  5
F754
  8
0
 10
58.412788480897092
 20
171.6707817402702
 30
0.0
 40
0.4554392868394198
 50
169.86769123805621
 51
258.34332884320241
  0
LINE
  5
F756
  8
0
 10
74.338139596653576
 20
171.7509034639437
 30
0.0
 11
73.723146967927363
 21
188.19510796525259
 31
0.0
  0
LINE
  5
F757
  8
0
 10
58.579444792343082
 20
188.19510796525259
 30
0.0
 11
57.964452163616869
 21
171.7509034639437
 31
0.0
  0
ARC
  5
F758
  8
0
 10
72.71480824549937
 20
188.22754844844479
 30
0.0
 40
1.00886042845255
 50
358.15730384554439
 51
58.984110706680703
  0
ARC
  5
F759
  8
0
 10
59.587783514771068
 20
188.22754844844479
 30
0.0
 40
1.0088604284525871
 50
121.0158892933264
 51
181.84269615445561
  0
LINE
  5
F75B
  8
0
 10
82.123720584872174
 20
171.7509034639437
 30
0.0
 11
53.712380614565937
 21
171.7509034639437
 31
0.0
  0
POLYLINE
  5
F75D
  8
0
 66
     1
 10
0.0
 20
0.0
 30
0.0
 70
   128
  0
VERTEX
  5
133A3
  8
0
 10
79.546767696101
 20
171.22473548582221
 30
0.0
  0
VERTEX
  5
133A4
  8
0
 10
79.59483428188102
 20
171.2349917760427
 30
0.0
  0
VERTEX
  5
133A5
  8
0
 10
79.640928928246439
 20
171.2653398807478
 30
0.0
  0
VERTEX
  5
133A6
  8
0
 10
79.683160594914142
 20
171.31453476405949
 30
0.0
  0
VERTEX
  5
133A7
  8
0
 10
79.719796720965036
 20
171.3805581979754
 30
0.0
  0
VERTEX
  5
133A8
  8
0
 10
79.749334303433528
 20
171.46070156049711
 30
0.0
  0
VERTEX
  5
133A9
  8
0
 10
79.770561558246953
 20
171.55167695728349
 30
0.0
  0
VERTEX
  5
133AA
  8
0
 10
79.782607633861488
 20
171.64975210804519
 30
0.0
  0
VERTEX
  5
133AB
  8
0
 10
79.784978338086916
 20
171.7509034639437
 30
0.0
  0
SEQEND
  5
133AC
  8
0
  0
LINE
  5
F75E
  8
0
 10
52.51506786915067
 20
171.64909130585229
 30
0.0
 11
52.883706523261573
 21
186.3931946240599
 31
0.0
  0
LINE
  5
F760
  8
0
 10
53.712380614565831
 20
171.7509034639437
 30
0.0
 11
52.515067869145668
 21
171.64909130568881
 31
0.0
  0
LINE
  5
F762
  8
0
 10
79.418885237012404
 20
186.3931946240599
 30
0.0
 11
79.784978338085551
 21
171.75090346407291
 31
0.0
  0
ARC
  5
F763
  8
0
 10
53.5485365163781
 20
186.88394967982589
 30
0.0
 40
0.8263409978642954
 50
162.41784163407189
 51
216.43349146415389
  0
ARC
  5
F764
  8
0
 10
78.754055243892338
 20
186.88394967982589
 30
0.0
 40
0.8263409978643158
 50
323.56650853585342
 51
17.58215836593142
  0
ARC
  5
F76D
  8
0
 10
52.584505619124428
 20
169.56425777395901
 30
0.0
 40
2.0859895628087419
 50
91.907595891585444
 51
147.50698847666251
  0
POLYLINE
  5
F76E
  8
0
 66
     1
 10
0.0
 20
0.0
 30
0.0
 70
   128
  0
VERTEX
  5
133AD
  8
0
 10
50.115030621762543
 20
168.7773292614169
 30
0.0
  0
VERTEX
  5
133AE
  8
0
 10
50.42192871598283
 20
169.8212508215328
 30
0.0
  0
VERTEX
  5
133AF
  8
0
 10
50.825063172579434
 20
170.6848445548134
 30
0.0
  0
SEQEND
  5
133B0
  8
0
  0
ARC
  5
F76F
  8
0
 10
45.972097828121569
 20
169.65971364413409
 30
0.0
 40
4.2358581584714283
 50
342.00361007290411
 51
347.97646021442699
  0
LINE
  5
F77C
  8
0
 10
55.028111976712736
 20
171.1809332591005
 30
0.0
 11
55.794992944014979
 21
171.22473548582229
 31
0.0
  0
POLYLINE
  5
F9E7
  8
0
 66
     1
 10
0.0
 20
0.0
 30
0.0
 70
   128
  0
VERTEX
  5
133B1
  8
0
 10
144.5959676533202
 20
50.139294524650509
 30
0.0
  0
VERTEX
  5
133B2
  8
0
 10
145.36591298051269
 20
50.437055115561421
 30
0.0
  0
VERTEX
  5
133B3
  8
0
 10
146.07199262932039
 20
50.864017155926163
 30
0.0
  0
SEQEND
  5
133B4
  8
0
  0
POLYLINE
  5
F9E8
  8
0
 66
     1
 10
0.0
 20
0.0
 30
0.0
 70
   128
  0
VERTEX
  5
133B5
  8
0
 10
141.1230385313938
 20
50.864017155926163
 30
0.0
  0
VERTEX
  5
133B6
  8
0
 10
141.82911818020139
 20
50.437055115561421
 30
0.0
  0
VERTEX
  5
133B7
  8
0
 10
142.59906350739391
 20
50.139294524650509
 30
0.0
  0
SEQEND
  5
133B8
  8
0
  0
ARC
  5
F9E9
  8
0
 10
143.99419280496571
 20
54.86471135355653
 30
0.0
 40
4.9243355821474779
 50
208.32476286187071
 51
234.33435708796759
  0
ARC
  5
F9EA
  8
0
 10
143.2079073803578
 20
54.858494598931209
 30
0.0
 40
4.9151637160934536
 50
305.64094876996307
 51
331.69993128019968
  0
LINE
  5
F9EB
  8
0
 10
138.97050167466449
 20
53.712348269764583
 30
0.0
 11
139.65943623438571
 21
52.528268245022232
 31
0.0
  0
LINE
  5
F9EC
  8
0
 10
147.5355949263284
 20
52.528268245022232
 30
0.0
 11
148.22452948604959
 21
53.712348269764583
 31
0.0
  0
ARC
  5
F9ED
  8
0
 10
167.766237054567
 20
41.532059470013742
 30
0.0
 40
23.02689232047571
 50
134.46881881412739
 51
148.0648342706242
  0
ARC
  5
F9EE
  8
0
 10
119.428795951328
 20
41.53206077810632
 30
0.0
 40
23.02689006264049
 50
31.935165395746068
 51
45.529447064238319
  0
ARC
  5
F9F0
  8
0
 10
143.59751558035711
 20
66.151625995497639
 30
0.0
 40
11.47310993735953
 50
314.47403537178991
 51
45.529447064238319
  0
ARC
  5
F9F1
  8
0
 10
143.59751558035711
 20
66.151625995497639
 30
0.0
 40
11.473109937359521
 50
134.47055293576159
 51
225.5294470642431
  0
ARC
  5
F9F2
  8
0
 10
119.428795951328
 20
90.771191212888951
 30
0.0
 40
23.026890062640501
 50
314.47055293576159
 51
331.50545429053523
  0
ARC
  5
F9F3
  8
0
 10
167.7662352093862
 20
90.771191212888951
 30
0.0
 40
23.02689006264049
 50
208.4945457094652
 51
225.5294470642431
  0
ARC
  5
F9F4
  8
0
 10
143.59751558035711
 20
77.651625995497639
 30
0.0
 40
4.4731099373595207
 50
28.494545709465051
 51
151.50545429053491
  0
LINE
  5
F9F7
  8
0
 10
149.08234290883041
 20
56.651626300971436
 30
0.0
 11
138.1126882518837
 21
56.651626300971436
 31
0.0
  0
LINE
  5
F9FA
  8
0
 10
138.1126882518837
 20
75.651625690023835
 30
0.0
 11
149.08234290883041
 21
75.651625690023835
 31
0.0
  0
POLYLINE
  5
F9FD
  8
0
 66
     1
 10
0.0
 20
0.0
 30
0.0
 70
   128
  0
VERTEX
  5
133B9
  8
0
 10
144.5959676533202
 20
50.139294524650509
 30
0.0
  0
VERTEX
  5
133BA
  8
0
 10
144.58564941410069
 20
50.134922896485257
 30
0.0
  0
VERTEX
  5
133BB
  8
0
 10
144.51572786888201
 20
50.115359534482891
 30
0.0
  0
SEQEND
  5
133BC
  8
0
  0
ARC
  5
F9FE
  8
0
 10
143.59751558035711
 20
53.711967254519791
 30
0.0
 40
3.7119672545197941
 50
255.67833489804821
 51
284.32166510195191
  0
POLYLINE
  5
F9FF
  8
0
 66
     1
 10
0.0
 20
0.0
 30
0.0
 70
   128
  0
VERTEX
  5
133BD
  8
0
 10
142.6793032918321
 20
50.115359534482891
 30
0.0
  0
VERTEX
  5
133BE
  8
0
 10
142.60938174661339
 20
50.134922896485257
 30
0.0
  0
VERTEX
  5
133BF
  8
0
 10
142.59906350739391
 20
50.139294524650509
 30
0.0
  0
SEQEND
  5
133C0
  8
0
  0
POLYLINE
  5
FA00
  8
0
 66
     1
 10
0.0
 20
0.0
 30
0.0
 70
   128
  0
VERTEX
  5
133C1
  8
0
 10
145.53672988072131
 20
54.132015031735833
 30
0.0
  0
VERTEX
  5
133C2
  8
0
 10
145.67109109006921
 20
54.655490030507977
 30
0.0
  0
VERTEX
  5
133C3
  8
0
 10
145.8142251252392
 20
55.197092291872437
 30
0.0
  0
SEQEND
  5
133C4
  8
0
  0
ARC
  5
FA01
  8
0
 10
85.798015917083234
 20
93.695560095844485
 30
0.0
 40
72.668422117762162
 50
325.774081575406
 51
328.56369983438537
  0
POLYLINE
  5
FA02
  8
0
 66
     1
 10
0.0
 20
0.0
 30
0.0
 70
   128
  0
VERTEX
  5
133C5
  8
0
 10
141.6583012799928
 20
54.132015031735833
 30
0.0
  0
VERTEX
  5
133C6
  8
0
 10
141.52394007064501
 20
54.655490030507977
 30
0.0
  0
VERTEX
  5
133C7
  8
0
 10
141.3808060354749
 20
55.197092291872437
 30
0.0
  0
SEQEND
  5
133C8
  8
0
  0
ARC
  5
FA03
  8
0
 10
143.59751558035711
 20
54.603525023559783
 30
0.0
 40
1.995713851013486
 50
193.6659850215581
 51
346.33401497844193
  0
LINE
  5
FA0C
  8
0
 10
146.15941587939949
 20
56.485361938338208
 30
0.0
 11
145.8142251252392
 21
55.197092291872437
 31
0.0
  0
LINE
  5
FA0D
  8
0
 10
141.3808060354749
 20
55.197092291872437
 30
0.0
 11
141.03561528131459
 21
56.485361938338208
 31
0.0
  0
LINE
  5
FA0E
  8
0
 10
141.03561528131459
 20
75.817890052657063
 30
0.0
 11
141.66566396702169
 21
78.16926441804641
 31
0.0
  0
LINE
  5
FA0F
  8
0
 10
145.52936719369239
 20
78.16926441804641
 30
0.0
 11
146.15941587939949
 21
75.817890052657063
 31
0.0
  0
ARC
  5
FA10
  8
0
 10
143.59751558035711
 20
77.651625995497639
 30
0.0
 40
2.0000000000000022
 50
14.99999999999447
 51
164.99999999999881
  0
CIRCLE
  5
FA11
  8
0
 10
143.59751558035711
 20
66.151625995497639
 30
0.0
 40
2.4322482786909729
  0
CIRCLE
  5
FA12
  8
0
 10
143.59751558035711
 20
66.151625995497639
 30
0.0
 40
3.5000000000000031
  0
CIRCLE
  5
FA14
  8
0
 10
143.59751558035711
 20
66.151625995497639
 30
0.0
 40
4.25
  0
CIRCLE
  5
FA16
  8
3
 10
143.59751558035711
 20
66.151625995497639
 30
0.0
 40
5.2499999292194843
  0
CIRCLE
  5
FA17
  8
0
 10
143.59751558035711
 20
66.151625995497639
 30
0.0
 40
5.9999999999999956
  0
ARC
  5
FA1E
  8
0
 10
143.59751558035711
 20
66.151625995497639
 30
0.0
 40
10.0
 50
311.80513404243447
 51
348.19483206658589
  0
ARC
  5
FA1F
  8
0
 10
143.59751558035711
 20
66.151625995497639
 30
0.0
 40
10.000000000000011
 50
251.80512205599399
 51
288.1948779440059
  0
ARC
  5
FA20
  8
0
 10
143.59751558035711
 20
66.151625995497639
 30
0.0
 40
10.0
 50
191.80516793341411
 51
228.19486595756561
  0
ARC
  5
FA21
  8
0
 10
143.59751558035711
 20
66.151625995497639
 30
0.0
 40
9.9999999999999964
 50
131.80513404243439
 51
168.19483206658589
  0
ARC
  5
FA22
  8
0
 10
143.59751558035711
 20
66.151625995497639
 30
0.0
 40
10.0
 50
71.805122055992754
 51
108.1948779440072
  0
ARC
  5
FA23
  8
0
 10
143.59751558035711
 20
66.151625995497639
 30
0.0
 40
10.0
 50
11.80516793341409
 51
48.194865957565511
  0
ARC
  5
FA28
  8
0
 10
143.59751558035711
 20
57.695293882478111
 30
0.0
 40
7.196220218740998
 50
260.16878567135279
 51
279.83121432865011
  0
POLYLINE
  5
FA2D
  8
0
 66
     1
 10
0.0
 20
0.0
 30
0.0
 70
   128
  0
VERTEX
  5
133C9
  8
0
 10
144.00129359669151
 20
51.507838589112687
 30
0.0
  0
VERTEX
  5
133CA
  8
0
 10
143.59846294897619
 20
51.494504843811917
 30
0.0
  0
VERTEX
  5
133CB
  8
0
 10
143.19373756402271
 20
51.507838589112687
 30
0.0
  0
SEQEND
  5
133CC
  8
0
  0
POLYLINE
  5
FA2F
  8
0
 66
     1
 10
0.0
 20
0.0
 30
0.0
 70
   128
  0
VERTEX
  5
133CD
  8
0
 10
144.5612400314966
 20
51.6091869743275
 30
0.0
  0
VERTEX
  5
133CE
  8
0
 10
144.31354594521321
 20
51.54387611613744
 30
0.0
  0
VERTEX
  5
133CF
  8
0
 10
144.00129359669151
 20
51.507838589112687
 30
0.0
  0
SEQEND
  5
133D0
  8
0
  0
POLYLINE
  5
FA32
  8
0
 66
     1
 10
0.0
 20
0.0
 30
0.0
 70
   128
  0
VERTEX
  5
133D1
  8
0
 10
143.19373756402271
 20
51.507838589112687
 30
0.0
  0
VERTEX
  5
133D2
  8
0
 10
142.8814852155009
 20
51.54387611613744
 30
0.0
  0
VERTEX
  5
133D3
  8
0
 10
142.63379112921751
 20
51.6091869743275
 30
0.0
  0
SEQEND
  5
133D4
  8
0
  0
POLYLINE
  5
FA33
  8
0
 66
     1
 10
0.0
 20
0.0
 30
0.0
 70
   128
  0
VERTEX
  5
133D5
  8
0
 10
145.8142251252392
 20
55.197092291872437
 30
0.0
  0
VERTEX
  5
133D6
  8
0
 10
146.82115293212331
 20
55.449938920299942
 30
0.0
  0
VERTEX
  5
133D7
  8
0
 10
147.80020602151851
 20
55.795322691063816
 30
0.0
  0
SEQEND
  5
133D8
  8
0
  0
ARC
  5
FA34
  8
0
 10
143.33641380980481
 20
54.268164915029857
 30
0.0
 40
2.9275182258161099
 50
294.73259247754459
 51
330.41176857367708
  0
ARC
  5
FA35
  8
0
 10
143.775528432507
 20
54.177718294128979
 30
0.0
 40
2.8108570242052271
 50
208.82125403495999
 51
246.0343849138176
  0
ARC
  5
FA36
  8
0
 10
201.39701524363099
 20
93.695560095844485
 30
0.0
 40
72.668422117762162
 50
211.43630016561491
 51
214.2259184245944
  0
POLYLINE
  5
FA37
  8
0
 66
     1
 10
0.0
 20
0.0
 30
0.0
 70
   128
  0
VERTEX
  5
133D9
  8
0
 10
139.39482513919569
 20
55.795322691063816
 30
0.0
  0
VERTEX
  5
133DA
  8
0
 10
140.3738782285908
 20
55.449938920299942
 30
0.0
  0
VERTEX
  5
133DB
  8
0
 10
141.3808060354749
 20
55.197092291872437
 30
0.0
  0
SEQEND
  5
133DC
  8
0
  0
POLYLINE
  5
FA3D
  8
0
 66
     1
 10
0.0
 20
0.0
 30
0.0
 70
   128
  0
VERTEX
  5
133DD
  8
0
 10
146.16190181218181
 20
51.247294579605992
 30
0.0
  0
VERTEX
  5
133DE
  8
0
 10
145.5228673770288
 20
50.866501924555237
 30
0.0
  0
VERTEX
  5
133DF
  8
0
 10
144.8262436791519
 20
50.604749989669259
 30
0.0
  0
SEQEND
  5
133E0
  8
0
  0
POLYLINE
  5
FA3E
  8
0
 66
     1
 10
0.0
 20
0.0
 30
0.0
 70
   128
  0
VERTEX
  5
133E1
  8
0
 10
142.36878748156221
 20
50.604749989669259
 30
0.0
  0
VERTEX
  5
133E2
  8
0
 10
141.67216378368531
 20
50.866501924555237
 30
0.0
  0
VERTEX
  5
133E3
  8
0
 10
141.0331293485323
 20
51.247294579605992
 30
0.0
  0
SEQEND
  5
133E4
  8
0
  0
ARC
  5
FA44
  8
0
 10
143.59751558035711
 20
54.618812629996533
 30
0.0
 40
1.2789104331614789
 50
193.57987556394889
 51
346.42012443605438
  0
ARC
  5
FA47
  8
0
 10
143.8616156669616
 20
54.398374829411587
 30
0.0
 40
4.2343407508438569
 50
202.85716167199061
 51
228.08807832957001
  0
LINE
  5
FA48
  8
0
 10
139.9597719322154
 20
52.75360826120847
 30
0.0
 11
139.39482513919569
 21
53.976827819805081
 31
0.0
  0
LINE
  5
FA49
  8
0
 10
139.39482513919569
 20
53.976827819805081
 30
0.0
 11
139.39482513919569
 21
55.795322691063816
 31
0.0
  0
LINE
  5
FA4A
  8
0
 10
147.80020602151851
 20
55.795322691063816
 30
0.0
 11
147.80020602151851
 21
53.976827819805081
 31
0.0
  0
LINE
  5
FA4B
  8
0
 10
147.80020602151851
 20
53.976827819805081
 30
0.0
 11
147.23525922849871
 21
52.75360826120847
 31
0.0
  0
ARC
  5
FA4C
  8
0
 10
143.3333527193503
 20
54.398419560712242
 30
0.0
 40
4.234415971194843
 50
311.91214946498258
 51
337.1426105334603
  0
POLYLINE
  5
FA4F
  8
0
 66
     1
 10
0.0
 20
0.0
 30
0.0
 70
   128
  0
VERTEX
  5
133E5
  8
0
 10
144.8406721941391
 20
54.318523553173478
 30
0.0
  0
VERTEX
  5
133E6
  8
0
 10
145.0834582104543
 20
55.360786204199727
 30
0.0
  0
VERTEX
  5
133E7
  8
0
 10
145.3108974130148
 20
56.29950324476421
 30
0.0
  0
SEQEND
  5
133E8
  8
0
  0
POLYLINE
  5
FA50
  8
0
 66
     1
 10
0.0
 20
0.0
 30
0.0
 70
   128
  0
VERTEX
  5
133E9
  8
0
 10
141.88413173775101
 20
56.299503594314402
 30
0.0
  0
VERTEX
  5
133EA
  8
0
 10
142.1115302258367
 20
55.360974331359799
 30
0.0
  0
VERTEX
  5
133EB
  8
0
 10
142.35435896657501
 20
54.318523553173478
 30
0.0
  0
SEQEND
  5
133EC
  8
0
  0
ARC
  5
FA53
  8
0
 10
119.48636099342269
 20
41.578232515462233
 30
0.0
 40
23.453616142599451
 50
31.91382884814746
 51
45.550782764541907
  0
ARC
  5
FA54
  8
0
 10
143.5975173209209
 20
66.151625995497639
 30
0.0
 40
10.973111298152419
 50
134.4705586955412
 51
225.52944130445891
  0
ARC
  5
FA55
  8
0
 10
119.4345955523607
 20
90.766820053676355
 30
0.0
 40
23.519707772753129
 50
314.46793090392271
 51
331.50807185473582
  0
ARC
  5
FA56
  8
0
 10
143.59751558035711
 20
77.651626123052907
 30
0.0
 40
3.9731097676764402
 50
28.494539733474578
 51
151.5054602665289
  0
ARC
  5
FA57
  8
0
 10
167.76044993996561
 20
90.766830858027006
 30
0.0
 40
23.519725522635461
 50
208.4919346230148
 51
225.53206261832861
  0
ARC
  5
FA58
  8
0
 10
143.5989789813209
 20
66.152240394097149
 30
0.0
 40
10.971646479937471
 50
359.99679150738649
 51
45.532653605945782
  0
ARC
  5
FA59
  8
0
 10
143.59897760104141
 20
66.151012176114435
 30
0.0
 40
10.971647860184561
 50
314.46734941922
 51
0.0032054674466499
  0
ARC
  5
FA5A
  8
0
 10
167.70867016729119
 20
41.578232515462403
 30
0.0
 40
23.453616142599209
 50
134.44921723545809
 51
148.08617115185251
  0
POLYLINE
  5
FA62
  8
0
 66
     1
 10
0.0
 20
0.0
 30
0.0
 70
   128
  0
VERTEX
  5
133ED
  8
0
 10
145.31089943837969
 20
76.0037483939998
 30
0.0
  0
VERTEX
  5
133EE
  8
0
 10
145.08350093487741
 20
76.942277659635479
 30
0.0
  0
VERTEX
  5
133EF
  8
0
 10
144.8406721941391
 20
77.984728437821801
 30
0.0
  0
SEQEND
  5
133F0
  8
0
  0
POLYLINE
  5
FA64
  8
0
 66
     1
 10
0.0
 20
0.0
 30
0.0
 70
   128
  0
VERTEX
  5
133F1
  8
0
 10
142.35435896657501
 20
77.984728437821801
 30
0.0
  0
VERTEX
  5
133F2
  8
0
 10
142.11157295025981
 20
76.942465786795552
 30
0.0
  0
VERTEX
  5
133F3
  8
0
 10
141.88413372320571
 20
76.003748741971336
 30
0.0
  0
SEQEND
  5
133F4
  8
0
  0
ARC
  5
FA65
  8
0
 10
143.59751558035711
 20
77.684439360998809
 30
0.0
 40
1.2789104331614789
 50
13.57987556394556
 51
166.420124436051
  0
LINE
  5
FB69
  8
3
 10
148.84751550957651
 20
149.1247368567291
 30
0.0
 11
149.60751570865611
 21
150.44109581529739
 31
0.0
  0
LINE
  5
FB6A
  8
3
 10
138.3475156511376
 20
149.1247368567291
 30
0.0
 11
137.58751545205811
 21
150.44109581529739
 31
0.0
  0
LINE
  5
FB6B
  8
1
 10
143.59751558035711
 20
129.12473593285711
 30
0.0
 11
143.59751558035711
 21
192.72473494342
 31
0.0
  0
LINE
  5
FBD6
  8
3
 10
60.901295950915681
 20
149.1247360043827
 30
0.0
 11
60.901295950915681
 21
147.82473635008961
 31
0.0
  0
LINE
  5
FBD7
  8
3
 10
60.901295950915681
 20
141.824735366613
 30
0.0
 11
60.901295950915681
 21
132.3847351976338
 31
0.0
  0
LINE
  5
FBD8
  8
3
 10
71.40129580935465
 20
132.3847351976338
 30
0.0
 11
71.40129580935465
 21
141.824735366613
 31
0.0
  0
LINE
  5
FBD9
  8
3
 10
71.40129580935465
 20
147.82473635008961
 30
0.0
 11
71.40129580935465
 21
149.1247360043827
 31
0.0
  0
LINE
  5
FBDA
  8
3
 10
71.40129580935465
 20
149.1247360043827
 30
0.0
 11
72.161296008434164
 21
150.4410949629509
 31
0.0
  0
LINE
  5
FBDB
  8
3
 10
60.901295950915681
 20
149.1247360043827
 30
0.0
 11
60.141295751836161
 21
150.4410949629509
 31
0.0
  0
LINE
  5
FBE3
  8
1
 10
66.15129588013528
 20
129.1247354858223
 30
0.0
 11
66.15129588013528
 21
192.72473548582241
 31
0.0
  0
LINE
  5
FC69
  8
1
 10
221.04373528057911
 20
129.1247354858223
 30
0.0
 11
221.04373528057911
 21
192.72473548582221
 31
0.0
  0
LINE
  5
FC6C
  8
3
 10
215.7937353513596
 20
149.1247360043827
 30
0.0
 11
215.7937353513596
 21
147.82473635008961
 31
0.0
  0
LINE
  5
FC6D
  8
3
 10
215.7937353513596
 20
141.824735366613
 30
0.0
 11
215.7937353513596
 21
132.3847351976338
 31
0.0
  0
LINE
  5
FC6E
  8
3
 10
226.2937352097986
 20
132.3847351976338
 30
0.0
 11
226.2937352097986
 21
141.824735366613
 31
0.0
  0
LINE
  5
FC6F
  8
3
 10
226.2937352097986
 20
147.82473635008961
 30
0.0
 11
226.2937352097986
 21
149.1247360043827
 31
0.0
  0
LINE
  5
FC70
  8
3
 10
226.2937352097986
 20
149.1247360043827
 30
0.0
 11
227.05373540887811
 21
150.4410949629509
 31
0.0
  0
LINE
  5
FC71
  8
3
 10
215.7937353513596
 20
149.1247360043827
 30
0.0
 11
215.03373515228009
 21
150.4410949629509
 31
0.0
  0
CIRCLE
  5
FD07
  8
0
 10
143.59751558035711
 20
255.69784488077971
 30
0.0
 40
6.0
  0
LINE
  5
FD08
  8
1
 10
143.59751558035711
 20
274.84947161408871
 30
0.0
 11
143.59751558035711
 21
236.72473494342009
 31
0.0
  0
LINE
  5
FD09
  8
1
 10
129.12440564299749
 20
255.69784488077971
 30
0.0
 11
158.07062551771671
 21
255.69784488077971
 31
0.0
  0
LINE
  5
FD70
  8
0
 10
149.08234290883041
 20
75.651625690023835
 30
0.0
 11
154.56717403599191
 21
66.151625995497639
 31
0.0
  0
LINE
  5
FD7A
  8
0
 10
138.1126882518837
 20
75.651625690023835
 30
0.0
 11
132.6278571247222
 21
66.151625995497639
 31
0.0
  0
LINE
  5
FD7B
  8
0
 10
149.08234290883041
 20
56.651626300971436
 30
0.0
 11
154.56717403599191
 21
66.151625995497639
 31
0.0
  0
LINE
  5
FD7C
  8
0
 10
138.1126882518837
 20
56.651626300971436
 30
0.0
 11
132.6278571247222
 21
66.151625995497639
 31
0.0
  0
LINE
  5
FDA7
  8
1
 10
143.59751558035711
 20
85.124735932857163
 30
0.0
 11
143.59751558035711
 21
47.000000000000007
 31
0.0
  0
LINE
  5
FDA8
  8
1
 10
129.1244056429976
 20
66.151625995497639
 30
0.0
 11
158.07062551771659
 21
66.151625995497639
 31
0.0
  0
LINE
  5
FDC3
  8
0
 10
435.14470646689881
 20
142.96191647282279
 30
0.0
 11
437.11436151127572
 21
141.8247362189594
 31
0.0
  0
LINE
  5
FDC4
  8
0
 10
455.11436073641528
 20
141.8247362189594
 30
0.0
 11
457.08401578079207
 21
142.96191647282279
 31
0.0
  0
LINE
  5
FDC5
  8
0
 10
457.08401578079207
 20
146.68755508592761
 30
0.0
 11
455.11436073641528
 21
147.8247372024361
 31
0.0
  0
LINE
  5
FDC6
  8
0
 10
437.11436151127572
 20
147.8247372024361
 30
0.0
 11
435.14470646689881
 21
146.68755508592761
 31
0.0
  0
LINE
  5
FDCF
  8
0
 10
454.61436158578152
 20
163.62473643949659
 30
0.0
 11
454.61436158578152
 21
165.8758364730183
 31
0.0
  0
LINE
  5
FDD0
  8
0
 10
437.61436066190959
 20
165.8758364730183
 30
0.0
 11
437.61436066190947
 21
163.62473643949659
 31
0.0
  0
LINE
  5
FDD2
  8
0
 10
456.11436090032811
 20
163.42473677924309
 30
0.0
 11
455.91436124007453
 21
163.62473643949659
 31
0.0
  0
LINE
  5
FDD3
  8
0
 10
436.31436100761641
 20
163.62473643949659
 30
0.0
 11
436.11436134736289
 21
163.42473677924309
 31
0.0
  0
LINE
  5
FDD4
  8
0
 10
436.11436134736289
 20
160.32473645737801
 30
0.0
 11
436.31436100761641
 21
160.12473679712451
 31
0.0
  0
LINE
  5
FDD5
  8
0
 10
455.91436124007453
 20
160.12473679712451
 30
0.0
 11
456.11436090032811
 21
160.32473645737801
 31
0.0
  0
LINE
  5
FDD6
  8
0
 10
456.11436090032811
 20
160.32473645737801
 30
0.0
 11
456.11436090032811
 21
163.42473677924309
 31
0.0
  0
LINE
  5
FDD7
  8
0
 10
436.11436134736289
 20
163.42473677924309
 30
0.0
 11
436.11436134736289
 21
160.32473645737801
 31
0.0
  0
LINE
  5
FDD8
  8
0
 10
452.12436125214452
 20
149.1247368567291
 30
0.0
 11
452.12436125214452
 21
152.1247354858223
 31
0.0
  0
LINE
  5
FDD9
  8
0
 10
440.10436099554647
 20
152.1247354858223
 30
0.0
 11
440.10436099554647
 21
149.1247368567291
 31
0.0
  0
LINE
  5
FDDA
  8
0
 10
452.11436117599948
 20
133.1347366385761
 30
0.0
 11
452.11436117599948
 21
141.8247362189594
 31
0.0
  0
LINE
  5
FDDB
  8
0
 10
452.11436117599948
 20
147.8247372024361
 30
0.0
 11
452.11436117599948
 21
149.1247368567291
 31
0.0
  0
LINE
  5
FDDC
  8
0
 10
440.11436107169141
 20
149.1247368567291
 30
0.0
 11
440.11436107169141
 21
147.8247372024361
 31
0.0
  0
LINE
  5
FDDD
  8
0
 10
440.11436107169141
 20
141.8247362189594
 30
0.0
 11
440.11436107169141
 21
133.1347366385761
 31
0.0
  0
LINE
  5
FDDE
  8
0
 10
440.11436107169141
 20
133.1347366385761
 30
0.0
 11
441.11436123560418
 21
132.13473647466341
 31
0.0
  0
LINE
  5
FDDF
  8
0
 10
451.11436101208682
 20
132.13473647466341
 30
0.0
 11
452.11436117599948
 21
133.1347366385761
 31
0.0
  0
LINE
  5
FDE0
  8
0
 10
441.11436123560418
 20
132.13473647466341
 30
0.0
 11
441.11436123560418
 21
132.1257361733023
 31
0.0
  0
LINE
  5
FDE1
  8
0
 10
451.11436101208682
 20
132.1257361733023
 30
0.0
 11
451.11436101208682
 21
132.13473647466341
 31
0.0
  0
LINE
  5
FDE2
  8
0
 10
441.11436123560418
 20
132.1257361733023
 30
0.0
 11
441.11536101038803
 21
132.12473593285711
 31
0.0
  0
LINE
  5
FDE3
  8
0
 10
451.11336123730291
 20
132.12473593285711
 30
0.0
 11
451.11436101208682
 21
132.1257361733023
 31
0.0
  0
ARC
  5
FDE4
  8
0
 10
446.11436112384553
 20
128.9854366267208
 30
0.0
 40
18.532358963903029
 50
72.784919074301968
 51
107.215080925698
  0
LINE
  5
FDE5
  8
0
 10
451.5991884523188
 20
146.68755508592761
 30
0.0
 11
451.5991884523188
 21
142.96191647282279
 31
0.0
  0
ARC
  5
FDE6
  8
0
 10
446.11436112384553
 20
160.65811658541929
 30
0.0
 40
18.526705839091559
 50
252.7795020962059
 51
287.22049790379401
  0
LINE
  5
FDE7
  8
0
 10
440.62953379537208
 20
146.68755508592761
 30
0.0
 11
440.62953379537208
 21
142.96191647282279
 31
0.0
  0
ARC
  5
FDE8
  8
0
 10
454.34160211655552
 20
147.10511038550149
 30
0.0
 40
4.9685901927860563
 50
236.49910151420551
 51
303.50089848579438
  0
ARC
  5
FDE9
  8
0
 10
437.88712013113548
 20
147.10511017871619
 30
0.0
 40
4.9685900203525506
 50
236.49910019804341
 51
303.50089980195662
  0
LINE
  5
FDEA
  8
0
 10
455.11436073641528
 20
141.8247362189594
 30
0.0
 11
437.11436151127572
 21
141.8247362189594
 31
0.0
  0
ARC
  5
FDEB
  8
0
 10
454.34160211655552
 20
142.5443660300343
 30
0.0
 40
4.9685861428242992
 50
56.49907060139217
 51
123.50092939860779
  0
LINE
  5
FDEC
  8
0
 10
457.08401578079207
 20
146.68755508592761
 30
0.0
 11
457.08401578079207
 21
142.96191647282279
 31
0.0
  0
ARC
  5
FDED
  8
0
 10
437.88712013113548
 20
142.54436582325101
 30
0.0
 40
4.9685863152562284
 50
56.49907191754194
 51
123.500928082458
  0
LINE
  5
FDEE
  8
0
 10
455.11436073641528
 20
147.8247372024361
 30
0.0
 11
437.11436151127572
 21
147.8247372024361
 31
0.0
  0
LINE
  5
FDEF
  8
0
 10
435.14470646689881
 20
146.68755508592761
 30
0.0
 11
435.14470646689881
 21
142.96191647282279
 31
0.0
  0
LINE
  5
FDF3
  8
0
 10
436.31436100761641
 20
163.62473643949659
 30
0.0
 11
455.91436124007453
 21
163.62473643949659
 31
0.0
  0
LINE
  5
FDF4
  8
0
 10
455.91436124007453
 20
160.12473679712451
 30
0.0
 11
436.31436100761641
 21
160.12473679712451
 31
0.0
  0
LINE
  5
FDF5
  8
0
 10
450.1558130846476
 20
160.12473679712451
 30
0.0
 11
450.1558130846476
 21
152.1247354858223
 31
0.0
  0
LINE
  5
FDF6
  8
0
 10
442.07290916304339
 20
160.12473679712451
 30
0.0
 11
442.07290916304339
 21
152.1247354858223
 31
0.0
  0
LINE
  5
FDF7
  8
0
 10
454.19726504544963
 20
160.12473679712451
 30
0.0
 11
454.19726504544963
 21
152.1247354858223
 31
0.0
  0
LINE
  5
FDF8
  8
0
 10
438.03145720224131
 20
160.12473679712451
 30
0.0
 11
438.03145720224131
 21
152.1247354858223
 31
0.0
  0
LINE
  5
FDF9
  8
0
 10
454.19726504544963
 20
152.1247354858223
 30
0.0
 11
438.03145720224131
 21
152.1247354858223
 31
0.0
  0
LINE
  5
FDFA
  8
0
 10
452.12436125214452
 20
149.1247368567291
 30
0.0
 11
440.10436099554647
 21
149.1247368567291
 31
0.0
  0
LINE
  5
FDFB
  8
0
 10
452.11436117599948
 20
133.1347366385761
 30
0.0
 11
440.11436107169141
 21
133.1347366385761
 31
0.0
  0
LINE
  5
FDFC
  8
0
 10
451.11436101208682
 20
132.13473647466341
 30
0.0
 11
441.11436123560418
 21
132.13473647466341
 31
0.0
  0
LINE
  5
FDFD
  8
0
 10
451.11336123730291
 20
132.12473593285711
 30
0.0
 11
441.11536101038803
 21
132.12473593285711
 31
0.0
  0
LINE
  5
FE10
  8
3
 10
440.86436119462599
 20
149.1247368567291
 30
0.0
 11
440.86436119462599
 21
147.8247372024361
 31
0.0
  0
LINE
  5
FE11
  8
3
 10
440.86436119462599
 20
141.8247362189594
 30
0.0
 11
440.86436119462599
 21
132.38473604998029
 31
0.0
  0
LINE
  5
FE12
  8
3
 10
451.36436105306501
 20
132.38473604998029
 30
0.0
 11
451.36436105306501
 21
141.8247362189594
 31
0.0
  0
LINE
  5
FE13
  8
3
 10
451.36436105306501
 20
147.8247372024361
 30
0.0
 11
451.36436105306501
 21
149.1247368567291
 31
0.0
  0
ARC
  5
FE14
  8
0
 10
470.73392634123712
 20
231.5291252517504
 30
0.0
 40
23.02689006264071
 50
121.9351653957488
 51
135.52944706424611
  0
ARC
  5
FE15
  8
0
 10
470.73392634123712
 20
279.86656450980911
 30
0.0
 40
23.02689006264071
 50
224.47055293575781
 51
238.0648346042513
  0
ARC
  5
FE16
  8
0
 10
446.11436112384558
 20
255.69784488077971
 30
0.0
 40
11.473109937359609
 50
224.47055293575781
 51
315.52944706424211
  0
ARC
  5
FE17
  8
0
 10
446.11436112384558
 20
255.69784488077971
 30
0.0
 40
11.473109937359601
 50
44.470552935757823
 51
135.52944706424611
  0
ARC
  5
FE18
  8
0
 10
421.4947959064541
 20
231.5291252517504
 30
0.0
 40
23.02689006264071
 50
44.470552935757823
 51
61.505454290533059
  0
ARC
  5
FE19
  8
0
 10
421.4947959064541
 20
279.86656450980911
 30
0.0
 40
23.02689006264071
 50
298.49454570946688
 51
315.52944706424211
  0
ARC
  5
FE1A
  8
0
 10
434.61436112384553
 20
255.69784488077971
 30
0.0
 40
4.473109937359558
 50
118.49454570947211
 51
241.50545429053301
  0
CIRCLE
  5
FE5F
  8
0
 10
446.11436112384558
 20
255.69784488077971
 30
0.0
 40
3.0000000000000631
  0
LINE
  5
FE60
  8
0
 10
445.53701085465599
 20
256.6978448807796
 30
0.0
 11
444.95966058546622
 21
255.69784488077971
 31
0.0
  0
LINE
  5
FE61
  8
0
 10
444.95966058546622
 20
255.69784488077971
 30
0.0
 11
445.53701085465599
 21
254.6978448807796
 31
0.0
  0
LINE
  5
FE62
  8
0
 10
445.53701085465599
 20
254.6978448807796
 30
0.0
 11
446.69171139303518
 21
254.6978448807796
 31
0.0
  0
LINE
  5
FE63
  8
0
 10
446.69171139303518
 20
254.6978448807796
 30
0.0
 11
447.26906166222489
 21
255.69784488077971
 31
0.0
  0
LINE
  5
FE64
  8
0
 10
447.26906166222489
 20
255.69784488077971
 30
0.0
 11
446.69171139303518
 21
256.6978448807796
 31
0.0
  0
LINE
  5
FE65
  8
0
 10
446.69171139303518
 20
256.6978448807796
 30
0.0
 11
445.53701085465599
 21
256.6978448807796
 31
0.0
  0
ARC
  5
FE66
  8
0
 10
457.40404680952378
 20
256.08304254760901
 30
0.0
 40
4.9166320891673649
 50
298.50700507513358
 51
325.1848615028822
  0
ARC
  5
FE67
  8
0
 10
457.4044591597148
 20
255.31310765911309
 30
0.0
 40
4.9160306702021694
 50
34.813476493607737
 51
61.494656928364734
  0
POLYLINE
  5
FE68
  8
0
 66
     1
 10
0.0
 20
0.0
 30
0.0
 70
   128
  0
VERTEX
  5
133F5
  8
0
 10
462.15062685712371
 20
256.6160571857929
 30
0.0
  0
VERTEX
  5
133F6
  8
0
 10
461.84372828799792
 20
257.43848991665539
 30
0.0
  0
VERTEX
  5
133F7
  8
0
 10
461.44059383140137
 20
258.11970247532412
 30
0.0
  0
SEQEND
  5
133F8
  8
0
  0
ARC
  5
FE69
  8
0
 10
458.55406616275422
 20
255.69784488077971
 30
0.0
 40
3.711921694400468
 50
345.67815509634391
 51
14.321844903656119
  0
POLYLINE
  5
FE6A
  8
0
 66
     1
 10
0.0
 20
0.0
 30
0.0
 70
   128
  0
VERTEX
  5
133F9
  8
0
 10
461.44059383140137
 20
253.27598728623519
 30
0.0
  0
VERTEX
  5
133FA
  8
0
 10
461.84372828797331
 20
253.9571998448518
 30
0.0
  0
VERTEX
  5
133FB
  8
0
 10
462.15062685712371
 20
254.7796325757665
 30
0.0
  0
SEQEND
  5
133FC
  8
0
  0
ARC
  5
FE6B
  8
0
 10
458.34673873217162
 20
255.69784488077971
 30
0.0
 40
2.7461719531649229
 50
294.9433275600303
 51
65.056672439969603
  0
ARC
  5
FE6C
  8
0
 10
469.19983268816429
 20
232.8208609994937
 30
0.0
 40
22.574779331249449
 50
115.4333210527243
 51
135.14137300865721
  0
ARC
  5
FE6D
  8
0
 10
446.11436112384558
 20
255.69784488077971
 30
0.0
 40
9.9260770978179824
 50
224.47055293575781
 51
315.52944706424211
  0
ARC
  5
FE6E
  8
0
 10
423.08585379878451
 20
232.90135216447899
 30
0.0
 40
22.477631361862478
 50
44.815610297070201
 51
64.609695641543766
  0
ARC
  5
FE6F
  8
0
 10
433.88198351550938
 20
255.69784488077971
 30
0.0
 40
2.7461719531606081
 50
114.9433275598431
 51
245.0566724401605
  0
ARC
  5
FE70
  8
0
 10
423.0688878958012
 20
278.5183106249653
 30
0.0
 40
22.50656402817831
 50
295.40315503488341
 51
315.17153902649881
  0
ARC
  5
FE71
  8
0
 10
446.11436112384558
 20
255.69784488077971
 30
0.0
 40
9.9260770978179718
 50
44.470552935757823
 51
135.52944706424611
  0
ARC
  5
FE72
  8
0
 10
469.15891774329231
 20
278.51701544583477
 30
0.0
 40
22.50500086817566
 50
224.82776754060021
 51
244.59753839801721
  0
LINE
  5
FE73
  8
0
 10
458.5536388495787
 20
260.32485878647219
 30
0.0
 11
459.75058913483502
 21
259.63318077078623
 31
0.0
  0
LINE
  5
FE74
  8
0
 10
459.75058913483502
 20
251.76250899077331
 30
0.0
 11
458.5536388495787
 21
251.0708309750872
 31
0.0
  0
LINE
  5
FE75
  8
0
 10
458.55363884957859
 20
251.07083097508709
 30
0.0
 11
458.5532763894148
 21
251.07141249583219
 31
0.0
  0
LINE
  5
FE76
  8
0
 10
514.23909756667786
 20
142.11341062041711
 30
0.0
 11
514.73909756667786
 21
141.8247354858222
 31
0.0
  0
LINE
  5
FE77
  8
0
 10
532.73909756667786
 20
141.8247354858222
 30
0.0
 11
533.23909756667786
 21
142.11341062041711
 31
0.0
  0
LINE
  5
FE78
  8
0
 10
533.23909756667786
 20
147.53606035122749
 30
0.0
 11
532.73909756667786
 21
147.8247354858222
 31
0.0
  0
LINE
  5
FE79
  8
0
 10
514.73909756667786
 20
147.8247354858222
 30
0.0
 11
514.23909756667786
 21
147.53606035122749
 31
0.0
  0
LINE
  5
FE86
  8
0
 10
532.23909756667786
 20
163.6247354858223
 30
0.0
 11
532.23909756667786
 21
165.87583623459969
 31
0.0
  0
LINE
  5
FE87
  8
0
 10
515.23909756667786
 20
165.87583623459969
 30
0.0
 11
515.23909756667786
 21
163.6247354858223
 31
0.0
  0
LINE
  5
FE89
  8
0
 10
533.73909756667786
 20
163.42473548582231
 30
0.0
 11
533.5390975666777
 21
163.6247354858223
 31
0.0
  0
LINE
  5
FE8A
  8
0
 10
513.93909756667779
 20
163.6247354858223
 30
0.0
 11
513.73909756667786
 21
163.42473548582231
 31
0.0
  0
LINE
  5
FE8B
  8
0
 10
513.73909756667786
 20
160.3247354858222
 30
0.0
 11
513.93909756667779
 21
160.1247354858223
 31
0.0
  0
LINE
  5
FE8C
  8
0
 10
533.5390975666777
 20
160.1247354858223
 30
0.0
 11
533.73909756667786
 21
160.3247354858222
 31
0.0
  0
LINE
  5
FE8D
  8
0
 10
533.73909756667786
 20
160.3247354858222
 30
0.0
 11
533.73909756667786
 21
163.42473548582231
 31
0.0
  0
LINE
  5
FE8E
  8
0
 10
513.73909756667786
 20
163.42473548582231
 30
0.0
 11
513.73909756667786
 21
160.3247354858222
 31
0.0
  0
LINE
  5
FE8F
  8
0
 10
529.74909756667785
 20
149.1247354858223
 30
0.0
 11
529.74909756667785
 21
152.1247354858223
 31
0.0
  0
LINE
  5
FE90
  8
0
 10
517.72909756667775
 20
152.1247354858223
 30
0.0
 11
517.72909756667775
 21
149.1247354858223
 31
0.0
  0
LINE
  5
FE91
  8
0
 10
529.73909756667786
 20
133.1347354858222
 30
0.0
 11
529.73909756667786
 21
141.8247354858222
 31
0.0
  0
LINE
  5
FE92
  8
0
 10
529.73909756667786
 20
147.8247354858222
 30
0.0
 11
529.73909756667786
 21
149.1247354858223
 31
0.0
  0
LINE
  5
FE93
  8
0
 10
517.73909756667786
 20
149.1247354858223
 30
0.0
 11
517.73909756667786
 21
147.8247354858222
 31
0.0
  0
LINE
  5
FE94
  8
0
 10
517.73909756667786
 20
141.8247354858222
 30
0.0
 11
517.73909756667786
 21
133.1347354858222
 31
0.0
  0
LINE
  5
FE95
  8
0
 10
517.73909756667786
 20
133.1347354858222
 30
0.0
 11
518.73909756667786
 21
132.1347354858222
 31
0.0
  0
LINE
  5
FE96
  8
0
 10
528.73909756667786
 20
132.1347354858222
 30
0.0
 11
529.73909756667786
 21
133.1347354858222
 31
0.0
  0
LINE
  5
FE97
  8
0
 10
518.73909756667786
 20
132.1257354858223
 30
0.0
 11
518.74009756667783
 21
132.12473548582221
 31
0.0
  0
LINE
  5
FE98
  8
0
 10
528.73809756667788
 20
132.12473548582221
 30
0.0
 11
528.73909756667786
 21
132.1257354858223
 31
0.0
  0
LINE
  5
FE99
  8
0
 10
518.73909756667786
 20
132.1347354858222
 30
0.0
 11
518.73909756667786
 21
132.1257354858223
 31
0.0
  0
LINE
  5
FE9A
  8
0
 10
528.73909756667786
 20
132.1257354858223
 30
0.0
 11
528.73909756667786
 21
132.1347354858222
 31
0.0
  0
LINE
  5
FE9B
  8
0
 10
514.73909756667786
 20
141.8247354858222
 30
0.0
 11
532.73909756667786
 21
141.8247354858222
 31
0.0
  0
ARC
  5
FE9C
  8
0
 10
518.98909756667786
 20
156.08498167663649
 30
0.0
 40
13.95626534385419
 50
250.10186570735411
 51
289.89813429264569
  0
ARC
  5
FE9D
  8
0
 10
528.48909756667786
 20
156.0849816766364
 30
0.0
 40
13.956265343854019
 50
250.10186570735411
 51
289.89813429264569
  0
LINE
  5
FE9E
  8
0
 10
533.23909756667786
 20
147.5360603512276
 30
0.0
 11
533.23909756667786
 21
142.1134106204172
 31
0.0
  0
LINE
  5
FE9F
  8
0
 10
514.23909756667786
 20
147.53606035122749
 30
0.0
 11
514.23909756667786
 21
142.113410620417
 31
0.0
  0
ARC
  5
FEA0
  8
0
 10
528.48909756667786
 20
133.564489295008
 30
0.0
 40
13.956265343854129
 50
70.101865707354222
 51
109.89813429264569
  0
LINE
  5
FEA1
  8
0
 10
523.73909756667786
 20
146.68755457519561
 30
0.0
 11
523.73909756667786
 21
142.961916396449
 31
0.0
  0
ARC
  5
FEA2
  8
0
 10
518.98909756667786
 20
133.564489295008
 30
0.0
 40
13.956265343854129
 50
70.101865707354222
 51
109.89813429264569
  0
LINE
  5
FEA3
  8
0
 10
532.73909756667786
 20
147.8247354858222
 30
0.0
 11
514.73909756667786
 21
147.8247354858222
 31
0.0
  0
LINE
  5
FEA8
  8
0
 10
513.93909756667779
 20
163.6247354858223
 30
0.0
 11
522.15377899719613
 21
163.6247354858223
 31
0.0
  0
LINE
  5
FEA9
  8
0
 10
533.5390975666777
 20
160.1247354858223
 30
0.0
 11
513.93909756667779
 21
160.1247354858223
 31
0.0
  0
LINE
  5
FEAB
  8
0
 10
530.73909756667786
 20
160.1247354858223
 30
0.0
 11
530.73909756667786
 21
152.1247354858223
 31
0.0
  0
LINE
  5
FEAC
  8
0
 10
523.73909756667786
 20
160.1247354858223
 30
0.0
 11
523.73909756667786
 21
152.1247354858223
 31
0.0
  0
LINE
  5
FEAD
  8
0
 10
516.73909756667786
 20
160.1247354858223
 30
0.0
 11
516.73909756667786
 21
152.1247354858223
 31
0.0
  0
LINE
  5
FEAE
  8
0
 10
530.73909756667786
 20
152.1247354858223
 30
0.0
 11
516.73909756667786
 21
152.1247354858223
 31
0.0
  0
LINE
  5
FEAF
  8
0
 10
529.74909756667785
 20
149.1247354858223
 30
0.0
 11
517.72909756667775
 21
149.1247354858223
 31
0.0
  0
LINE
  5
FEB0
  8
0
 10
529.73909756667786
 20
133.1347354858222
 30
0.0
 11
517.73909756667786
 21
133.1347354858222
 31
0.0
  0
LINE
  5
FEB1
  8
0
 10
528.73909756667786
 20
132.1347354858222
 30
0.0
 11
518.73909756667786
 21
132.13473548582229
 31
0.0
  0
LINE
  5
FEB2
  8
0
 10
528.73809756667788
 20
132.12473548582221
 30
0.0
 11
518.74009756667783
 21
132.12473548582221
 31
0.0
  0
LINE
  5
FEC8
  8
0
 10
378.16814142362381
 20
147.53606035122749
 30
0.0
 11
377.66814142362381
 21
147.8247354858222
 31
0.0
  0
LINE
  5
FEC9
  8
0
 10
359.66814142362369
 20
147.8247354858222
 30
0.0
 11
359.16814142362381
 21
147.53606035122749
 31
0.0
  0
LINE
  5
FECA
  8
0
 10
359.16814142362381
 20
142.11341062041711
 30
0.0
 11
359.66814142362369
 21
141.8247354858222
 31
0.0
  0
LINE
  5
FECB
  8
0
 10
377.66814142362381
 20
141.8247354858222
 30
0.0
 11
378.16814142362381
 21
142.11341062041711
 31
0.0
  0
LINE
  5
FED8
  8
0
 10
377.16814142362369
 20
163.6247354858223
 30
0.0
 11
377.16814142362369
 21
165.87583524740359
 31
0.0
  0
LINE
  5
FED9
  8
0
 10
360.16814142362369
 20
165.87583524740359
 30
0.0
 11
360.16814142362369
 21
163.6247354858223
 31
0.0
  0
LINE
  5
FEDB
  8
0
 10
378.66814142362369
 20
160.3247354858222
 30
0.0
 11
378.66814142362369
 21
163.42473548582231
 31
0.0
  0
LINE
  5
FEDC
  8
0
 10
358.66814142362381
 20
163.42473548582231
 30
0.0
 11
358.66814142362381
 21
160.3247354858222
 31
0.0
  0
LINE
  5
FEDD
  8
0
 10
378.66814142362369
 20
163.42473548582231
 30
0.0
 11
378.46814142362382
 21
163.6247354858223
 31
0.0
  0
LINE
  5
FEDE
  8
0
 10
358.8681414236238
 20
163.6247354858223
 30
0.0
 11
358.66814142362381
 21
163.42473548582231
 31
0.0
  0
LINE
  5
FEDF
  8
0
 10
358.66814142362381
 20
160.3247354858222
 30
0.0
 11
358.8681414236238
 21
160.1247354858223
 31
0.0
  0
LINE
  5
FEE0
  8
0
 10
378.46814142362382
 20
160.1247354858223
 30
0.0
 11
378.66814142362369
 21
160.3247354858222
 31
0.0
  0
LINE
  5
FEE1
  8
0
 10
374.67814142362391
 20
149.1247354858223
 30
0.0
 11
374.67814142362391
 21
152.1247354858223
 31
0.0
  0
LINE
  5
FEE2
  8
0
 10
362.65814142362382
 20
152.1247354858223
 30
0.0
 11
362.65814142362382
 21
149.1247354858223
 31
0.0
  0
LINE
  5
FEE3
  8
0
 10
374.66814142362369
 20
133.1347354858222
 30
0.0
 11
374.66814142362369
 21
141.8247354858222
 31
0.0
  0
LINE
  5
FEE4
  8
0
 10
374.66814142362369
 20
147.8247354858222
 30
0.0
 11
374.66814142362369
 21
149.1247354858223
 31
0.0
  0
LINE
  5
FEE5
  8
0
 10
362.66814142362381
 20
149.1247354858223
 30
0.0
 11
362.66814142362381
 21
147.8247354858222
 31
0.0
  0
LINE
  5
FEE6
  8
0
 10
362.66814142362381
 20
141.8247354858222
 30
0.0
 11
362.66814142362381
 21
133.1347354858222
 31
0.0
  0
LINE
  5
FEE7
  8
0
 10
362.66814142362381
 20
133.1347354858222
 30
0.0
 11
363.66814142362381
 21
132.1347354858222
 31
0.0
  0
LINE
  5
FEE8
  8
0
 10
373.66814142362381
 20
132.1347354858222
 30
0.0
 11
374.66814142362369
 21
133.1347354858222
 31
0.0
  0
LINE
  5
FEE9
  8
0
 10
363.66814142362381
 20
132.1257354858223
 30
0.0
 11
363.66914142362378
 21
132.12473548582221
 31
0.0
  0
LINE
  5
FEEA
  8
0
 10
373.66714142362378
 20
132.12473548582221
 30
0.0
 11
373.66814142362381
 21
132.1257354858223
 31
0.0
  0
LINE
  5
FEEB
  8
0
 10
363.66814142362381
 20
132.1347354858222
 30
0.0
 11
363.66814142362381
 21
132.1257354858223
 31
0.0
  0
LINE
  5
FEEC
  8
0
 10
373.66814142362381
 20
132.1257354858223
 30
0.0
 11
373.66814142362381
 21
132.1347354858222
 31
0.0
  0
LINE
  5
FEED
  8
0
 10
378.16814142362381
 20
147.53606035122729
 30
0.0
 11
378.16814142362381
 21
142.1134106204172
 31
0.0
  0
ARC
  5
FEEE
  8
0
 10
373.41814142362381
 20
133.56448929500829
 30
0.0
 40
13.956265343853881
 50
70.101865707354222
 51
109.89813429264569
  0
ARC
  5
FEEF
  8
0
 10
363.91814142362392
 20
133.56448929500769
 30
0.0
 40
13.95626534385439
 50
70.101865707354222
 51
109.89813429264569
  0
LINE
  5
FEF0
  8
0
 10
359.16814142362381
 20
142.11341062041711
 30
0.0
 11
359.16814142362381
 21
147.53606035122729
 31
0.0
  0
LINE
  5
FEF1
  8
0
 10
377.66814142362381
 20
147.8247354858222
 30
0.0
 11
359.66814142362369
 21
147.8247354858222
 31
0.0
  0
ARC
  5
FEF2
  8
0
 10
363.91814142362392
 20
156.08498167663669
 30
0.0
 40
13.95626534385427
 50
250.10186570735411
 51
289.89813429264569
  0
ARC
  5
FEF3
  8
0
 10
373.41814142362392
 20
156.0849816766364
 30
0.0
 40
13.95626534385411
 50
250.10186570735411
 51
289.89813429264569
  0
LINE
  5
FEF4
  8
0
 10
377.66814142362381
 20
141.8247354858222
 30
0.0
 11
359.66814142362369
 21
141.8247354858222
 31
0.0
  0
LINE
  5
FEF5
  8
0
 10
368.66814142362392
 20
146.68755457519561
 30
0.0
 11
368.66814142362392
 21
142.961916396449
 31
0.0
  0
LINE
  5
FEFC
  8
0
 10
358.8681414236238
 20
163.6247354858223
 30
0.0
 11
378.46814142362382
 21
163.6247354858223
 31
0.0
  0
LINE
  5
FEFD
  8
0
 10
378.46814142362382
 20
160.1247354858223
 30
0.0
 11
358.8681414236238
 21
160.1247354858223
 31
0.0
  0
LINE
  5
FEFE
  8
0
 10
368.66814142362369
 20
160.1247354858223
 30
0.0
 11
368.66814142362369
 21
152.1247354858223
 31
0.0
  0
LINE
  5
FEFF
  8
0
 10
375.66814142362381
 20
152.1247354858223
 30
0.0
 11
361.66814142362381
 21
152.1247354858223
 31
0.0
  0
LINE
  5
FF00
  8
0
 10
361.66814142362381
 20
160.1247354858223
 30
0.0
 11
361.66814142362381
 21
152.1247354858223
 31
0.0
  0
LINE
  5
FF01
  8
0
 10
375.66814142362381
 20
160.1247354858223
 30
0.0
 11
375.66814142362381
 21
152.1247354858223
 31
0.0
  0
LINE
  5
FF02
  8
0
 10
374.67814142362391
 20
149.1247354858223
 30
0.0
 11
362.65814142362382
 21
149.1247354858223
 31
0.0
  0
LINE
  5
FF03
  8
0
 10
374.66814142362369
 20
133.1347354858222
 30
0.0
 11
362.66814142362381
 21
133.1347354858222
 31
0.0
  0
LINE
  5
FF04
  8
0
 10
373.66814142362381
 20
132.1347354858222
 30
0.0
 11
363.66814142362381
 21
132.1347354858222
 31
0.0
  0
LINE
  5
FF05
  8
0
 10
373.66714142362378
 20
132.12473548582221
 30
0.0
 11
363.66914142362378
 21
132.1247354858223
 31
0.0
  0
POLYLINE
  5
FF1C
  8
0
 66
     1
 10
0.0
 20
0.0
 30
0.0
 70
   128
  0
VERTEX
  5
133FD
  8
0
 10
462.12669259469271
 20
67.150078068460758
 30
0.0
  0
VERTEX
  5
133FE
  8
0
 10
461.8289320037818
 20
67.920023395653303
 30
0.0
  0
VERTEX
  5
133FF
  8
0
 10
461.401969963417
 20
68.626103044460947
 30
0.0
  0
SEQEND
  5
13400
  8
0
  0
POLYLINE
  5
FF1D
  8
0
 66
     1
 10
0.0
 20
0.0
 30
0.0
 70
   128
  0
VERTEX
  5
13401
  8
0
 10
461.401969963417
 20
63.677148946534331
 30
0.0
  0
VERTEX
  5
13402
  8
0
 10
461.8289320037818
 20
64.383228595341976
 30
0.0
  0
VERTEX
  5
13403
  8
0
 10
462.12669259469271
 20
65.153173922534521
 30
0.0
  0
SEQEND
  5
13404
  8
0
  0
ARC
  5
FF1E
  8
0
 10
457.40127576578669
 20
66.548303220106163
 30
0.0
 40
4.9243355821474779
 50
298.32476286187108
 51
324.33435708796412
  0
ARC
  5
FF1F
  8
0
 10
457.40749252041189
 20
65.76201779549821
 30
0.0
 40
4.9151637160934536
 50
35.640948769959977
 51
61.699931280199813
  0
LINE
  5
FF20
  8
0
 10
458.55363884957859
 20
61.524612089805039
 30
0.0
 11
459.73771887432099
 21
62.213546649526293
 31
0.0
  0
LINE
  5
FF21
  8
0
 10
459.73771887432099
 20
70.089705341468985
 30
0.0
 11
458.55363884957859
 21
70.778639901190118
 31
0.0
  0
ARC
  5
FF22
  8
0
 10
470.73392764932947
 20
90.320347469707485
 30
0.0
 40
23.02689232047571
 50
224.46881881412611
 51
238.06483427062361
  0
ARC
  5
FF23
  8
0
 10
470.7339263412369
 20
41.98290636646847
 30
0.0
 40
23.02689006264049
 50
121.9351653957456
 51
135.5294470642379
  0
ARC
  5
FF24
  8
0
 10
446.11436112384558
 20
66.151625995497639
 30
0.0
 40
11.47310993735953
 50
44.474035371789881
 51
135.5294470642379
  0
ARC
  5
FF25
  8
0
 10
446.11436112384558
 20
66.151625995497639
 30
0.0
 40
11.473109937359521
 50
224.4705529357619
 51
315.5294470642462
  0
ARC
  5
FF26
  8
0
 10
421.49479590645433
 20
41.98290636646847
 30
0.0
 40
23.026890062640501
 50
44.47055293576188
 51
61.505454290534452
  0
ARC
  5
FF27
  8
0
 10
421.49479590645433
 20
90.320345624526695
 30
0.0
 40
23.02689006264049
 50
298.49454570946551
 51
315.5294470642462
  0
ARC
  5
FF28
  8
0
 10
434.61436112384553
 20
66.151625995497639
 30
0.0
 40
4.4731099373595207
 50
118.4945457094655
 51
241.5054542905346
  0
LINE
  5
FF29
  8
0
 10
451.59918845231891
 20
75.651625690023835
 30
0.0
 11
457.0840195794803
 21
66.151625995497639
 31
0.0
  0
LINE
  5
FF2A
  8
0
 10
451.59918845231891
 20
56.651626300971436
 30
0.0
 11
440.6295337953722
 21
56.651626300971436
 31
0.0
  0
LINE
  5
FF2B
  8
0
 10
440.6295337953722
 20
75.651625690023835
 30
0.0
 11
451.59918845231891
 21
75.651625690023835
 31
0.0
  0
POLYLINE
  5
FF2C
  8
0
 66
     1
 10
0.0
 20
0.0
 30
0.0
 70
   128
  0
VERTEX
  5
13405
  8
0
 10
462.12669259469271
 20
67.150078068460758
 30
0.0
  0
VERTEX
  5
13406
  8
0
 10
462.1310642228579
 20
67.139759829241271
 30
0.0
  0
VERTEX
  5
13407
  8
0
 10
462.15062758486027
 20
67.069838284022595
 30
0.0
  0
SEQEND
  5
13408
  8
0
  0
ARC
  5
FF2D
  8
0
 10
458.55401986482337
 20
66.151625995497639
 30
0.0
 40
3.7119672545197941
 50
345.67833489804832
 51
14.321665101951769
  0
POLYLINE
  5
FF2E
  8
0
 66
     1
 10
0.0
 20
0.0
 30
0.0
 70
   128
  0
VERTEX
  5
13409
  8
0
 10
462.15062758486027
 20
65.233413706972684
 30
0.0
  0
VERTEX
  5
1340A
  8
0
 10
462.1310642228579
 20
65.163492161754007
 30
0.0
  0
VERTEX
  5
1340B
  8
0
 10
462.12669259469271
 20
65.153173922534521
 30
0.0
  0
SEQEND
  5
1340C
  8
0
  0
POLYLINE
  5
FF2F
  8
0
 66
     1
 10
0.0
 20
0.0
 30
0.0
 70
   128
  0
VERTEX
  5
1340D
  8
0
 10
458.13397208760739
 20
68.090840295861895
 30
0.0
  0
VERTEX
  5
1340E
  8
0
 10
457.61049708883519
 20
68.225201505209739
 30
0.0
  0
VERTEX
  5
1340F
  8
0
 10
457.06889482747079
 20
68.368335540379817
 30
0.0
  0
SEQEND
  5
13410
  8
0
  0
ARC
  5
FF30
  8
0
 10
418.57042702349872
 20
8.3521263322237047
 30
0.0
 40
72.668422117762162
 50
55.774081575405091
 51
58.56369983438794
  0
POLYLINE
  5
FF31
  8
0
 66
     1
 10
0.0
 20
0.0
 30
0.0
 70
   128
  0
VERTEX
  5
13411
  8
0
 10
458.13397208760739
 20
64.212411695133383
 30
0.0
  0
VERTEX
  5
13412
  8
0
 10
457.61049708883519
 20
64.078050485785539
 30
0.0
  0
VERTEX
  5
13413
  8
0
 10
457.06889482747079
 20
63.934916450615461
 30
0.0
  0
SEQEND
  5
13414
  8
0
  0
ARC
  5
FF32
  8
0
 10
457.66246209578338
 20
66.151625995497639
 30
0.0
 40
1.995713851013486
 50
283.66598502155779
 51
76.334014978442042
  0
LINE
  5
FF33
  8
0
 10
455.78062518100501
 20
68.713526294540102
 30
0.0
 11
457.06889482747079
 21
68.368335540379817
 31
0.0
  0
LINE
  5
FF34
  8
0
 10
457.06889482747079
 20
63.934916450615461
 30
0.0
 11
455.78062518100501
 21
63.589725696455169
 31
0.0
  0
LINE
  5
FF35
  8
0
 10
436.4480970666861
 20
63.589725696455169
 30
0.0
 11
434.09672270129681
 21
64.219774382162328
 31
0.0
  0
LINE
  5
FF36
  8
0
 10
434.09672270129681
 20
68.083477608832951
 30
0.0
 11
436.4480970666861
 21
68.713526294540102
 31
0.0
  0
ARC
  5
FF37
  8
0
 10
434.61436112384553
 20
66.151625995497639
 30
0.0
 40
2.0000000000000022
 50
104.9999999999944
 51
254.99999999999829
  0
CIRCLE
  5
FF38
  8
0
 10
446.11436112384558
 20
66.151625995497639
 30
0.0
 40
2.4322482786909729
  0
CIRCLE
  5
FF39
  8
0
 10
446.11436112384558
 20
66.151625995497639
 30
0.0
 40
3.5000000000000031
  0
CIRCLE
  5
FF3A
  8
0
 10
446.11436112384558
 20
66.151625995497639
 30
0.0
 40
4.25
  0
CIRCLE
  5
FF3B
  8
3
 10
446.11436112384558
 20
66.151625995497639
 30
0.0
 40
5.2499999292194843
  0
CIRCLE
  5
FF3C
  8
0
 10
446.11436112384558
 20
66.151625995497639
 30
0.0
 40
5.9999999999999956
  0
ARC
  5
FF3D
  8
0
 10
446.11436112384558
 20
66.151625995497639
 30
0.0
 40
10.0
 50
311.80513404243379
 51
348.19483206658589
  0
ARC
  5
FF3E
  8
0
 10
446.11436112384558
 20
66.151625995497639
 30
0.0
 40
10.000000000000011
 50
251.80512205599661
 51
288.19487794400328
  0
ARC
  5
FF3F
  8
0
 10
446.11436112384558
 20
66.151625995497639
 30
0.0
 40
10.0
 50
191.80516793341411
 51
228.19486595756609
  0
ARC
  5
FF40
  8
0
 10
446.11436112384558
 20
66.151625995497639
 30
0.0
 40
9.9999999999999964
 50
131.80513404243379
 51
168.19483206658589
  0
ARC
  5
FF41
  8
0
 10
446.11436112384558
 20
66.151625995497639
 30
0.0
 40
10.0
 50
71.805122055990367
 51
108.1948779440096
  0
ARC
  5
FF42
  8
0
 10
446.11436112384558
 20
66.151625995497639
 30
0.0
 40
10.0
 50
11.80516793341409
 51
48.194865957566151
  0
ARC
  5
FF43
  8
0
 10
454.57069323686511
 20
66.151625995497639
 30
0.0
 40
7.196220218740998
 50
350.16878567134972
 51
9.8312143286503666
  0
POLYLINE
  5
FF44
  8
0
 66
     1
 10
0.0
 20
0.0
 30
0.0
 70
   128
  0
VERTEX
  5
13415
  8
0
 10
460.75814853023053
 20
66.555404011832039
 30
0.0
  0
VERTEX
  5
13416
  8
0
 10
460.7714822755313
 20
66.152573364116748
 30
0.0
  0
VERTEX
  5
13417
  8
0
 10
460.75814853023053
 20
65.74784797916324
 30
0.0
  0
SEQEND
  5
13418
  8
0
  0
POLYLINE
  5
FF45
  8
0
 66
     1
 10
0.0
 20
0.0
 30
0.0
 70
   128
  0
VERTEX
  5
13419
  8
0
 10
460.65680014501572
 20
67.115350446637208
 30
0.0
  0
VERTEX
  5
1341A
  8
0
 10
460.72211100320578
 20
66.867656360353763
 30
0.0
  0
VERTEX
  5
1341B
  8
0
 10
460.75814853023053
 20
66.555404011832039
 30
0.0
  0
SEQEND
  5
1341C
  8
0
  0
POLYLINE
  5
FF46
  8
0
 66
     1
 10
0.0
 20
0.0
 30
0.0
 70
   128
  0
VERTEX
  5
1341D
  8
0
 10
460.75814853023053
 20
65.74784797916324
 30
0.0
  0
VERTEX
  5
1341E
  8
0
 10
460.72211100320578
 20
65.435595630641515
 30
0.0
  0
VERTEX
  5
1341F
  8
0
 10
460.65680014501572
 20
65.18790154435807
 30
0.0
  0
SEQEND
  5
13420
  8
0
  0
POLYLINE
  5
FF47
  8
0
 66
     1
 10
0.0
 20
0.0
 30
0.0
 70
   128
  0
VERTEX
  5
13421
  8
0
 10
457.06889482747079
 20
68.368335540379817
 30
0.0
  0
VERTEX
  5
13422
  8
0
 10
456.81604819904328
 20
69.375263347263868
 30
0.0
  0
VERTEX
  5
13423
  8
0
 10
456.47066442827941
 20
70.354316436659033
 30
0.0
  0
SEQEND
  5
13424
  8
0
  0
ARC
  5
FF48
  8
0
 10
457.99782220431342
 20
65.890524224945253
 30
0.0
 40
2.9275182258161099
 50
24.73259247754109
 51
60.411768573680142
  0
ARC
  5
FF49
  8
0
 10
458.0882688252143
 20
66.32963884764753
 30
0.0
 40
2.8108570242052271
 50
298.82125403496258
 51
336.03438491381883
  0
ARC
  5
FF4A
  8
0
 10
418.57042702349872
 20
123.9511256587714
 30
0.0
 40
72.668422117762162
 50
301.43630016561792
 51
304.22591842459548
  0
POLYLINE
  5
FF4B
  8
0
 66
     1
 10
0.0
 20
0.0
 30
0.0
 70
   128
  0
VERTEX
  5
13425
  8
0
 10
456.47066442827941
 20
61.948935554336238
 30
0.0
  0
VERTEX
  5
13426
  8
0
 10
456.81604819904328
 20
62.92798864373141
 30
0.0
  0
VERTEX
  5
13427
  8
0
 10
457.06889482747079
 20
63.934916450615461
 30
0.0
  0
SEQEND
  5
13428
  8
0
  0
POLYLINE
  5
FF4C
  8
0
 66
     1
 10
0.0
 20
0.0
 30
0.0
 70
   128
  0
VERTEX
  5
13429
  8
0
 10
461.01869253973717
 20
68.716012227322395
 30
0.0
  0
VERTEX
  5
1342A
  8
0
 10
461.39948519478799
 20
68.076977792169387
 30
0.0
  0
VERTEX
  5
1342B
  8
0
 10
461.66123712967391
 20
67.380354094292457
 30
0.0
  0
SEQEND
  5
1342C
  8
0
  0
POLYLINE
  5
FF4D
  8
0
 66
     1
 10
0.0
 20
0.0
 30
0.0
 70
   128
  0
VERTEX
  5
1342D
  8
0
 10
461.66123712967391
 20
64.922897896702821
 30
0.0
  0
VERTEX
  5
1342E
  8
0
 10
461.39948519478799
 20
64.226274198825891
 30
0.0
  0
VERTEX
  5
1342F
  8
0
 10
461.01869253973717
 20
63.587239763672883
 30
0.0
  0
SEQEND
  5
13430
  8
0
  0
ARC
  5
FF4E
  8
0
 10
457.6471744893467
 20
66.151625995497639
 30
0.0
 40
1.2789104331614789
 50
283.57987556394909
 51
76.420124436057918
  0
ARC
  5
FF4F
  8
0
 10
457.86761228993169
 20
66.415726082102097
 30
0.0
 40
4.2343407508438569
 50
292.85716167199092
 51
318.08807832957137
  0
LINE
  5
FF50
  8
0
 10
459.5123788581347
 20
62.513882347356017
 30
0.0
 11
458.28915929953808
 21
61.948935554336238
 31
0.0
  0
LINE
  5
FF51
  8
0
 10
458.28915929953808
 20
61.948935554336238
 30
0.0
 11
456.47066442827941
 21
61.948935554336238
 31
0.0
  0
LINE
  5
FF52
  8
0
 10
456.47066442827941
 20
70.354316436659033
 30
0.0
 11
458.28915929953808
 21
70.354316436659033
 31
0.0
  0
LINE
  5
FF53
  8
0
 10
458.28915929953808
 20
70.354316436659033
 30
0.0
 11
459.5123788581347
 21
69.789369643639262
 31
0.0
  0
ARC
  5
FF54
  8
0
 10
457.86756755863098
 20
65.887463134490773
 30
0.0
 40
4.234415971194843
 50
41.912149464979663
 51
67.142610533456306
  0
POLYLINE
  5
FF55
  8
0
 66
     1
 10
0.0
 20
0.0
 30
0.0
 70
   128
  0
VERTEX
  5
13431
  8
0
 10
457.94746356616969
 20
67.394782609279687
 30
0.0
  0
VERTEX
  5
13432
  8
0
 10
456.9052009151435
 20
67.637568625594909
 30
0.0
  0
VERTEX
  5
13433
  8
0
 10
456.11566570005982
 20
67.828862968780598
 30
0.0
  0
SEQEND
  5
13434
  8
0
  0
POLYLINE
  5
FF56
  8
0
 66
     1
 10
0.0
 20
0.0
 30
0.0
 70
   128
  0
VERTEX
  5
13435
  8
0
 10
456.11566491792013
 20
64.47438766750993
 30
0.0
  0
VERTEX
  5
13436
  8
0
 10
456.90501278798342
 20
64.665640640977259
 30
0.0
  0
VERTEX
  5
13437
  8
0
 10
457.94746356616969
 20
64.908469381715591
 30
0.0
  0
SEQEND
  5
13438
  8
0
  0
ARC
  5
FF57
  8
0
 10
470.6877546038811
 20
42.040471408563242
 30
0.0
 40
23.453616142599451
 50
121.9138288481483
 51
135.55078276454191
  0
ARC
  5
FF58
  8
0
 10
446.11436112384558
 20
66.151627736061428
 30
0.0
 40
10.973111298152419
 50
224.47055869554029
 51
315.52944130445968
  0
ARC
  5
FF59
  8
0
 10
421.49916706566688
 20
41.988705967501247
 30
0.0
 40
23.519707772753129
 50
44.46793090392287
 51
61.508071854738098
  0
ARC
  5
FF5A
  8
0
 10
434.6143609962902
 20
66.151625995497639
 30
0.0
 40
3.9731097676764402
 50
118.494539733472
 51
241.50546026652859
  0
ARC
  5
FF5B
  8
0
 10
421.49915626131627
 20
90.31456035510611
 30
0.0
 40
23.519725522635461
 50
298.4919346230156
 51
315.53206261833247
  0
ARC
  5
FF5C
  8
0
 10
446.11374672524602
 20
66.153089396461397
 30
0.0
 40
10.971646479937471
 50
89.996791507386405
 51
135.53265360594659
  0
ARC
  5
FF5D
  8
0
 10
446.11497494322879
 20
66.153088016181883
 30
0.0
 40
10.971647860184561
 50
44.467349419223943
 51
90.00320546744662
  0
ARC
  5
FF5E
  8
0
 10
470.68775460388088
 20
90.262780582431802
 30
0.0
 40
23.453616142599209
 50
224.44921723545789
 51
238.08617115185149
  0
POLYLINE
  5
FF5F
  8
0
 66
     1
 10
0.0
 20
0.0
 30
0.0
 70
   128
  0
VERTEX
  5
13439
  8
0
 10
436.11305733810752
 20
67.82886433792477
 30
0.0
  0
VERTEX
  5
1343A
  8
0
 10
435.32370945970769
 20
67.63761135001802
 30
0.0
  0
VERTEX
  5
1343B
  8
0
 10
434.28125868152142
 20
67.394782609279687
 30
0.0
  0
SEQEND
  5
1343C
  8
0
  0
POLYLINE
  5
FF60
  8
0
 66
     1
 10
0.0
 20
0.0
 30
0.0
 70
   128
  0
VERTEX
  5
1343D
  8
0
 10
434.28125868152142
 20
64.908469381715591
 30
0.0
  0
VERTEX
  5
1343E
  8
0
 10
435.32352133254773
 20
64.665683365400369
 30
0.0
  0
VERTEX
  5
1343F
  8
0
 10
436.113056560877
 20
64.474388999272335
 30
0.0
  0
SEQEND
  5
13440
  8
0
  0
ARC
  5
FF61
  8
0
 10
434.5815477583443
 20
66.151625995497639
 30
0.0
 40
1.2789104331614789
 50
103.5798755639491
 51
256.4201244360508
  0
LINE
  5
FF62
  8
3
 10
451.36436105306501
 20
149.1247368567291
 30
0.0
 11
452.12436125214452
 21
150.44109581529739
 31
0.0
  0
LINE
  5
FF63
  8
3
 10
440.86436119462599
 20
149.1247368567291
 30
0.0
 11
440.10436099554647
 21
150.44109581529739
 31
0.0
  0
LINE
  5
FF64
  8
1
 10
446.11436112384553
 20
124.1247363381688
 30
0.0
 11
446.11436112384558
 21
187.3758364730183
 31
0.0
  0
LINE
  5
FF65
  8
3
 10
363.41814149440432
 20
149.1247360043827
 30
0.0
 11
363.41814149440432
 21
147.82473635008961
 31
0.0
  0
LINE
  5
FF66
  8
3
 10
363.41814149440432
 20
141.824735366613
 30
0.0
 11
363.41814149440432
 21
132.3847351976338
 31
0.0
  0
LINE
  5
FF67
  8
3
 10
373.91814135284318
 20
132.3847351976338
 30
0.0
 11
373.91814135284318
 21
141.824735366613
 31
0.0
  0
LINE
  5
FF68
  8
3
 10
373.91814135284318
 20
147.82473635008961
 30
0.0
 11
373.91814135284318
 21
149.1247360043827
 31
0.0
  0
LINE
  5
FF69
  8
3
 10
373.91814135284318
 20
149.1247360043827
 30
0.0
 11
374.67814155192269
 21
150.4410949629509
 31
0.0
  0
LINE
  5
FF6A
  8
3
 10
363.41814149440432
 20
149.1247360043827
 30
0.0
 11
362.6581412953247
 21
150.4410949629509
 31
0.0
  0
LINE
  5
FF6B
  8
1
 10
368.66814142362392
 20
124.1247354858223
 30
0.0
 11
368.66814142362392
 21
187.37583548582231
 31
0.0
  0
LINE
  5
FF6C
  8
1
 10
523.73909756667786
 20
124.1247363381688
 30
0.0
 11
523.73909756667786
 21
187.3758364730183
 31
0.0
  0
LINE
  5
FF6D
  8
3
 10
518.48909763745837
 20
149.1247360043827
 30
0.0
 11
518.48909763745837
 21
147.82473635008961
 31
0.0
  0
LINE
  5
FF6E
  8
3
 10
518.48909763745837
 20
141.824735366613
 30
0.0
 11
518.48909763745837
 21
132.3847351976338
 31
0.0
  0
LINE
  5
FF6F
  8
3
 10
528.98909749589734
 20
132.3847351976338
 30
0.0
 11
528.98909749589734
 21
141.824735366613
 31
0.0
  0
LINE
  5
FF70
  8
3
 10
528.98909749589734
 20
147.82473635008961
 30
0.0
 11
528.98909749589734
 21
149.1247360043827
 31
0.0
  0
LINE
  5
FF71
  8
3
 10
528.98909749589734
 20
149.1247360043827
 30
0.0
 11
529.74909769497685
 21
150.4410949629509
 31
0.0
  0
LINE
  5
FF72
  8
3
 10
518.48909763745837
 20
149.1247360043827
 30
0.0
 11
517.72909743837874
 21
150.4410949629509
 31
0.0
  0
CIRCLE
  5
FF73
  8
0
 10
446.11436112384558
 20
255.69784488077971
 30
0.0
 40
6.0
  0
LINE
  5
FF74
  8
1
 10
465.26598785715458
 20
255.69784488077971
 30
0.0
 11
427.14125118648587
 21
255.69784488077971
 31
0.0
  0
LINE
  5
FF75
  8
1
 10
446.11436112384558
 20
270.17095481813942
 30
0.0
 11
446.11436112384558
 21
241.22473494342
 31
0.0
  0
LINE
  5
FF76
  8
0
 10
440.6295337953722
 20
75.651625690023835
 30
0.0
 11
435.1447026682107
 21
66.151625995497639
 31
0.0
  0
LINE
  5
FF77
  8
0
 10
451.59918845231891
 20
56.651626300971436
 30
0.0
 11
457.0840195794803
 21
66.151625995497639
 31
0.0
  0
LINE
  5
FF78
  8
0
 10
440.6295337953722
 20
56.651626300971436
 30
0.0
 11
435.1447026682107
 21
66.151625995497639
 31
0.0
  0
LINE
  5
FF79
  8
1
 10
427.1412511864861
 20
66.151625995497639
 30
0.0
 11
465.26598711934309
 21
66.151625995497639
 31
0.0
  0
LINE
  5
FF7A
  8
1
 10
446.11436112384558
 20
51.678516058138051
 30
0.0
 11
446.11436112384558
 21
80.624735932857121
 31
0.0
  0
ARC
  5
FF83
  8
0
 10
452.11436112384553
 20
171.8758364730183
 30
0.0
 40
12.50000000000025
 50
44.05648387094827
 51
90.0
  0
ARC
  5
FF84
  8
0
 10
440.11436113472928
 20
171.8758364194542
 30
0.0
 40
12.500000053564349
 50
90.000000049888996
 51
135.94777448631791
  0
ARC
  5
FF85
  8
0
 10
456.6486209693029
 20
161.09849430202561
 30
0.0
 40
4.7806554864711384
 50
53.676100302153337
 51
92.133292404820423
  0
LINE
  5
FF86
  8
0
 10
462.26497227813559
 20
163.00200445134021
 30
0.0
 11
461.3781134311252
 21
179.9242806259455
 31
0.0
  0
ARC
  5
FF87
  8
0
 10
430.64125118648582
 20
166.3758364730183
 30
0.0
 40
0.5
 50
176.99999999999761
 51
270.0
  0
LINE
  5
FF88
  8
0
 10
430.8506088165658
 20
179.9242806259455
 30
0.0
 11
430.14193641910953
 21
166.40200445113979
 31
0.0
  0
POLYLINE
  5
FF89
  8
0
 66
     1
 10
0.0
 20
0.0
 30
0.0
 70
   128
  0
VERTEX
  5
13441
  8
0
 10
431.13053215232259
 20
180.5672585213878
 30
0.0
  0
VERTEX
  5
13442
  8
0
 10
430.93236015005482
 20
180.27111167656619
 30
0.0
  0
VERTEX
  5
13443
  8
0
 10
430.8506088165658
 20
179.9242806259455
 30
0.0
  0
SEQEND
  5
13444
  8
0
  0
POLYLINE
  5
FF8A
  8
0
 66
     1
 10
0.0
 20
0.0
 30
0.0
 70
   128
  0
VERTEX
  5
13445
  8
0
 10
461.3781134311252
 20
179.9242806259455
 30
0.0
  0
VERTEX
  5
13446
  8
0
 10
461.29636209763629
 20
180.27111167656619
 30
0.0
  0
VERTEX
  5
13447
  8
0
 10
461.09754407598791
 20
180.56792621302591
 30
0.0
  0
SEQEND
  5
13448
  8
0
  0
ARC
  5
FF8B
  8
0
 10
461.76565750072871
 20
162.9758364925309
 30
0.0
 40
0.5000000032993945
 50
270.0000005528828
 51
2.999999165619879
  0
LINE
  5
FF8C
  8
0
 10
461.06981534814201
 20
162.4758364706415
 30
0.0
 11
461.76565750555341
 21
162.47583648923151
 31
0.0
  0
LINE
  5
FF8D
  8
0
 10
460.75814835420118
 20
162.8114366102217
 30
0.0
 11
460.80087715537741
 21
162.64289947375801
 31
0.0
  0
ARC
  5
FF8E
  8
0
 10
461.06981535960819
 20
162.77583647912721
 30
0.0
 40
0.3000000084857535
 50
206.30333289589569
 51
269.99999781010757
  0
LINE
  5
FFAD
  8
0
 10
452.11436112384553
 20
184.3758364730183
 30
0.0
 11
440.11436112384541
 21
184.3758364730183
 31
0.0
  0
ARC
  5
FFAE
  8
0
 10
457.18915816017528
 20
162.13010881346631
 30
0.0
 40
3.6335605973464968
 50
17.381429326818289
 51
50.906461347241581
  0
POLYLINE
  5
FFAF
  8
0
 66
     1
 10
0.0
 20
0.0
 30
0.0
 70
   128
  0
VERTEX
  5
13449
  8
0
 10
460.6568002187081
 20
163.2155677802092
 30
0.0
  0
VERTEX
  5
1344A
  8
0
 10
460.72211113784368
 20
162.97275401013911
 30
0.0
  0
VERTEX
  5
1344B
  8
0
 10
460.75814835420118
 20
162.8114366102217
 30
0.0
  0
SEQEND
  5
1344C
  8
0
  0
LINE
  5
FFB0
  8
0
 10
456.47066405996418
 20
165.8758364730183
 30
0.0
 11
430.64125118648582
 21
165.8758364730183
 31
0.0
  0
ARC
  5
FFBC
  8
0
 10
448.15521706332993
 20
165.2789999139564
 30
0.0
 40
20.031260087748439
 50
49.750608981256129
 51
55.48677175429912
  0
ARC
  5
FFBD
  8
0
 10
453.1781108408594
 20
172.54561552675881
 30
0.0
 40
11.19766911027024
 50
55.597306251171752
 51
89.899691110869114
  0
LINE
  5
FFBE
  8
0
 10
453.19771481841309
 20
183.74326747648291
 30
0.0
 11
439.03100742927791
 21
183.74326747648291
 31
0.0
  0
ARC
  5
FFBF
  8
0
 10
439.0505008838183
 20
172.5459714361005
 30
0.0
 40
11.19731300851849
 50
90.099746540672172
 51
124.40325609728301
  0
POLYLINE
  5
FFC0
  8
0
 66
     1
 10
0.0
 20
0.0
 30
0.0
 70
   128
  0
VERTEX
  5
1344D
  8
0
 10
432.72386346528151
 20
181.7846660184052
 30
0.0
  0
VERTEX
  5
1344E
  8
0
 10
432.11864890941439
 20
181.3515212669775
 30
0.0
  0
VERTEX
  5
1344F
  8
0
 10
431.84580301723571
 20
181.1450254116711
 30
0.0
  0
VERTEX
  5
13450
  8
0
 10
431.61412453860987
 20
180.9638790178891
 30
0.0
  0
VERTEX
  5
13451
  8
0
 10
431.41059182876148
 20
180.80008211556341
 30
0.0
  0
VERTEX
  5
13452
  8
0
 10
431.26214425645929
 20
180.67778431043089
 30
0.0
  0
VERTEX
  5
13453
  8
0
 10
431.16396558117822
 20
180.5955181329835
 30
0.0
  0
VERTEX
  5
13454
  8
0
 10
431.13054288272377
 20
180.56726759214729
 30
0.0
  0
SEQEND
  5
13455
  8
0
  0
ARC
  5
FFC1
  8
0
 10
453.8528685230836
 20
166.3218827274664
 30
0.0
 40
0.4554392868394279
 50
281.65667115679418
 51
10.132308761940481
  0
ARC
  5
FFC2
  8
0
 10
438.37585372460751
 20
166.3218827274664
 30
0.0
 40
0.4554392868394494
 50
169.86769123805951
 51
258.34332884319929
  0
LINE
  5
FFC3
  8
0
 10
438.54251003605327
 20
182.84620895244859
 30
0.0
 11
437.92751740732717
 21
166.40200445113979
 31
0.0
  0
LINE
  5
FFC4
  8
0
 10
454.30120484036382
 20
166.40200445113979
 30
0.0
 11
453.6862122116375
 21
182.84620895244859
 31
0.0
  0
ARC
  5
FFC5
  8
0
 10
439.55084875848138
 20
182.8786494356408
 30
0.0
 40
1.0088604284526339
 50
121.0158892933264
 51
181.84269615445561
  0
ARC
  5
FFC6
  8
0
 10
452.67787348920939
 20
182.8786494356408
 30
0.0
 40
1.008860428452663
 50
358.15730384554757
 51
58.98411070666657
  0
POLYLINE
  5
FFC7
  8
0
 66
     1
 10
0.0
 20
0.0
 30
0.0
 70
   128
  0
VERTEX
  5
13456
  8
0
 10
432.71888930787981
 20
165.8758364730183
 30
0.0
  0
VERTEX
  5
13457
  8
0
 10
432.67082272209967
 20
165.88609276323871
 30
0.0
  0
VERTEX
  5
13458
  8
0
 10
432.62472807573431
 20
165.91644086794389
 30
0.0
  0
VERTEX
  5
13459
  8
0
 10
432.58249640906649
 20
165.96563575125549
 30
0.0
  0
VERTEX
  5
1345A
  8
0
 10
432.54586028301583
 20
166.03165918517141
 30
0.0
  0
VERTEX
  5
1345B
  8
0
 10
432.51632270054722
 20
166.1118025476932
 30
0.0
  0
VERTEX
  5
1345C
  8
0
 10
432.4950954457338
 20
166.20277794447949
 30
0.0
  0
VERTEX
  5
1345D
  8
0
 10
432.48304937011937
 20
166.30085309524131
 30
0.0
  0
VERTEX
  5
1345E
  8
0
 10
432.48067866589378
 20
166.40200445113979
 30
0.0
  0
SEQEND
  5
1345F
  8
0
  0
LINE
  5
FFC8
  8
0
 10
458.55327638941469
 20
166.40200445113979
 30
0.0
 11
430.1419364191085
 21
166.40200445113979
 31
0.0
  0
LINE
  5
FFC9
  8
0
 10
459.38195048072271
 20
181.04429561125599
 30
0.0
 11
459.7505891348336
 21
166.3001922930483
 31
0.0
  0
LINE
  5
FFCA
  8
0
 10
459.75058913483502
 20
166.30019229288479
 30
0.0
 11
458.55327638941492
 21
166.40200445113979
 31
0.0
  0
LINE
  5
FFCB
  8
0
 10
432.48067866589702
 20
166.40200445126891
 30
0.0
 11
432.8467717669684
 21
181.04429561125599
 31
0.0
  0
ARC
  5
FFCC
  8
0
 10
433.51160176008852
 20
181.53505066702189
 30
0.0
 40
0.8263409978643412
 50
162.41784163407189
 51
216.43349146415071
  0
ARC
  5
FFCD
  8
0
 10
458.7171204876023
 20
181.53505066702189
 30
0.0
 40
0.8263409978645677
 50
323.56650853585739
 51
17.582158365917749
  0
ARC
  5
FFCE
  8
0
 10
459.683057407398
 20
164.21869938640961
 30
0.0
 40
2.0825881143225979
 50
32.443661797261711
 51
88.141753834492391
  0
POLYLINE
  5
FFCF
  8
0
 66
     1
 10
0.0
 20
0.0
 30
0.0
 70
   128
  0
VERTEX
  5
13460
  8
0
 10
462.15062685712348
 20
163.42842801478031
 30
0.0
  0
VERTEX
  5
13461
  8
0
 10
462.19323682047968
 20
163.24769780062101
 30
0.0
  0
VERTEX
  5
13462
  8
0
 10
462.23105713238709
 20
163.11190062989809
 30
0.0
  0
VERTEX
  5
13463
  8
0
 10
462.25607803066998
 20
163.02959412938969
 30
0.0
  0
VERTEX
  5
13464
  8
0
 10
462.2649721300744
 20
163.00200491062139
 30
0.0
  0
SEQEND
  5
13465
  8
0
  0
POLYLINE
  5
FFD0
  8
0
 66
     1
 10
0.0
 20
0.0
 30
0.0
 70
   128
  0
VERTEX
  5
13466
  8
0
 10
461.44059383140132
 20
165.3359455420094
 30
0.0
  0
VERTEX
  5
13467
  8
0
 10
461.84372828797331
 20
164.4723518087834
 30
0.0
  0
VERTEX
  5
13468
  8
0
 10
462.15062638218558
 20
163.42843024872661
 30
0.0
  0
SEQEND
  5
13469
  8
0
  0
ARC
  5
FFDE
  8
0
 10
374.66815446427478
 20
171.87589025706859
 30
0.0
 40
12.49994522876038
 50
71.694324503889803
 51
90.000059535143876
  0
ARC
  5
FFDF
  8
0
 10
362.66812838297278
 20
171.87589025706839
 30
0.0
 40
12.4999452287606
 50
89.999940464856095
 51
108.3056754961102
  0
ARC
  5
FFE0
  8
0
 10
357.69503407206378
 20
166.3758376586992
 30
0.0
 40
0.5000024113021967
 50
176.99992403540429
 51
269.9997036906297
  0
ARC
  5
FFE1
  8
0
 10
379.64124877518469
 20
166.3758376586988
 30
0.0
 40
0.5000024113014105
 50
270.00028786837652
 51
3.0000759646543829
  0
LINE
  5
FFE2
  8
0
 10
358.05752093241722
 20
182.846208937532
 30
0.0
 11
357.19571693138391
 21
166.4020064250293
 31
0.0
  0
LINE
  5
FFE3
  8
0
 10
380.14056591586382
 20
166.4020064250293
 30
0.0
 11
379.27876191483051
 21
182.846208937532
 31
0.0
  0
ARC
  5
FFE4
  8
0
 10
378.28013234610262
 20
182.7938733932167
 30
0.0
 40
1.000000012368216
 50
2.999976328756254
 51
71.694344380189634
  0
ARC
  5
FFE5
  8
0
 10
359.05615050114488
 20
182.7938733932167
 30
0.0
 40
1.000000012368079
 50
108.3056556197959
 51
177.0000236712437
  0
LINE
  5
10007
  8
0
 10
374.66814147577787
 20
184.37583548582231
 30
0.0
 11
362.6681413714698
 21
184.37583548582231
 31
0.0
  0
LINE
  5
10008
  8
0
 10
379.6412512873224
 20
165.8758352474037
 30
0.0
 11
357.69503148626433
 21
165.8758352474037
 31
0.0
  0
ARC
  5
10015
  8
0
 10
372.12530374805419
 20
166.35081599016439
 30
0.0
 40
0.4762433072856404
 50
274.17297681317689
 51
6.1705292262669946
  0
ARC
  5
10016
  8
0
 10
365.21097909919331
 20
166.35081599016439
 30
0.0
 40
0.4762433072856333
 50
173.82947077373299
 51
265.82702318682311
  0
LINE
  5
10017
  8
0
 10
365.41190754891551
 20
181.0442934707466
 30
0.0
 11
364.73749496312053
 21
166.4020064250293
 31
0.0
  0
LINE
  5
10018
  8
0
 10
372.5987878841272
 20
166.4020064250293
 30
0.0
 11
371.92437529833228
 21
181.0442934707466
 31
0.0
  0
ARC
  5
10019
  8
0
 10
368.66814142362392
 20
183.7015054625322
 30
0.0
 40
3.1423710296895671
 50
217.58936534522289
 51
322.41063465477708
  0
ARC
  5
1001A
  8
0
 10
370.76373807610958
 20
180.60981182855659
 30
0.0
 40
1.239295388117245
 50
20.52326184966671
 51
71.441829150060272
  0
ARC
  5
1001B
  8
0
 10
366.57254477113793
 20
180.6098118285567
 30
0.0
 40
1.239295388117204
 50
108.5581708499397
 51
159.4767381503367
  0
LINE
  5
1001C
  8
0
 10
378.59421840206892
 20
183.7432662919822
 30
0.0
 11
375.62178133324892
 21
183.7432662919822
 31
0.0
  0
ARC
  5
1001D
  8
0
 10
375.19068388354458
 20
178.66017940885601
 30
0.0
 40
5.1013348520315747
 50
85.152335838177663
 51
142.23067395612591
  0
ARC
  5
1001E
  8
0
 10
362.1525302989603
 20
178.67597579442941
 30
0.0
 40
5.0861873936223878
 50
37.676486343675641
 51
94.940503862014722
  0
LINE
  5
1001F
  8
0
 10
361.71450151399881
 20
183.7432662919822
 30
0.0
 11
358.74206444517881
 21
183.7432662919822
 31
0.0
  0
ARC
  5
10020
  8
0
 10
361.0782807338706
 20
166.31985331053971
 30
0.0
 40
0.4545476240683013
 50
169.58736797795041
 51
257.64351304038252
  0
ARC
  5
10021
  8
0
 10
376.25800211337719
 20
166.31985331053971
 30
0.0
 40
0.4545476240683013
 50
282.35648695961748
 51
10.41263202204958
  0
LINE
  5
10022
  8
0
 10
360.63121876017362
 20
166.4020064250293
 30
0.0
 11
361.23495001615203
 21
182.846208937532
 31
0.0
  0
LINE
  5
10023
  8
0
 10
376.10133283109582
 20
182.846208937532
 30
0.0
 11
376.70506408707411
 21
166.4020064250293
 31
0.0
  0
ARC
  5
10024
  8
0
 10
375.0892004770871
 20
182.8818490017793
 30
0.0
 40
1.0127596537237631
 50
357.98328560222939
 51
58.273107964633788
  0
ARC
  5
10025
  8
0
 10
362.24708237016063
 20
182.8818490017793
 30
0.0
 40
1.0127596537237651
 50
121.72689203536621
 51
182.01671439777391
  0
LINE
  5
10026
  8
0
 10
380.14056591586382
 20
166.4020064250293
 30
0.0
 11
357.19571693138391
 21
166.4020064250293
 31
0.0
  0
LINE
  5
1002F
  8
0
 10
442.61436101581211
 20
132.12473593285711
 30
0.0
 11
442.61436101581211
 21
131.62473678222329
 31
0.0
  0
LINE
  5
10030
  8
0
 10
449.61436123187889
 20
131.62473678222329
 30
0.0
 11
449.61436123187889
 21
132.12473593285711
 31
0.0
  0
LINE
  5
10031
  8
0
 10
442.61436101581211
 20
131.62473678222329
 30
0.0
 11
443.68211280155231
 21
127.6398328655068
 31
0.0
  0
LINE
  5
10032
  8
0
 10
448.54660944613858
 20
127.6398328655068
 30
0.0
 11
449.61436123187889
 21
131.62473678222329
 31
0.0
  0
ARC
  5
10033
  8
0
 10
446.11436112384553
 20
133.1247363381687
 30
0.0
 40
5.9999999999999929
 50
246.0853892784254
 51
293.91461545959839
  0
LINE
  5
10034
  8
0
 10
442.61436101581211
 20
131.62473678222329
 30
0.0
 11
449.61436123187889
 21
131.62473678222329
 31
0.0
  0
LINE
  5
10035
  8
0
 10
443.68211280155231
 20
127.6398328655068
 30
0.0
 11
448.54660944613858
 21
127.6398328655068
 31
0.0
  0
LINE
  5
100D9
  8
0
 10
365.16814142362381
 20
132.1247354858223
 30
0.0
 11
365.16814142362381
 21
131.62473548582221
 31
0.0
  0
LINE
  5
100DA
  8
0
 10
372.16814142362369
 20
131.62473548582221
 30
0.0
 11
372.16814142362369
 21
132.1247354858223
 31
0.0
  0
LINE
  5
100DB
  8
0
 10
365.16814142362381
 20
131.62473548582221
 30
0.0
 11
366.23589314493279
 21
127.63983181202769
 31
0.0
  0
LINE
  5
100DC
  8
0
 10
371.10038970231471
 20
127.63983181202769
 30
0.0
 11
372.16814142362369
 21
131.62473548582221
 31
0.0
  0
ARC
  5
100DD
  8
0
 10
368.66814142362369
 20
133.12473548582221
 30
0.0
 40
5.9999999999999929
 50
246.0853892784254
 51
293.91461072157892
  0
LINE
  5
100DE
  8
0
 10
365.16814142362381
 20
131.62473548582221
 30
0.0
 11
372.16814142362369
 21
131.62473548582221
 31
0.0
  0
LINE
  5
100DF
  8
0
 10
366.23589314493279
 20
127.63983181202769
 30
0.0
 11
371.10038970231471
 21
127.63983181202769
 31
0.0
  0
LINE
  5
10157
  8
0
 10
520.23909745864444
 20
131.62473678222329
 30
0.0
 11
521.30684924438469
 21
127.6398328655068
 31
0.0
  0
LINE
  5
10158
  8
0
 10
526.17134588897102
 20
127.6398328655068
 30
0.0
 11
527.23909767471127
 21
131.62473678222329
 31
0.0
  0
LINE
  5
10159
  8
0
 10
520.23909745864444
 20
132.12473593285711
 30
0.0
 11
520.23909745864444
 21
131.62473678222329
 31
0.0
  0
LINE
  5
1015A
  8
0
 10
527.23909767471127
 20
131.62473678222329
 30
0.0
 11
527.23909767471127
 21
132.12473593285711
 31
0.0
  0
ARC
  5
1015B
  8
0
 10
523.73909756667786
 20
133.1247363381687
 30
0.0
 40
5.9999999999999991
 50
246.0853892784254
 51
293.91461072157892
  0
LINE
  5
1015C
  8
0
 10
521.30684924438469
 20
127.6398328655068
 30
0.0
 11
526.17134588897079
 21
127.6398328655068
 31
0.0
  0
LINE
  5
1015D
  8
0
 10
520.23909745864444
 20
131.62473678222329
 30
0.0
 11
527.23909767471105
 21
131.62473678222329
 31
0.0
  0
ARC
  5
10160
  8
0
 10
529.73909630585342
 20
171.8758311775091
 30
0.0
 40
12.50000529550927
 50
71.694346542087615
 51
89.999993981752596
  0
ARC
  5
10161
  8
0
 10
517.73909882750206
 20
171.8758311775087
 30
0.0
 40
12.500005295509659
 50
90.000006018247007
 51
108.30565345791121
  0
ARC
  5
10163
  8
0
 10
512.76598763001425
 20
166.3758360074593
 30
0.0
 40
0.4999997728594995
 50
177.00003290516759
 51
270.00000836119068
  0
ARC
  5
10164
  8
0
 10
534.71220750334123
 20
166.3758360074591
 30
0.0
 40
0.4999997728593879
 50
269.9999916388353
 51
2.9999670948584951
  0
LINE
  5
10165
  8
0
 10
535.21152205891781
 20
166.40200368693499
 30
0.0
 11
534.3497180578845
 21
182.84620992472799
 31
0.0
  0
LINE
  5
10166
  8
0
 10
513.12847707547121
 20
182.84620992472799
 30
0.0
 11
512.2666730744379
 21
166.40200368693499
 31
0.0
  0
ARC
  5
10167
  8
0
 10
514.12710678365295
 20
182.79387265515709
 30
0.0
 40
1.0000002419246901
 50
108.30565968457699
 51
176.99992537503641
  0
ARC
  5
10168
  8
0
 10
533.35108834970197
 20
182.7938726551566
 30
0.0
 40
1.0000002419253211
 50
3.0000746249929651
 51
71.694340315409207
  0
ARC
  5
10169
  8
0
 10
523.73909756667786
 20
163.97583806817559
 30
0.0
 40
1.50000162357889
 50
215.00008641295179
 51
324.99991358704818
  0
POLYLINE
  5
1016A
  8
0
 66
     1
 10
0.0
 20
0.0
 30
0.0
 70
   128
  0
VERTEX
  5
1346A
  8
0
 10
524.96782566547267
 20
163.11547062924541
 30
0.0
  0
VERTEX
  5
1346B
  8
0
 10
525.6644493633496
 20
164.11035410693319
 30
0.0
  0
VERTEX
  5
1346C
  8
0
 10
526.30348379850261
 20
165.02299062541161
 30
0.0
  0
SEQEND
  5
1346D
  8
0
  0
POLYLINE
  5
1016B
  8
0
 66
     1
 10
0.0
 20
0.0
 30
0.0
 70
   128
  0
VERTEX
  5
1346E
  8
0
 10
521.1747113348531
 20
165.02299062541161
 30
0.0
  0
VERTEX
  5
1346F
  8
0
 10
521.81374577000611
 20
164.11035410693319
 30
0.0
  0
VERTEX
  5
13470
  8
0
 10
522.51036946788304
 20
163.11547062924541
 30
0.0
  0
SEQEND
  5
13471
  8
0
  0
ARC
  5
1016C
  8
0
 10
527.94180080554133
 20
163.87581588201149
 30
0.0
 40
2.0000231267281401
 50
106.408067456632
 51
144.99969903727791
  0
ARC
  5
1016D
  8
0
 10
519.53640123061564
 20
163.87582548690219
 30
0.0
 40
2.0000119631286708
 50
35.000188992455399
 51
73.592044513636154
  0
LINE
  5
1016E
  8
0
 10
529.73909761883192
 20
184.3758364730183
 30
0.0
 11
517.73909751452379
 21
184.3758364730183
 31
0.0
  0
LINE
  5
1016F
  8
0
 10
527.37684121481948
 20
165.79438648751409
 30
0.0
 11
527.94178800783925
 21
165.87583623459969
 31
0.0
  0
LINE
  5
10170
  8
0
 10
519.53640712551635
 20
165.87583623459969
 30
0.0
 11
520.10135391853623
 21
165.79438648751409
 31
0.0
  0
LINE
  5
10173
  8
0
 10
519.53640712551635
 20
165.87583623459969
 30
0.0
 11
512.76598770297937
 21
165.87583623459969
 31
0.0
  0
LINE
  5
10174
  8
0
 10
534.71220743037634
 20
165.87583623459969
 30
0.0
 11
527.94178800783982
 21
165.87583623459969
 31
0.0
  0
ARC
  5
10176
  8
0
 10
523.73909756667786
 20
164.19466576811709
 30
0.0
 40
1.1959249560141489
 50
219.8445424206177
 51
320.1554575793744
  0
ARC
  5
10178
  8
0
 10
519.10847180064002
 20
163.53896845739391
 30
0.0
 40
2.8474165529704658
 50
39.130592922844102
 51
75.866456140986926
  0
LINE
  5
10179
  8
0
 10
520.48286369196944
 20
181.04429445794261
 30
0.0
 11
519.80376189701133
 21
166.30019150307811
 31
0.0
  0
LINE
  5
1017B
  8
0
 10
527.67443323634438
 20
166.30019150307811
 30
0.0
 11
526.99533144138627
 21
181.04429445794261
 31
0.0
  0
ARC
  5
1017C
  8
0
 10
528.36831250484283
 20
163.54118288771409
 30
0.0
 40
2.8449247756143969
 50
104.1168804106215
 51
140.886070525543
  0
POLYLINE
  5
1017D
  8
0
 66
     1
 10
0.0
 20
0.0
 30
0.0
 70
   128
  0
VERTEX
  5
13472
  8
0
 10
524.65731160143264
 20
163.42842854192889
 30
0.0
  0
VERTEX
  5
13473
  8
0
 10
525.47974260184787
 20
164.47235174110571
 30
0.0
  0
VERTEX
  5
13474
  8
0
 10
526.16095512300603
 20
165.3359448128048
 30
0.0
  0
SEQEND
  5
13475
  8
0
  0
POLYLINE
  5
1017E
  8
0
 66
     1
 10
0.0
 20
0.0
 30
0.0
 70
   128
  0
VERTEX
  5
13476
  8
0
 10
521.31724001034968
 20
165.3359448128048
 30
0.0
  0
VERTEX
  5
13477
  8
0
 10
521.99845253150784
 20
164.47235174110571
 30
0.0
  0
VERTEX
  5
13478
  8
0
 10
522.82088353192307
 20
163.42842854192889
 30
0.0
  0
SEQEND
  5
13479
  8
0
  0
ARC
  5
10181
  8
0
 10
527.22407967535605
 20
166.22471135809681
 30
0.0
 40
0.456635064555054
 50
289.54441422968313
 51
9.5144549898306181
  0
ARC
  5
10182
  8
0
 10
520.25411545799955
 20
166.22471135809681
 30
0.0
 40
0.4566350645550904
 50
170.48554501016929
 51
250.4555857703138
  0
ARC
  5
10183
  8
0
 10
521.64350731608533
 20
180.60980619043841
 30
0.0
 40
1.2393037064415611
 50
108.5583539471759
 51
159.47655505309501
  0
ARC
  5
10184
  8
0
 10
523.73909756667786
 20
183.7014995176736
 30
0.0
 40
3.1423668011542101
 50
217.5892651899606
 51
322.41073481003929
  0
ARC
  5
10185
  8
0
 10
525.83468781727026
 20
180.60980619043841
 30
0.0
 40
1.239303706441556
 50
20.523444946904991
 51
71.441646052828105
  0
ARC
  5
10186
  8
0
 10
517.25254210103662
 20
178.742194094159
 30
0.0
 40
5.022837930864406
 50
37.281223969249652
 51
95.335766236444258
  0
LINE
  5
10187
  8
0
 10
516.7854576570528
 20
183.74326727917821
 30
0.0
 11
513.8130205882328
 21
183.74326727917821
 31
0.0
  0
LINE
  5
10188
  8
0
 10
533.66517454512291
 20
183.74326727917821
 30
0.0
 11
530.69273747630291
 21
183.74326727917821
 31
0.0
  0
ARC
  5
10189
  8
0
 10
530.25550298369228
 20
178.67416660396549
 30
0.0
 40
5.0879225285936718
 50
85.070163090414482
 51
142.31284670388899
  0
LINE
  5
1018B
  8
0
 10
531.17228897414975
 20
182.84620992472799
 30
0.0
 11
531.7760202301281
 21
166.40200368693499
 31
0.0
  0
LINE
  5
1018C
  8
0
 10
535.21152205891735
 20
166.40200368693499
 30
0.0
 11
528.36553000040215
 21
166.40200368693499
 31
0.0
  0
LINE
  5
1018D
  8
0
 10
528.36553000040215
 20
166.40200368693499
 30
0.0
 11
527.67443323634438
 21
166.30019150307811
 31
0.0
  0
LINE
  5
1018E
  8
0
 10
519.11266513295345
 20
166.40200368693499
 30
0.0
 11
512.2666730744379
 21
166.40200368693499
 31
0.0
  0
LINE
  5
1018F
  8
0
 10
515.70217490322761
 20
166.40200368693499
 30
0.0
 11
516.30590615920585
 21
182.84620992472799
 31
0.0
  0
LINE
  5
10191
  8
0
 10
519.80376189701133
 20
166.30019150307811
 30
0.0
 11
519.11266513295345
 21
166.40200368693499
 31
0.0
  0
ARC
  5
10194
  8
0
 10
530.16014181514527
 20
182.8818420744781
 30
0.0
 40
1.012774171065018
 50
357.98376254734018
 51
58.272631019523033
  0
ARC
  5
10195
  8
0
 10
517.31805331821033
 20
182.8818420744781
 30
0.0
 40
1.0127741710650009
 50
121.7273689804769
 51
182.01623745266309
  0
ARC
  5
10196
  8
0
 10
516.14923386509975
 20
166.31985171386509
 30
0.0
 40
0.4545444555481934
 50
169.58744087038249
 51
257.64381419187742
  0
ARC
  5
10197
  8
0
 10
531.32896126825585
 20
166.31985171386509
 30
0.0
 40
0.4545444555481934
 50
282.35618580812258
 51
10.41255912961747
  0
LINE
  5
10202
  8
0
 10
525.32441613615947
 20
163.6247354858223
 30
0.0
 11
533.5390975666777
 21
163.6247354858223
 31
0.0
  0
LINE
  5
12BF6
  8
5
 10
154.14905313428281
 20
268.7872914321963
 30
0.0
 11
152.80996826551291
 21
267.27112792477311
 31
0.0
  0
LINE
  5
12BF7
  8
5
 10
153.18727307728381
 20
266.93780342848459
 30
0.0
 11
154.14905313428281
 21
268.7872914321963
 31
0.0
  0
LINE
  5
12BF8
  8
5
 10
153.44478939820121
 20
266.71037890237108
 30
0.0
 11
153.18727307728381
 21
266.93780342848459
 31
0.0
  0
LINE
  5
12BF9
  8
5
 10
155.1362954791926
 20
267.91520807124698
 30
0.0
 11
153.44478939820121
 21
266.71037890237108
 31
0.0
  0
LINE
  5
12BFA
  8
5
 10
153.7972106104227
 20
266.39904456382402
 30
0.0
 11
155.1362954791926
 21
267.91520807124698
 31
0.0
  0
LINE
  5
12BFB
  8
5
 10
154.17451542219371
 20
266.06572006753549
 30
0.0
 11
153.7972106104227
 21
266.39904456382402
 31
0.0
  0
LINE
  5
12BFC
  8
5
 10
155.9881247474853
 20
268.11890637453439
 30
0.0
 11
154.17451542219371
 21
266.06572006753549
 31
0.0
  0
LINE
  5
12BFD
  8
5
 10
155.56336749006221
 20
268.4944751212206
 30
0.0
 11
155.9881247474853
 21
268.11890637453439
 31
0.0
  0
LINE
  5
12BFE
  8
5
 10
153.7694335690654
 20
267.3382557747201
 30
0.0
 11
155.56336749006221
 21
268.4944751212206
 31
0.0
  0
LINE
  5
12BFF
  8
5
 10
154.6953349476444
 20
269.26065851199468
 30
0.0
 11
153.7694335690654
 21
267.3382557747201
 31
0.0
  0
LINE
  5
12C00
  8
5
 10
154.24627277903349
 20
269.65706003969882
 30
0.0
 11
154.6953349476444
 21
269.26065851199468
 31
0.0
  0
LINE
  5
12C01
  8
5
 10
152.43266345374201
 20
267.60387373269992
 30
0.0
 11
154.24627277903349
 21
269.65706003969882
 31
0.0
  0
LINE
  5
12C02
  8
5
 10
152.80996826551291
 20
267.27112792477311
 30
0.0
 11
152.43266345374201
 21
267.60387373269992
 31
0.0
  0
LINE
  5
12C03
  8
5
 10
154.83365158666021
 20
266.04587483634668
 30
0.0
 11
156.22539709633679
 21
267.26632859098618
 31
0.0
  0
LINE
  5
12C04
  8
5
 10
154.754949969481
 20
266.13557153239668
 30
0.0
 11
154.83365158666021
 21
266.04587483634668
 31
0.0
  0
LINE
  5
12C05
  8
5
 10
154.42220416155419
 20
265.84333390978259
 30
0.0
 11
154.754949969481
 21
266.13557153239668
 31
0.0
  0
LINE
  5
12C06
  8
5
 10
154.93665811502709
 20
265.25654391110822
 30
0.0
 11
154.42220416155419
 21
265.84333390978259
 31
0.0
  0
LINE
  5
12C07
  8
5
 10
155.26940392295401
 20
265.54878153372221
 30
0.0
 11
154.93665811502709
 21
265.25654391110822
 31
0.0
  0
LINE
  5
12C08
  8
5
 10
155.16755477131031
 20
265.66509789440619
 30
0.0
 11
155.26940392295401
 21
265.54878153372221
 31
0.0
  0
LINE
  5
12C09
  8
5
 10
156.5593002809868
 20
266.88555164904562
 30
0.0
 11
155.16755477131031
 21
265.66509789440619
 31
0.0
  0
LINE
  5
12C0A
  8
5
 10
156.66114943263051
 20
266.76923528836159
 30
0.0
 11
156.5593002809868
 21
266.88555164904562
 31
0.0
  0
LINE
  5
12C0B
  8
5
 10
156.99389524055741
 20
267.06089422261402
 30
0.0
 11
156.66114943263051
 21
266.76923528836159
 31
0.0
  0
LINE
  5
12C0C
  8
5
 10
156.4794412870844
 20
267.64768422128839
 30
0.0
 11
156.99389524055741
 21
267.06089422261402
 31
0.0
  0
LINE
  5
12C0D
  8
5
 10
156.14669547915759
 20
267.35602528703612
 30
0.0
 11
156.4794412870844
 21
267.64768422128839
 31
0.0
  0
LINE
  5
12C0E
  8
5
 10
156.22539709633679
 20
267.26632859098618
 30
0.0
 11
156.14669547915759
 21
267.35602528703612
 31
0.0
  0
ARC
  5
12C0F
  8
5
 10
156.39321275906039
 20
264.84683769529738
 30
0.0
 40
0.9658767905286229
 50
213.066165751997
 51
266.33276594420778
  0
POLYLINE
  5
12C10
  8
5
 66
     1
 10
0.0
 20
0.0
 30
0.0
 70
   128
  0
VERTEX
  5
1347A
  8
5
 10
157.33719409104131
 20
264.19080088166243
 30
0.0
  0
VERTEX
  5
1347B
  8
5
 10
156.8000973740161
 20
263.92243694464793
 30
0.0
  0
VERTEX
  5
1347C
  8
5
 10
156.33143371855991
 20
263.88293867328491
 30
0.0
  0
SEQEND
  5
1347D
  8
5
  0
ARC
  5
12C11
  8
5
 10
156.5686346838115
 20
265.48472563718622
 30
0.0
 40
1.5049667223558749
 50
300.7092677276554
 51
343.69896766626681
  0
POLYLINE
  5
12C12
  8
5
 66
     1
 10
0.0
 20
0.0
 30
0.0
 70
   128
  0
VERTEX
  5
1347E
  8
5
 10
157.85164804451429
 20
265.89388072988612
 30
0.0
  0
VERTEX
  5
1347F
  8
5
 10
158.03412919952609
 20
265.44426343036042
 30
0.0
  0
VERTEX
  5
13480
  8
5
 10
158.01310209740399
 20
265.06230555424992
 30
0.0
  0
SEQEND
  5
13481
  8
5
  0
LINE
  5
12C13
  8
5
 10
157.3481891699119
 20
266.61955593534742
 30
0.0
 11
157.85164804451429
 21
265.89388072988612
 31
0.0
  0
LINE
  5
12C14
  8
5
 10
155.08030948075501
 20
265.04552359176307
 30
0.0
 11
157.3481891699119
 21
266.61955593534742
 31
0.0
  0
LINE
  5
12C15
  8
5
 10
155.58376835535731
 20
264.31984838630189
 30
0.0
 11
155.08030948075501
 21
265.04552359176307
 31
0.0
  0
ARC
  5
12C16
  8
5
 10
159.73695099246481
 20
252.2673019822866
 30
0.0
 40
3.5000000000000071
 50
168.00000000000051
 51
348.00000000000051
  0
ARC
  5
12C17
  8
5
 10
143.59751558035711
 20
255.69784488077971
 30
0.0
 40
13.000000000000011
 50
348.00000000000051
 51
67.980592476447896
  0
ARC
  5
12C18
  8
5
 10
140.166972681864
 20
271.83728029288733
 30
0.0
 40
3.5000000000000049
 50
101.9999999999996
 51
253.4495030735884
  0
ARC
  5
12C19
  8
5
 10
143.59751558035711
 20
255.69784488077971
 30
0.0
 40
20.000000000000011
 50
348.00000000000051
 51
101.9999999999996
  0
LINE
  5
12C1A
  8
5
 10
161.01206258556601
 20
253.9801369843932
 30
0.0
 11
158.00548782416621
 21
254.42128226541109
 31
0.0
  0
LINE
  5
12C1B
  8
5
 10
157.76455463222561
 20
252.78056116254791
 30
0.0
 11
161.01206258556601
 21
253.9801369843932
 31
0.0
  0
LINE
  5
12C1C
  8
5
 10
157.6619035187579
 20
252.08236391970601
 30
0.0
 11
157.76455463222561
 21
252.78056116254791
 31
0.0
  0
LINE
  5
12C1D
  8
5
 10
161.5787646004122
 20
251.50717834176319
 30
0.0
 11
157.6619035187579
 21
252.08236391970601
 31
0.0
  0
LINE
  5
12C1E
  8
5
 10
161.68226407018949
 20
252.21216243508229
 30
0.0
 11
161.5787646004122
 21
251.50717834176319
 31
0.0
  0
LINE
  5
12C1F
  8
5
 10
158.67568930878971
 20
252.6541560724101
 30
0.0
 11
161.68226407018949
 21
252.21216243508229
 31
0.0
  0
LINE
  5
12C20
  8
5
 10
161.9198038368915
 20
253.83252298651399
 30
0.0
 11
158.67568930878971
 21
252.6541560724101
 31
0.0
  0
LINE
  5
12C21
  8
5
 10
162.0258483755978
 20
254.5510807807876
 30
0.0
 11
161.9198038368915
 21
253.83252298651399
 31
0.0
  0
LINE
  5
12C22
  8
5
 10
158.1089872939435
 20
255.12626635873031
 30
0.0
 11
162.0258483755978
 21
254.5510807807876
 31
0.0
  0
LINE
  5
12C23
  8
5
 10
158.00548782416621
 20
254.42128226541109
 30
0.0
 11
158.1089872939435
 21
255.12626635873031
 31
0.0
  0
LINE
  5
12C24
  8
5
 10
143.61417193208391
 20
271.9093971028995
 30
0.0
 11
143.61234349306471
 21
271.84944199764072
 31
0.0
  0
LINE
  5
12C25
  8
5
 10
145.2328357708962
 20
271.86019243693983
 30
0.0
 11
143.61417193208391
 21
271.9093971028995
 31
0.0
  0
LINE
  5
12C26
  8
5
 10
145.24895454077949
 20
272.4022921188062
 30
0.0
 11
145.2328357708962
 21
271.86019243693983
 31
0.0
  0
LINE
  5
12C27
  8
5
 10
143.6302907019672
 20
272.45149678476588
 30
0.0
 11
145.24895454077949
 21
272.4022921188062
 31
0.0
  0
LINE
  5
12C28
  8
5
 10
143.66507331066279
 20
273.59508109017412
 30
0.0
 11
143.6302907019672
 21
272.45149678476588
 31
0.0
  0
LINE
  5
12C29
  8
5
 10
145.7333659935897
 20
273.5323027232601
 30
0.0
 11
143.66507331066279
 21
273.59508109017412
 31
0.0
  0
LINE
  5
12C2A
  8
5
 10
145.74948476347299
 20
274.07440240512648
 30
0.0
 11
145.7333659935897
 21
273.5323027232601
 31
0.0
  0
LINE
  5
12C2B
  8
5
 10
142.97620798722701
 20
274.15838967978181
 30
0.0
 11
145.74948476347299
 21
274.07440240512648
 31
0.0
  0
LINE
  5
12C2C
  8
5
 10
142.90435480971141
 20
271.78417723974712
 30
0.0
 11
142.97620798722701
 21
274.15838967978181
 31
0.0
  0
POLYLINE
  5
12C2D
  8
5
 66
     1
 10
0.0
 20
0.0
 30
0.0
 70
   128
  0
VERTEX
  5
13482
  8
5
 10
141.66214055536491
 20
272.11519022798012
 30
0.0
  0
VERTEX
  5
13483
  8
5
 10
141.73257570627561
 20
271.65312808958402
 30
0.0
  0
VERTEX
  5
13484
  8
5
 10
141.7187876631161
 20
271.34549604214249
 30
0.0
  0
SEQEND
  5
13485
  8
5
  0
ARC
  5
12C2E
  8
5
 10
139.65483648427309
 20
271.74207620420952
 30
0.0
 40
2.0416864863528641
 50
10.52986131953698
 51
57.414596083314578
  0
ARC
  5
12C2F
  8
5
 10
139.8780925230362
 20
272.0358855109327
 30
0.0
 40
1.6741565750764691
 50
58.437267669884477
 51
104.7385562195058
  0
ARC
  5
12C30
  8
5
 10
139.80075336034781
 20
272.07122151697803
 30
0.0
 40
1.621643168568232
 50
102.41291202526899
 51
149.02354096618831
  0
ARC
  5
12C31
  8
5
 10
140.1942761207815
 20
271.88233408457597
 30
0.0
 40
2.0566595736183628
 50
150.15446728446821
 51
196.4750068767475
  0
ARC
  5
12C32
  8
5
 10
140.2325708107158
 20
271.6517726153748
 30
0.0
 40
2.041217537993254
 50
189.95005194460711
 51
236.73136274835011
  0
POLYLINE
  5
12C33
  8
5
 66
     1
 10
0.0
 20
0.0
 30
0.0
 70
   128
  0
VERTEX
  5
13486
  8
5
 10
139.8870457793906
 20
269.70761881501352
 30
0.0
  0
VERTEX
  5
13487
  8
5
 10
139.6476944470173
 20
269.72890424062899
 30
0.0
  0
VERTEX
  5
13488
  8
5
 10
139.11282984486641
 20
269.94509478789519
 30
0.0
  0
SEQEND
  5
13489
  8
5
  0
LINE
  5
12C34
  8
5
 10
147.2260318795351
 20
271.46617338587959
 30
0.0
 11
146.89988303809071
 21
270.23947376281581
 31
0.0
  0
LINE
  5
12C35
  8
5
 10
148.78361406405261
 20
271.05217550677042
 30
0.0
 11
147.2260318795351
 21
271.46617338587959
 31
0.0
  0
LINE
  5
12C36
  8
5
 10
148.92783463669309
 20
271.5942751886368
 30
0.0
 11
148.78361406405261
 21
271.05217550677042
 31
0.0
  0
LINE
  5
12C37
  8
5
 10
147.37025245217561
 20
272.0082730677459
 30
0.0
 11
148.92783463669309
 21
271.5942751886368
 31
0.0
  0
LINE
  5
12C38
  8
5
 10
147.6569968848373
 20
273.08823064993049
 30
0.0
 11
147.37025245217561
 21
272.0082730677459
 31
0.0
  0
LINE
  5
12C39
  8
5
 10
149.64724078727639
 20
272.55970466901852
 30
0.0
 11
147.6569968848373
 21
273.08823064993049
 31
0.0
  0
LINE
  5
12C3A
  8
5
 10
149.79061300360721
 20
273.101804350885
 30
0.0
 11
149.64724078727639
 21
272.55970466901852
 31
0.0
  0
LINE
  5
12C3B
  8
5
 10
147.09538500784899
 20
273.81696871992
 30
0.0
 11
149.79061300360721
 21
273.101804350885
 31
0.0
  0
LINE
  5
12C3C
  8
5
 10
146.29812436446301
 20
270.81520213643319
 30
0.0
 11
147.09538500784899
 21
273.81696871992
 31
0.0
  0
ARC
  5
12C3D
  8
5
 10
159.52449220247181
 20
257.7588780658217
 30
0.0
 40
1.6565436985843109
 50
186.07901191502421
 51
232.8699690605639
  0
ARC
  5
12C3E
  8
5
 10
159.73948539287881
 20
258.10475961561002
 30
0.0
 40
2.0624180381102271
 50
233.9083628720839
 51
280.35328778257821
  0
ARC
  5
12C3F
  8
5
 10
159.9343769443723
 20
258.11434722083033
 30
0.0
 40
2.045989326399869
 50
274.92806017607131
 51
321.75848094139462
  0
ARC
  5
12C40
  8
5
 10
160.2151318744049
 20
257.85766290083041
 30
0.0
 40
1.666832326811339
 50
322.71484656700869
 51
9.2484763581669576
  0
ARC
  5
12C41
  8
5
 10
160.2525844797585
 20
257.9340226910403
 30
0.0
 40
1.6190801424886301
 50
6.7936510863749691
 51
53.429878804229539
  0
ARC
  5
12C42
  8
5
 10
160.02212456829309
 20
257.55159237011998
 30
0.0
 40
2.0639732779872091
 50
54.617130434000757
 51
100.83292670969399
  0
ARC
  5
12C43
  8
5
 10
159.78951751880459
 20
257.5436857692369
 30
0.0
 40
2.0410161881798028
 50
94.364053703349285
 51
141.1278732545135
  0
ARC
  5
12C44
  8
5
 10
159.48210614386579
 20
257.82817141320072
 30
0.0
 40
1.6233939931241299
 50
142.13589235958659
 51
188.67019250816401
  0
LINE
  5
12C45
  8
5
 10
159.05906935235501
 20
261.12577389107781
 30
0.0
 11
158.91665631645941
 21
263.84317649511479
 31
0.0
  0
LINE
  5
12C46
  8
5
 10
158.91665631645941
 20
263.84317649511479
 30
0.0
 11
156.88587685288391
 21
262.76339190070729
 31
0.0
  0
LINE
  5
12C47
  8
5
 10
156.88587685288391
 20
262.76339190070729
 30
0.0
 11
159.05906935235501
 21
261.12577389107781
 31
0.0
  0
LINE
  5
12C48
  8
5
 10
152.7916148148031
 20
270.41147934909372
 30
0.0
 11
150.0907658981327
 21
270.74310189739208
 31
0.0
  0
LINE
  5
12C49
  8
5
 10
150.0907658981327
 20
270.74310189739208
 30
0.0
 11
151.5728005070668
 21
268.46096872793379
 31
0.0
  0
LINE
  5
12C4A
  8
5
 10
151.5728005070668
 20
268.46096872793379
 30
0.0
 11
152.7916148148031
 21
270.41147934909372
 31
0.0
  0
ARC
  5
12C4B
  8
5
 10
139.56221738992011
 20
271.46107228525142
 30
0.0
 40
1.495444098403367
 50
335.18058605978922
 51
19.142541861230949
  0
POLYLINE
  5
12C4C
  8
5
 66
     1
 10
0.0
 20
0.0
 30
0.0
 70
   128
  0
VERTEX
  5
1348A
  8
5
 10
139.51410237933089
 20
270.42271939022828
 30
0.0
  0
VERTEX
  5
1348B
  8
5
 10
139.91538319413019
 20
270.26116632935691
 30
0.0
  0
VERTEX
  5
1348C
  8
5
 10
140.32296816074631
 20
270.27077606264947
 30
0.0
  0
SEQEND
  5
1348D
  8
5
  0
ARC
  5
12C4D
  8
5
 10
140.4017658745347
 20
271.63502587190573
 30
0.0
 40
1.5025423409123699
 50
186.6142827328859
 51
233.78802133640249
  0
ARC
  5
12C4E
  8
5
 10
140.39889500144801
 20
271.97235853017929
 30
0.0
 40
1.574683963120932
 50
154.0454473112176
 51
198.9128880121504
  0
POLYLINE
  5
12C4F
  8
5
 66
     1
 10
0.0
 20
0.0
 30
0.0
 70
   128
  0
VERTEX
  5
1348E
  8
5
 10
139.57603238993539
 20
273.13152108694089
 30
0.0
  0
VERTEX
  5
1348F
  8
5
 10
139.19739528687069
 20
272.92662376215139
 30
0.0
  0
VERTEX
  5
13490
  8
5
 10
138.98303132948999
 20
272.66153169139483
 30
0.0
  0
SEQEND
  5
13491
  8
5
  0
ARC
  5
12C50
  8
5
 10
139.40234654228951
 20
271.71089893760592
 30
0.0
 40
1.590917678143916
 50
8.6969035173030065
 51
53.299648916138757
  0
POLYLINE
  5
12C51
  8
5
 66
     1
 10
0.0
 20
0.0
 30
0.0
 70
   128
  0
VERTEX
  5
13492
  8
5
 10
140.3531267695748
 20
272.98645215799081
 30
0.0
  0
VERTEX
  5
13493
  8
5
 10
139.93103202641541
 20
273.14758454855661
 30
0.0
  0
VERTEX
  5
13494
  8
5
 10
139.57603238993539
 20
273.13152108694089
 30
0.0
  0
SEQEND
  5
13495
  8
5
  0
POLYLINE
  5
12C52
  8
5
 66
     1
 10
0.0
 20
0.0
 30
0.0
 70
   128
  0
VERTEX
  5
13496
  8
5
 10
157.0698400679766
 20
264.57620733049589
 30
0.0
  0
VERTEX
  5
13497
  8
5
 10
157.4229525446176
 20
264.89115221717879
 30
0.0
  0
VERTEX
  5
13498
  8
5
 10
157.5929743468738
 20
265.21970878860827
 30
0.0
  0
SEQEND
  5
13499
  8
5
  0
POLYLINE
  5
12C53
  8
5
 66
     1
 10
0.0
 20
0.0
 30
0.0
 70
   128
  0
VERTEX
  5
1349A
  8
5
 10
156.27472225912189
 20
264.33315821861879
 30
0.0
  0
VERTEX
  5
1349B
  8
5
 10
156.74180027386581
 20
264.39777494945662
 30
0.0
  0
VERTEX
  5
1349C
  8
5
 10
157.0698400679766
 20
264.57620733049589
 30
0.0
  0
SEQEND
  5
1349D
  8
5
  0
POLYLINE
  5
12C54
  8
5
 66
     1
 10
0.0
 20
0.0
 30
0.0
 70
   128
  0
VERTEX
  5
1349E
  8
5
 10
155.90841252622161
 20
264.56231880981721
 30
0.0
  0
VERTEX
  5
1349F
  8
5
 10
156.08918680837709
 20
264.39314997763688
 30
0.0
  0
VERTEX
  5
134A0
  8
5
 10
156.27472225912189
 20
264.33315821861879
 30
0.0
  0
SEQEND
  5
134A1
  8
5
  0
LINE
  5
12C55
  8
5
 10
155.67404373976879
 20
264.89969412463699
 30
0.0
 11
155.90841252622161
 21
264.56231880981721
 31
0.0
  0
LINE
  5
12C56
  8
5
 10
157.27643181307201
 20
266.01193315565502
 30
0.0
 11
155.67404373976879
 21
264.89969412463699
 31
0.0
  0
LINE
  5
12C57
  8
5
 10
157.51080059952491
 20
265.67455784083518
 30
0.0
 11
157.27643181307201
 21
266.01193315565502
 31
0.0
  0
POLYLINE
  5
12C58
  8
5
 66
     1
 10
0.0
 20
0.0
 30
0.0
 70
   128
  0
VERTEX
  5
134A2
  8
5
 10
157.5929743468738
 20
265.21970878860827
 30
0.0
  0
VERTEX
  5
134A3
  8
5
 10
157.5934279030152
 20
265.48400740515177
 30
0.0
  0
VERTEX
  5
134A4
  8
5
 10
157.51080059952491
 20
265.67455784083518
 30
0.0
  0
SEQEND
  5
134A5
  8
5
  0
ARC
  5
12C59
  8
5
 10
159.66745036701639
 20
258.2976693765026
 30
0.0
 40
1.5635435259189041
 50
237.35520444611751
 51
282.84774408101032
  0
POLYLINE
  5
12C5A
  8
5
 66
     1
 10
0.0
 20
0.0
 30
0.0
 70
   128
  0
VERTEX
  5
134A6
  8
5
 10
158.40833462505549
 20
257.65556066087362
 30
0.0
  0
VERTEX
  5
134A7
  8
5
 10
158.57378774446849
 20
257.23539484099018
 30
0.0
  0
VERTEX
  5
134A8
  8
5
 10
158.82402921678411
 20
256.9811173947017
 30
0.0
  0
SEQEND
  5
134A9
  8
5
  0
ARC
  5
12C5B
  8
5
 10
160.09145361777789
 20
257.34273802207252
 30
0.0
 40
1.580953704246878
 50
58.488398458133673
 51
103.2768597625743
  0
POLYLINE
  5
12C5C
  8
5
 66
     1
 10
0.0
 20
0.0
 30
0.0
 70
   128
  0
VERTEX
  5
134AA
  8
5
 10
161.32837704287101
 20
258.0525914137898
 30
0.0
  0
VERTEX
  5
134AB
  8
5
 10
161.1613703983524
 20
258.45069374623711
 30
0.0
  0
VERTEX
  5
134AC
  8
5
 10
160.91777258900041
 20
258.69055535864658
 30
0.0
  0
SEQEND
  5
134AD
  8
5
  0
POLYLINE
  5
12C5D
  8
5
 66
     1
 10
0.0
 20
0.0
 30
0.0
 70
   128
  0
VERTEX
  5
134AE
  8
5
 10
161.10780440236201
 20
257.29161580403371
 30
0.0
  0
VERTEX
  5
134AF
  8
5
 10
161.30936700969019
 20
257.69702517269008
 30
0.0
  0
VERTEX
  5
134B0
  8
5
 10
161.32837704287101
 20
258.0525914137898
 30
0.0
  0
SEQEND
  5
134B1
  8
5
  0
ARC
  5
12C5E
  8
5
 10
159.92848057083549
 20
258.36678221514751
 30
0.0
 40
1.595865756006259
 50
273.11216656751537
 51
317.64518335763802
  0
POLYLINE
  5
12C5F
  8
5
 66
     1
 10
0.0
 20
0.0
 30
0.0
 70
   128
  0
VERTEX
  5
134B2
  8
5
 10
158.6339974034224
 20
258.38005694931468
 30
0.0
  0
VERTEX
  5
134B3
  8
5
 10
158.4334165631534
 20
257.99515213448859
 30
0.0
  0
VERTEX
  5
134B4
  8
5
 10
158.40833462505549
 20
257.65556066087362
 30
0.0
  0
SEQEND
  5
134B5
  8
5
  0
ARC
  5
12C60
  8
5
 10
159.75435132806069
 20
257.37967738037469
 30
0.0
 40
1.501982755694927
 50
90.990884282192297
 51
138.23789155296649
  0
LINE
  5
12CBD
  8
5
 10
456.66589867777128
 20
268.7872914321963
 30
0.0
 11
455.32681380900141
 21
267.27112792477323
 31
0.0
  0
LINE
  5
12CBE
  8
5
 10
455.70411862077231
 20
266.9378034284847
 30
0.0
 11
456.66589867777128
 21
268.7872914321963
 31
0.0
  0
LINE
  5
12CBF
  8
5
 10
455.96163494168962
 20
266.71037890237119
 30
0.0
 11
455.70411862077231
 21
266.9378034284847
 31
0.0
  0
LINE
  5
12CC0
  8
5
 10
457.6531410226811
 20
267.91520807124721
 30
0.0
 11
455.96163494168962
 21
266.71037890237119
 31
0.0
  0
LINE
  5
12CC1
  8
5
 10
456.31405615391122
 20
266.39904456382402
 30
0.0
 11
457.6531410226811
 21
267.91520807124721
 31
0.0
  0
LINE
  5
12CC2
  8
5
 10
456.69136096568218
 20
266.06572006753561
 30
0.0
 11
456.31405615391122
 21
266.39904456382402
 31
0.0
  0
LINE
  5
12CC3
  8
5
 10
458.50497029097392
 20
268.1189063745345
 30
0.0
 11
456.69136096568218
 21
266.06572006753561
 31
0.0
  0
LINE
  5
12CC4
  8
5
 10
458.08021303355071
 20
268.4944751212206
 30
0.0
 11
458.50497029097392
 21
268.1189063745345
 31
0.0
  0
LINE
  5
12CC5
  8
5
 10
456.28627911255393
 20
267.3382557747201
 30
0.0
 11
458.08021303355071
 21
268.4944751212206
 31
0.0
  0
LINE
  5
12CC6
  8
5
 10
457.21218049113293
 20
269.26065851199468
 30
0.0
 11
456.28627911255393
 21
267.3382557747201
 31
0.0
  0
LINE
  5
12CC7
  8
5
 10
456.76311832252208
 20
269.65706003969888
 30
0.0
 11
457.21218049113293
 21
269.26065851199468
 31
0.0
  0
LINE
  5
12CC8
  8
5
 10
454.9495089972304
 20
267.60387373269998
 30
0.0
 11
456.76311832252208
 21
269.65706003969888
 31
0.0
  0
LINE
  5
12CC9
  8
5
 10
455.32681380900141
 20
267.27112792477323
 30
0.0
 11
454.9495089972304
 21
267.60387373269998
 31
0.0
  0
LINE
  5
12CCA
  8
5
 10
457.35049713014871
 20
266.0458748363468
 30
0.0
 11
458.74224263982518
 21
267.26632859098629
 31
0.0
  0
LINE
  5
12CCB
  8
5
 10
457.27179551296962
 20
266.13557153239663
 30
0.0
 11
457.35049713014871
 21
266.0458748363468
 31
0.0
  0
LINE
  5
12CCC
  8
5
 10
456.93904970504258
 20
265.8433339097827
 30
0.0
 11
457.27179551296962
 21
266.13557153239663
 31
0.0
  0
LINE
  5
12CCD
  8
5
 10
457.45350365851567
 20
265.25654391110822
 30
0.0
 11
456.93904970504258
 21
265.8433339097827
 31
0.0
  0
LINE
  5
12CCE
  8
5
 10
457.78624946644243
 20
265.54878153372221
 30
0.0
 11
457.45350365851567
 21
265.25654391110822
 31
0.0
  0
LINE
  5
12CCF
  8
5
 10
457.68440031479878
 20
265.6650978944063
 30
0.0
 11
457.78624946644243
 21
265.54878153372221
 31
0.0
  0
LINE
  5
12CD0
  8
5
 10
459.07614582447519
 20
266.88555164904562
 30
0.0
 11
457.68440031479878
 21
265.6650978944063
 31
0.0
  0
LINE
  5
12CD1
  8
5
 10
459.17799497611912
 20
266.76923528836159
 30
0.0
 11
459.07614582447519
 21
266.88555164904562
 31
0.0
  0
LINE
  5
12CD2
  8
5
 10
459.51074078404588
 20
267.06089422261402
 30
0.0
 11
459.17799497611912
 21
266.76923528836159
 31
0.0
  0
LINE
  5
12CD3
  8
5
 10
458.9962868305729
 20
267.6476842212885
 30
0.0
 11
459.51074078404588
 21
267.06089422261402
 31
0.0
  0
LINE
  5
12CD4
  8
5
 10
458.66354102264597
 20
267.35602528703612
 30
0.0
 11
458.9962868305729
 21
267.6476842212885
 31
0.0
  0
LINE
  5
12CD5
  8
5
 10
458.74224263982518
 20
267.26632859098629
 30
0.0
 11
458.66354102264597
 21
267.35602528703612
 31
0.0
  0
ARC
  5
12CD6
  8
5
 10
458.91005830254898
 20
264.84683769529749
 30
0.0
 40
0.9658767905286689
 50
213.06616575200059
 51
266.33276594420778
  0
POLYLINE
  5
12CD7
  8
5
 66
     1
 10
0.0
 20
0.0
 30
0.0
 70
   128
  0
VERTEX
  5
134B6
  8
5
 10
459.85403963452978
 20
264.19080088166243
 30
0.0
  0
VERTEX
  5
134B7
  8
5
 10
459.3169429175046
 20
263.92243694464793
 30
0.0
  0
VERTEX
  5
134B8
  8
5
 10
458.84827926204832
 20
263.88293867328491
 30
0.0
  0
SEQEND
  5
134B9
  8
5
  0
ARC
  5
12CD8
  8
5
 10
459.0854802272998
 20
265.48472563718622
 30
0.0
 40
1.5049667223560479
 50
300.70926772765688
 51
343.69896766626681
  0
POLYLINE
  5
12CD9
  8
5
 66
     1
 10
0.0
 20
0.0
 30
0.0
 70
   128
  0
VERTEX
  5
134BA
  8
5
 10
460.36849358800282
 20
265.89388072988618
 30
0.0
  0
VERTEX
  5
134BB
  8
5
 10
460.55097474301448
 20
265.44426343036048
 30
0.0
  0
VERTEX
  5
134BC
  8
5
 10
460.52994764089249
 20
265.0623055542498
 30
0.0
  0
SEQEND
  5
134BD
  8
5
  0
LINE
  5
12CDA
  8
5
 10
459.86503471340041
 20
266.61955593534742
 30
0.0
 11
460.36849358800282
 21
265.89388072988618
 31
0.0
  0
LINE
  5
12CDB
  8
5
 10
457.59715502424348
 20
265.04552359176319
 30
0.0
 11
459.86503471340041
 21
266.61955593534742
 31
0.0
  0
LINE
  5
12CDC
  8
5
 10
458.10061389884589
 20
264.31984838630183
 30
0.0
 11
457.59715502424348
 21
265.04552359176319
 31
0.0
  0
ARC
  5
12CDD
  8
5
 10
462.25379653595331
 20
252.26730198228671
 30
0.0
 40
3.499999999999988
 50
196.5504969264102
 51
348.00000000000051
  0
ARC
  5
12CDE
  8
5
 10
446.11436112384558
 20
255.69784488077971
 30
0.0
 40
13.000000000000011
 50
22.019407523552768
 51
101.9999999999996
  0
ARC
  5
12CDF
  8
5
 10
446.11436112384558
 20
255.69784488077971
 30
0.0
 40
20.000000000000028
 50
348.00000000000051
 51
101.9999999999996
  0
LINE
  5
12CE0
  8
5
 10
463.52890812905451
 20
253.9801369843932
 30
0.0
 11
461.93932143176539
 21
254.21337205284419
 31
0.0
  0
LINE
  5
12CE1
  8
5
 10
461.37557960476539
 20
253.1847329788171
 30
0.0
 11
463.52890812905451
 21
253.9801369843932
 31
0.0
  0
LINE
  5
12CE2
  8
5
 10
464.09561014390073
 20
251.50717834176331
 30
0.0
 11
460.2477523052421
 21
252.07223088987041
 31
0.0
  0
LINE
  5
12CE3
  8
5
 10
464.19910961367799
 20
252.21216243508249
 30
0.0
 11
464.09561014390073
 21
251.50717834176331
 31
0.0
  0
LINE
  5
12CE4
  8
5
 10
461.19253485227819
 20
252.65415607241019
 30
0.0
 11
464.19910961367799
 21
252.21216243508249
 31
0.0
  0
LINE
  5
12CE5
  8
5
 10
464.43664938038
 20
253.83252298651411
 30
0.0
 11
461.19253485227819
 21
252.65415607241019
 31
0.0
  0
LINE
  5
12CE6
  8
5
 10
464.54269391908622
 20
254.5510807807876
 30
0.0
 11
464.43664938038
 21
253.83252298651411
 31
0.0
  0
LINE
  5
12CE7
  8
5
 10
462.1788347135859
 20
254.8982102027781
 30
0.0
 11
464.54269391908622
 21
254.5510807807876
 31
0.0
  0
LINE
  5
12CE8
  8
5
 10
446.13101747557232
 20
271.90939710289962
 30
0.0
 11
446.078419384374
 21
270.18468872538102
 31
0.0
  0
LINE
  5
12CE9
  8
5
 10
447.74968131438459
 20
271.86019243693988
 30
0.0
 11
446.13101747557232
 21
271.90939710289962
 31
0.0
  0
LINE
  5
12CEA
  8
5
 10
447.76580008426799
 20
272.4022921188062
 30
0.0
 11
447.74968131438459
 21
271.86019243693988
 31
0.0
  0
LINE
  5
12CEB
  8
5
 10
446.14713624545573
 20
272.45149678476588
 30
0.0
 11
447.76580008426799
 21
272.4022921188062
 31
0.0
  0
LINE
  5
12CEC
  8
5
 10
446.18191885415138
 20
273.59508109017429
 30
0.0
 11
446.14713624545573
 21
272.45149678476588
 31
0.0
  0
LINE
  5
12CED
  8
5
 10
448.2502115370782
 20
273.53230272326022
 30
0.0
 11
446.18191885415138
 21
273.59508109017429
 31
0.0
  0
LINE
  5
12CEE
  8
5
 10
448.26633030696161
 20
274.07440240512648
 30
0.0
 11
448.2502115370782
 21
273.53230272326022
 31
0.0
  0
LINE
  5
12CEF
  8
5
 10
445.49305353071549
 20
274.15838967978181
 30
0.0
 11
448.26633030696161
 21
274.07440240512648
 31
0.0
  0
LINE
  5
12CF0
  8
5
 10
445.37343529105482
 20
270.20589763312228
 30
0.0
 11
445.49305353071549
 21
274.15838967978181
 31
0.0
  0
LINE
  5
12CF1
  8
5
 10
446.078419384374
 20
270.18468872538102
 30
0.0
 11
445.37343529105482
 21
270.20589763312228
 31
0.0
  0
ARC
  5
12CF2
  8
5
 10
442.56280412900338
 20
271.36683914190093
 30
0.0
 40
1.655050398706424
 50
281.62379003086937
 51
328.48127430501631
  0
ARC
  5
12CF3
  8
5
 10
442.19651160538592
 20
271.54758174656718
 30
0.0
 40
2.0621310592252291
 50
329.52080990786982
 51
15.97711271041123
  0
ARC
  5
12CF4
  8
5
 10
442.17168202776151
 20
271.74207620420941
 30
0.0
 40
2.0416864863529391
 50
10.52986131953698
 51
57.414596083310201
  0
ARC
  5
12CF5
  8
5
 10
442.39493806652467
 20
272.03588551093281
 30
0.0
 40
1.6741565750764811
 50
58.437267669884477
 51
104.7385562195058
  0
ARC
  5
12CF6
  8
5
 10
442.3175989038362
 20
272.07122151697808
 30
0.0
 40
1.6216431685681441
 50
102.41291202526359
 51
149.02354096618831
  0
ARC
  5
12CF7
  8
5
 10
442.71112166427002
 20
271.88233408457609
 30
0.0
 40
2.0566595736183331
 50
150.15446728446821
 51
196.4750068767475
  0
ARC
  5
12CF8
  8
5
 10
442.74941635420379
 20
271.65177261537463
 30
0.0
 40
2.0412175379928188
 50
189.9500519446039
 51
236.73136274835451
  0
ARC
  5
12CF9
  8
5
 10
442.49517756079752
 20
271.32065058798878
 30
0.0
 40
1.625191610141218
 50
237.82182372347549
 51
284.2881060992305
  0
LINE
  5
12CFA
  8
5
 10
449.74287742302357
 20
271.46617338587959
 30
0.0
 11
449.30597392355378
 21
269.82290721408748
 31
0.0
  0
LINE
  5
12CFB
  8
5
 10
451.30045960754109
 20
271.05217550677048
 30
0.0
 11
449.74287742302357
 21
271.46617338587959
 31
0.0
  0
LINE
  5
12CFC
  8
5
 10
451.44468018018159
 20
271.59427518863691
 30
0.0
 11
451.30045960754109
 21
271.05217550677048
 31
0.0
  0
LINE
  5
12CFD
  8
5
 10
449.88709799566419
 20
272.00827306774607
 30
0.0
 11
451.44468018018159
 21
271.59427518863691
 31
0.0
  0
LINE
  5
12CFE
  8
5
 10
450.17384242832583
 20
273.08823064993061
 30
0.0
 11
449.88709799566419
 21
272.00827306774607
 31
0.0
  0
LINE
  5
12CFF
  8
5
 10
452.16408633076492
 20
272.55970466901857
 30
0.0
 11
450.17384242832583
 21
273.08823064993061
 31
0.0
  0
LINE
  5
12D00
  8
5
 10
452.30745854709579
 20
273.101804350885
 30
0.0
 11
452.16408633076492
 21
272.55970466901857
 31
0.0
  0
LINE
  5
12D01
  8
5
 10
449.61223055133752
 20
273.81696871991988
 30
0.0
 11
452.30745854709579
 21
273.101804350885
 31
0.0
  0
LINE
  5
12D02
  8
5
 10
448.60098983023471
 20
270.00954560221049
 30
0.0
 11
449.61223055133752
 21
273.81696871991988
 31
0.0
  0
LINE
  5
12D03
  8
5
 10
449.30597392355378
 20
269.82290721408748
 30
0.0
 11
448.60098983023471
 21
270.00954560221049
 31
0.0
  0
LINE
  5
12D04
  8
5
 10
462.62698292570212
 20
256.07592121230522
 30
0.0
 11
462.24869899001311
 21
256.05568693686212
 31
0.0
  0
ARC
  5
12D05
  8
5
 10
462.4512224878606
 20
258.11434722083072
 30
0.0
 40
2.045989326400202
 50
274.92806017607791
 51
321.75848094139081
  0
ARC
  5
12D06
  8
5
 10
462.73197741789329
 20
257.85766290083041
 30
0.0
 40
1.666832326811396
 50
322.71484656701239
 51
9.2484763581701568
  0
ARC
  5
12D07
  8
5
 10
462.76943002324708
 20
257.93402269104052
 30
0.0
 40
1.619080142488472
 50
6.7936510863717832
 51
53.429878804229539
  0
ARC
  5
12D08
  8
5
 10
462.53897011178168
 20
257.55159237011992
 30
0.0
 40
2.0639732779872699
 50
54.617130434005269
 51
100.83292670969399
  0
ARC
  5
12D09
  8
5
 10
462.28293668532172
 20
257.61045193143798
 30
0.0
 40
1.9727456842398361
 50
93.833186242621565
 51
139.65405127642819
  0
LINE
  5
12D0A
  8
5
 10
461.57591489584343
 20
261.12577389107793
 30
0.0
 11
461.43350185994791
 21
263.8431764951149
 31
0.0
  0
LINE
  5
12D0B
  8
5
 10
461.43350185994791
 20
263.8431764951149
 30
0.0
 11
459.40272239637238
 21
262.76339190070729
 31
0.0
  0
LINE
  5
12D0C
  8
5
 10
459.40272239637238
 20
262.76339190070729
 30
0.0
 11
461.57591489584343
 21
261.12577389107793
 31
0.0
  0
LINE
  5
12D0D
  8
5
 10
455.30846035829171
 20
270.41147934909372
 30
0.0
 11
452.6076114416212
 21
270.74310189739219
 31
0.0
  0
LINE
  5
12D0E
  8
5
 10
452.6076114416212
 20
270.74310189739219
 30
0.0
 11
454.08964605055519
 21
268.46096872793402
 31
0.0
  0
LINE
  5
12D0F
  8
5
 10
454.08964605055519
 20
268.46096872793402
 30
0.0
 11
455.30846035829171
 21
270.41147934909372
 31
0.0
  0
ARC
  5
12D10
  8
5
 10
442.68381822535258
 20
271.8372802928875
 30
0.0
 40
3.5000000000000071
 50
101.9999999999996
 51
281.9999999999996
  0
ARC
  5
12D11
  8
5
 10
442.018070918131
 20
271.45725441418369
 30
0.0
 40
1.5544020081749841
 50
332.83726696821572
 51
18.538253291773
  0
POLYLINE
  5
12D12
  8
5
 66
     1
 10
0.0
 20
0.0
 30
0.0
 70
   128
  0
VERTEX
  5
134BE
  8
5
 10
442.77156298114392
 20
270.26916689818171
 30
0.0
  0
VERTEX
  5
134BF
  8
5
 10
443.17268759217092
 20
270.47436443929359
 30
0.0
  0
VERTEX
  5
134C0
  8
5
 10
443.4010433629042
 20
270.74763985682432
 30
0.0
  0
SEQEND
  5
134C1
  8
5
  0
POLYLINE
  5
12D13
  8
5
 66
     1
 10
0.0
 20
0.0
 30
0.0
 70
   128
  0
VERTEX
  5
134C2
  8
5
 10
442.03094792281939
 20
270.42271939022839
 30
0.0
  0
VERTEX
  5
134C3
  8
5
 10
442.43222873761857
 20
270.26116632935691
 30
0.0
  0
VERTEX
  5
134C4
  8
5
 10
442.77156298114392
 20
270.26916689818171
 30
0.0
  0
SEQEND
  5
134C5
  8
5
  0
ARC
  5
12D14
  8
5
 10
442.91861141802372
 20
271.63502587190601
 30
0.0
 40
1.5025423409129299
 50
186.6142827328926
 51
233.78802133639539
  0
ARC
  5
12D15
  8
5
 10
442.91574054493651
 20
271.97235853017929
 30
0.0
 40
1.574683963120987
 50
154.0454473112176
 51
198.91288801214671
  0
POLYLINE
  5
12D16
  8
5
 66
     1
 10
0.0
 20
0.0
 30
0.0
 70
   128
  0
VERTEX
  5
134C6
  8
5
 10
442.09287793342378
 20
273.13152108694101
 30
0.0
  0
VERTEX
  5
134C7
  8
5
 10
441.71424083035919
 20
272.92662376215151
 30
0.0
  0
VERTEX
  5
134C8
  8
5
 10
441.49987687297852
 20
272.66153169139488
 30
0.0
  0
SEQEND
  5
134C9
  8
5
  0
POLYLINE
  5
12D17
  8
5
 66
     1
 10
0.0
 20
0.0
 30
0.0
 70
   128
  0
VERTEX
  5
134CA
  8
5
 10
442.86997231306327
 20
272.98645215799081
 30
0.0
  0
VERTEX
  5
134CB
  8
5
 10
442.44787756990388
 20
273.14758454855661
 30
0.0
  0
VERTEX
  5
134CC
  8
5
 10
442.09287793342378
 20
273.13152108694101
 30
0.0
  0
SEQEND
  5
134CD
  8
5
  0
ARC
  5
12D18
  8
5
 10
441.91919208577792
 20
271.71089893760598
 30
0.0
 40
1.5909176781439449
 50
8.696903517306211
 51
53.299648916138757
  0
POLYLINE
  5
12D19
  8
5
 66
     1
 10
0.0
 20
0.0
 30
0.0
 70
   128
  0
VERTEX
  5
134CE
  8
5
 10
459.58668561146521
 20
264.57620733049589
 30
0.0
  0
VERTEX
  5
134CF
  8
5
 10
459.9397980881061
 20
264.89115221717879
 30
0.0
  0
VERTEX
  5
134D0
  8
5
 10
460.10981989036219
 20
265.21970878860839
 30
0.0
  0
SEQEND
  5
134D1
  8
5
  0
POLYLINE
  5
12D1A
  8
5
 66
     1
 10
0.0
 20
0.0
 30
0.0
 70
   128
  0
VERTEX
  5
134D2
  8
5
 10
458.7915678026103
 20
264.33315821861902
 30
0.0
  0
VERTEX
  5
134D3
  8
5
 10
459.25864581735431
 20
264.39777494945668
 30
0.0
  0
VERTEX
  5
134D4
  8
5
 10
459.58668561146521
 20
264.57620733049589
 30
0.0
  0
SEQEND
  5
134D5
  8
5
  0
POLYLINE
  5
12D1B
  8
5
 66
     1
 10
0.0
 20
0.0
 30
0.0
 70
   128
  0
VERTEX
  5
134D6
  8
5
 10
458.42525806971008
 20
264.56231880981733
 30
0.0
  0
VERTEX
  5
134D7
  8
5
 10
458.60603235186562
 20
264.39314997763699
 30
0.0
  0
VERTEX
  5
134D8
  8
5
 10
458.7915678026103
 20
264.33315821861902
 30
0.0
  0
SEQEND
  5
134D9
  8
5
  0
LINE
  5
12D1C
  8
5
 10
458.19088928325721
 20
264.89969412463699
 30
0.0
 11
458.42525806971008
 21
264.56231880981733
 31
0.0
  0
POLYLINE
  5
12D1D
  8
5
 66
     1
 10
0.0
 20
0.0
 30
0.0
 70
   128
  0
VERTEX
  5
134DA
  8
5
 10
460.10981989036219
 20
265.21970878860839
 30
0.0
  0
VERTEX
  5
134DB
  8
5
 10
460.1102734465037
 20
265.48400740515177
 30
0.0
  0
VERTEX
  5
134DC
  8
5
 10
460.02764614301338
 20
265.67455784083529
 30
0.0
  0
SEQEND
  5
134DD
  8
5
  0
LINE
  5
12D1E
  8
5
 10
460.02764614301338
 20
265.67455784083529
 30
0.0
 11
459.79327735656062
 21
266.01193315565502
 31
0.0
  0
LINE
  5
12D1F
  8
5
 10
459.79327735656062
 20
266.01193315565502
 30
0.0
 11
458.19088928325721
 21
264.89969412463699
 31
0.0
  0
LINE
  5
12D20
  8
5
 10
462.09774027873539
 20
256.75778366309038
 30
0.0
 11
462.53196701902118
 21
256.7732700988376
 31
0.0
  0
POLYLINE
  5
12D21
  8
5
 66
     1
 10
0.0
 20
0.0
 30
0.0
 70
   128
  0
VERTEX
  5
134DE
  8
5
 10
463.62464994585048
 20
257.29161580403371
 30
0.0
  0
VERTEX
  5
134DF
  8
5
 10
463.82621255317872
 20
257.69702517269008
 30
0.0
  0
VERTEX
  5
134E0
  8
5
 10
463.84522258635951
 20
258.0525914137898
 30
0.0
  0
SEQEND
  5
134E1
  8
5
  0
ARC
  5
12D22
  8
5
 10
462.44532611432408
 20
258.36678221514762
 30
0.0
 40
1.5958657560064009
 50
273.11216656751873
 51
317.64518335763438
  0
POLYLINE
  5
12D23
  8
5
 66
     1
 10
0.0
 20
0.0
 30
0.0
 70
   128
  0
VERTEX
  5
134E2
  8
5
 10
463.84522258635951
 20
258.0525914137898
 30
0.0
  0
VERTEX
  5
134E3
  8
5
 10
463.6782159418409
 20
258.45069374623699
 30
0.0
  0
VERTEX
  5
134E4
  8
5
 10
463.43461813248899
 20
258.69055535864658
 30
0.0
  0
SEQEND
  5
134E5
  8
5
  0
ARC
  5
12D24
  8
5
 10
462.27119687154931
 20
257.37967738037452
 30
0.0
 40
1.501982755695255
 50
90.990884282195552
 51
135.37607135888589
  0
ARC
  5
12D25
  8
5
 10
462.60829916126647
 20
257.34273802207269
 30
0.0
 40
1.5809537042467019
 50
58.488398458133673
 51
103.2768597625814
  0
ENDSEC
  0
EOF
