  0
SECTION
  2
HEADER
  9
$ACADVER
  1
AC1009
  9
$INSBASE
 10
0.0
 20
0.0
 30
0.0
  9
$EXTMIN
 10
0.0
 20
-150.2225000362136
 30
0.0
  9
$EXTMAX
 10
353.80437348160649
 20
131.99999999999989
 30
0.0
  9
$LIMMIN
 10
0.0
 20
0.0
  9
$LIMMAX
 10
187.5
 20
135.0
  9
$ORTHOMODE
 70
     1
  9
$REGENMODE
 70
     1
  9
$FILLMODE
 70
     1
  9
$QTEXTMODE
 70
     0
  9
$MIRRTEXT
 70
     0
  9
$DRAGMODE
 70
     2
  9
$LTSCALE
 40
5.0
  9
$OSMODE
 70
    37
  9
$ATTMODE
 70
     1
  9
$TEXTSIZE
 40
0.2
  9
$TRACEWID
 40
0.05
  9
$TEXTSTYLE
  7
STANDARD
  9
$CLAYER
  8
0
  9
$CELTYPE
  6
BYLAYER
  9
$CECOLOR
 62
   256
  9
$DIMSCALE
 40
0.5
  9
$DIMASZ
 40
3.0
  9
$DIMEXO
 40
2.0
  9
$DIMDLI
 40
0.3799999999999999
  9
$DIMRND
 40
0.0
  9
$DIMDLE
 40
0.0
  9
$DIMEXE
 40
2.0
  9
$DIMTP
 40
0.0
  9
$DIMTM
 40
0.0
  9
$DIMTXT
 40
3.2000000000000002
  9
$DIMCEN
 40
0.09
  9
$DIMTSZ
 40
0.0
  9
$DIMTOL
 70
     0
  9
$DIMLIM
 70
     0
  9
$DIMTIH
 70
     0
  9
$DIMTOH
 70
     0
  9
$DIMSE1
 70
     0
  9
$DIMSE2
 70
     0
  9
$DIMTAD
 70
     1
  9
$DIMZIN
 70
     8
  9
$DIMBLK
  1

  9
$DIMASO
 70
     0
  9
$DIMSHO
 70
     0
  9
$DIMPOST
  1

  9
$DIMAPOST
  1

  9
$DIMALT
 70
     0
  9
$DIMALTD
 70
     2
  9
$DIMALTF
 40
25.399999999999999
  9
$DIMLFAC
 40
1.0
  9
$DIMTOFL
 70
     0
  9
$DIMTVP
 40
1.6000000000000001
  9
$DIMTIX
 70
     1
  9
$DIMSOXD
 70
     0
  9
$DIMSAH
 70
     0
  9
$DIMBLK1
  1

  9
$DIMBLK2
  1

  9
$DIMSTYLE
  2
STANDARD
  9
$DIMCLRD
 70
     0
  9
$DIMCLRE
 70
     0
  9
$DIMCLRT
 70
     0
  9
$DIMTFAC
 40
1.0
  9
$DIMGAP
 40
1.0
  9
$LUNITS
 70
     2
  9
$LUPREC
 70
     4
  9
$SKETCHINC
 40
0.1
  9
$FILLETRAD
 40
0.4
  9
$AUNITS
 70
     0
  9
$AUPREC
 70
     0
  9
$MENU
  1
E:\r13\win\SUPPORT\ACAD
  9
$ELEVATION
 40
0.0
  9
$PELEVATION
 40
0.0
  9
$THICKNESS
 40
0.0
  9
$LIMCHECK
 70
     0
  9
$BLIPMODE
 70
     0
  9
$CHAMFERA
 40
0.0
  9
$CHAMFERB
 40
0.0
  9
$SKPOLY
 70
     0
  9
$TDCREATE
 40
2451824.6906229062
  9
$TDUPDATE
 40
2456610.694866783
  9
$TDINDWG
 40
0.287801412
  9
$TDUSRTIMER
 40
0.2878012269
  9
$USRTIMER
 70
     1
  9
$ANGBASE
 50
0.0
  9
$ANGDIR
 70
     0
  9
$PDMODE
 70
     0
  9
$PDSIZE
 40
0.0
  9
$PLINEWID
 40
0.0
  9
$COORDS
 70
     1
  9
$SPLFRAME
 70
     0
  9
$SPLINETYPE
 70
     6
  9
$SPLINESEGS
 70
     8
  9
$ATTDIA
 70
     0
  9
$ATTREQ
 70
     1
  9
$HANDLING
 70
     1
  9
$HANDSEED
  5
6F0F
  9
$SURFTAB1
 70
     6
  9
$SURFTAB2
 70
     6
  9
$SURFTYPE
 70
     6
  9
$SURFU
 70
     6
  9
$SURFV
 70
     6
  9
$UCSNAME
  2

  9
$UCSORG
 10
0.0
 20
0.0
 30
0.0
  9
$UCSXDIR
 10
1.0
 20
0.0
 30
0.0
  9
$UCSYDIR
 10
0.0
 20
1.0
 30
0.0
  9
$PUCSNAME
  2

  9
$PUCSORG
 10
0.0
 20
0.0
 30
0.0
  9
$PUCSXDIR
 10
1.0
 20
0.0
 30
0.0
  9
$PUCSYDIR
 10
0.0
 20
1.0
 30
0.0
  9
$USERI1
 70
     0
  9
$USERI2
 70
     1
  9
$USERI3
 70
     0
  9
$USERI4
 70
     0
  9
$USERI5
 70
     0
  9
$USERR1
 40
0.0
  9
$USERR2
 40
0.0
  9
$USERR3
 40
0.0
  9
$USERR4
 40
0.0
  9
$USERR5
 40
0.0
  9
$WORLDVIEW
 70
     1
  9
$SHADEDGE
 70
     3
  9
$SHADEDIF
 70
    70
  9
$TILEMODE
 70
     1
  9
$MAXACTVP
 70
    16
  9
$PLIMCHECK
 70
     0
  9
$PEXTMIN
 10
1.0000000000000000E+020
 20
1.0000000000000000E+020
 30
1.0000000000000000E+020
  9
$PEXTMAX
 10
-1.0000000000000000E+020
 20
-1.0000000000000000E+020
 30
-1.0000000000000000E+020
  9
$PLIMMIN
 10
0.0
 20
0.0
  9
$PLIMMAX
 10
12.0
 20
9.0
  9
$UNITMODE
 70
     0
  9
$VISRETAIN
 70
     0
  9
$PLINEGEN
 70
     0
  9
$PSLTSCALE
 70
     0
  0
ENDSEC
  0
SECTION
  2
TABLES
  0
TABLE
  2
VPORT
 70
     1
  0
VPORT
  2
*ACTIVE
 70
     0
 10
0.0
 20
0.0
 11
1.0
 21
1.0
 12
166.32743362831849
 22
95.290378309769736
 13
0.0
 23
0.0
 14
5.0
 24
5.0
 15
5.0
 25
5.0
 16
0.0
 26
0.0
 36
1.0
 17
0.0
 27
0.0
 37
0.0
 40
190.5807566195395
 41
1.7454798331015291
 42
50.0
 43
0.0
 44
0.0
 50
0.0
 51
0.0
 71
     0
 72
   500
 73
     1
 74
     0
 75
     0
 76
     0
 77
     0
 78
     2
  0
ENDTAB
  0
TABLE
  2
LTYPE
 70
     4
  0
LTYPE
  2
CONTINUOUS
 70
     0
  3
Solid Line
 72
    65
 73
     0
 40
0.0
  0
LTYPE
  2
CENTER
 70
     0
  3
____ _ ____ _ ____ _ ____ _ ____ _ ____ _ ____
 72
    65
 73
     4
 40
2.0
 49
1.25
 49
-0.25
 49
0.25
 49
-0.25
  0
LTYPE
  2
PHANTOM2
 70
     0
  3
___ _ _ ___ _ _ ___ _ _ ___ _ _
 72
    65
 73
     6
 40
1.25
 49
0.625
 49
-0.125
 49
0.125
 49
-0.125
 49
0.125
 49
-0.125
  0
LTYPE
  2
PHANTOM
 70
     0
  3
_____ _ _ _____ _ _ _____ _ _ _____ _ _ ____
 72
    65
 73
     6
 40
2.5
 49
1.25
 49
-0.25
 49
0.25
 49
-0.25
 49
0.25
 49
-0.25
  0
ENDTAB
  0
TABLE
  2
LAYER
 70
     4
  0
LAYER
  2
0
 70
     0
 62
     7
  6
CONTINUOUS
  0
LAYER
  2
1
 70
     0
 62
     1
  6
CENTER
  0
LAYER
  2
3
 70
     0
 62
     3
  6
CONTINUOUS
  0
LAYER
  2
5
 70
     0
 62
     3
  6
PHANTOM
  0
ENDTAB
  0
TABLE
  2
STYLE
 70
     2
  0
STYLE
  2
STANDARD
 70
     0
 40
0.0
 41
1.0
 50
0.0
 71
     0
 42
0.2
  3
TXT
  4
BIGFONT
  0
STYLE
  2
STANDARD1
 70
     0
 40
0.0
 41
1.0
 50
0.0
 71
     0
 42
3.0
  3
txt
  4

  0
ENDTAB
  0
TABLE
  2
VIEW
 70
     0
  0
ENDTAB
  0
TABLE
  2
UCS
 70
     0
  0
ENDTAB
  0
TABLE
  2
APPID
 70
     7
  0
APPID
  2
ACAD
 70
     0
  0
APPID
  2
ACAD_MLEADERVER
 70
     0
  0
APPID
  2
ACAD_EXEMPT_FROM_CAD_STANDARDS
 70
     0
  0
APPID
  2
ACAD_DSTYLE_DIMJAG
 70
     0
  0
APPID
  2
ACAD_DSTYLE_DIMTALN
 70
     0
  0
APPID
  2
ACAD_NAV_VCDISPLAY
 70
     0
  0
APPID
  2
ACAD_PSEXT
 70
     0
  0
ENDTAB
  0
TABLE
  2
DIMSTYLE
 70
     1
  0
DIMSTYLE
  2
STANDARD
 70
     0
  3

  4

  5

  6

  7

 40
1.0
 41
0.18
 42
0.0625
 43
0.38
 44
0.18
 45
0.0
 46
0.0
 47
0.0
 48
0.0
140
0.18
141
0.09
142
0.0
143
25.399999999999999
144
1.0
145
0.0
146
1.0
147
0.09
 71
     0
 72
     0
 73
     1
 74
     1
 75
     0
 76
     0
 77
     0
 78
     0
170
     0
171
     2
172
     0
173
     0
174
     0
175
     0
176
     0
177
     0
178
     0
  0
ENDTAB
  0
ENDSEC
  0
SECTION
  2
BLOCKS
  0
BLOCK
  8
0
  2
$MODEL_SPACE
 70
     0
 10
0.0
 20
0.0
 30
0.0
  3
$MODEL_SPACE
  1

  0
ENDBLK
  5
9
  8
0
  0
BLOCK
 67
     1
  8
0
  2
$PAPER_SPACE
 70
     0
 10
0.0
 20
0.0
 30
0.0
  3
$PAPER_SPACE
  1

  0
ENDBLK
  5
E
 67
     1
  8
0
  0
ENDSEC
  0
SECTION
  2
ENTITIES
  0
LINE
  5
6ACC
  8
0
 10
112.0
 20
90.499999999999886
 30
0.0
 11
112.5
 21
89.999999999999886
 31
0.0
  0
LINE
  5
6ACD
  8
0
 10
127.5
 20
89.999999999999886
 30
0.0
 11
128.0
 21
90.499999999999886
 31
0.0
  0
LINE
  5
6ACE
  8
0
 10
128.0
 20
90.499999999999886
 30
0.0
 11
128.0
 21
92.499999999999886
 31
0.0
  0
LINE
  5
6ACF
  8
0
 10
112.0
 20
92.499999999999886
 30
0.0
 11
112.0
 21
90.499999999999886
 31
0.0
  0
LINE
  5
6AD0
  8
0
 10
112.5
 20
92.999999999999886
 30
0.0
 11
112.0
 21
92.499999999999886
 31
0.0
  0
LINE
  5
6AD1
  8
0
 10
128.0
 20
92.499999999999886
 30
0.0
 11
127.5
 21
92.999999999999886
 31
0.0
  0
LINE
  5
6AD2
  8
0
 10
126.0
 20
78.999999999999886
 30
0.0
 11
126.0
 21
87.499999999999886
 31
0.0
  0
LINE
  5
6AD3
  8
0
 10
114.0
 20
87.499999999999886
 30
0.0
 11
114.0
 21
78.999999999999886
 31
0.0
  0
LINE
  5
6AD4
  8
0
 10
114.0
 20
78.999999999999886
 30
0.0
 11
115.0
 21
77.999999999999886
 31
0.0
  0
LINE
  5
6AD5
  8
0
 10
125.0
 20
77.999999999999886
 30
0.0
 11
126.0
 21
78.999999999999886
 31
0.0
  0
ARC
  5
6AD6
  8
0
 10
125.64999999999991
 20
88.299999999999841
 30
0.0
 40
0.8000000000000113
 50
180.0
 51
270.0
  0
ARC
  5
6AD7
  8
0
 10
114.34999999999999
 20
88.299999999999841
 30
0.0
 40
0.8000000000000113
 50
270.0
 51
0.0
  0
ARC
  5
6AD8
  8
0
 10
125.64999999999991
 20
89.199999999999818
 30
0.0
 40
0.8000000000000042
 50
90.0
 51
180.0
  0
ARC
  5
6AD9
  8
0
 10
114.34999999999999
 20
89.199999999999818
 30
0.0
 40
0.8000000000000042
 50
0.0
 51
90.0
  0
LINE
  5
6ADA
  8
0
 10
124.84999999999999
 20
88.299999999999841
 30
0.0
 11
124.84999999999999
 21
89.199999999999818
 31
0.0
  0
LINE
  5
6ADB
  8
0
 10
115.14999999999991
 20
89.199999999999818
 30
0.0
 11
115.14999999999991
 21
88.299999999999841
 31
0.0
  0
LINE
  5
6ADC
  8
0
 10
127.5
 20
89.999999999999886
 30
0.0
 11
112.5
 21
89.999999999999886
 31
0.0
  0
LINE
  5
6ADD
  8
0
 10
118.75
 20
90.999999999999886
 30
0.0
 11
118.75
 21
92.999999999999886
 31
0.0
  0
LINE
  5
6ADE
  8
0
 10
121.25
 20
92.999999999999886
 30
0.0
 11
121.25
 21
90.999999999999886
 31
0.0
  0
LINE
  5
6ADF
  8
0
 10
121.25
 20
90.999999999999886
 30
0.0
 11
118.75
 21
90.999999999999886
 31
0.0
  0
LINE
  5
6AE0
  8
0
 10
112.5
 20
92.999999999999886
 30
0.0
 11
118.75
 21
92.999999999999886
 31
0.0
  0
LINE
  5
6AE1
  8
0
 10
121.25
 20
92.999999999999886
 30
0.0
 11
127.5
 21
92.999999999999886
 31
0.0
  0
LINE
  5
6AE2
  8
0
 10
126.0
 20
78.999999999999886
 30
0.0
 11
114.0
 21
78.999999999999886
 31
0.0
  0
LINE
  5
6AE3
  8
0
 10
126.0
 20
87.499999999999844
 30
0.0
 11
114.0
 21
87.499999999999886
 31
0.0
  0
LINE
  5
6AE4
  8
0
 10
125.0
 20
77.999999999999886
 30
0.0
 11
115.0
 21
77.999999999999886
 31
0.0
  0
LINE
  5
6AE5
  8
0
 10
164.0
 20
90.499999999999886
 30
0.0
 11
164.0
 21
90.999999999999886
 31
0.0
  0
LINE
  5
6AE6
  8
0
 10
148.0
 20
90.999999999999886
 30
0.0
 11
148.0
 21
90.499999999999886
 31
0.0
  0
LINE
  5
6AE7
  8
0
 10
148.0
 20
90.499999999999886
 30
0.0
 11
148.5
 21
89.999999999999886
 31
0.0
  0
LINE
  5
6AE8
  8
0
 10
163.5
 20
89.999999999999886
 30
0.0
 11
164.0
 21
90.499999999999886
 31
0.0
  0
LINE
  5
6AE9
  8
0
 10
162.0
 20
78.999999999999886
 30
0.0
 11
162.0
 21
87.499999999999886
 31
0.0
  0
LINE
  5
6AEA
  8
0
 10
150.0
 20
87.499999999999886
 30
0.0
 11
150.0
 21
78.999999999999886
 31
0.0
  0
LINE
  5
6AEB
  8
0
 10
150.0
 20
78.999999999999886
 30
0.0
 11
151.0
 21
77.999999999999886
 31
0.0
  0
LINE
  5
6AEC
  8
0
 10
161.0
 20
77.999999999999886
 30
0.0
 11
162.0
 21
78.999999999999886
 31
0.0
  0
ARC
  5
6AED
  8
0
 10
161.65000000000001
 20
88.299999999999841
 30
0.0
 40
0.8000000000000113
 50
180.0
 51
270.0
  0
ARC
  5
6AEE
  8
0
 10
150.34999999999991
 20
88.299999999999841
 30
0.0
 40
0.8000000000000113
 50
270.0
 51
0.0
  0
ARC
  5
6AEF
  8
0
 10
161.65000000000001
 20
89.199999999999818
 30
0.0
 40
0.7999999999999991
 50
90.0
 51
180.0
  0
ARC
  5
6AF0
  8
0
 10
150.34999999999991
 20
89.199999999999818
 30
0.0
 40
0.8000000000000007
 50
0.0
 51
90.0
  0
LINE
  5
6AF1
  8
0
 10
160.84999999999991
 20
88.299999999999841
 30
0.0
 11
160.84999999999991
 21
89.199999999999818
 31
0.0
  0
LINE
  5
6AF2
  8
0
 10
151.15000000000001
 20
89.199999999999818
 30
0.0
 11
151.15000000000001
 21
88.299999999999841
 31
0.0
  0
LINE
  5
6AF3
  8
0
 10
148.0982596853604
 20
90.999999999999886
 30
0.0
 11
148.0
 21
90.999999999999886
 31
0.0
  0
LINE
  5
6AF4
  8
0
 10
148.0982596853604
 20
92.499999999999886
 30
0.0
 11
148.0982596853604
 21
90.999999999999886
 31
0.0
  0
LINE
  5
6AF5
  8
0
 10
163.90174031463951
 20
90.999999999999886
 30
0.0
 11
163.90174031463951
 21
92.499999999999886
 31
0.0
  0
LINE
  5
6AF6
  8
0
 10
164.0
 20
90.999999999999886
 30
0.0
 11
163.90174031463951
 21
90.999999999999886
 31
0.0
  0
LINE
  5
6AF7
  8
0
 10
163.5
 20
89.999999999999886
 30
0.0
 11
148.5
 21
89.999999999999886
 31
0.0
  0
LINE
  5
6AF8
  8
0
 10
148.60490027112539
 20
92.999999999999886
 30
0.0
 11
163.39509972887441
 21
92.999999999999886
 31
0.0
  0
LINE
  5
6AF9
  8
0
 10
163.39509972887441
 20
92.999999999999886
 30
0.0
 11
163.90174031463951
 21
92.499999999999886
 31
0.0
  0
LINE
  5
6AFA
  8
0
 10
148.0982596853604
 20
92.499999999999886
 30
0.0
 11
148.60490027112539
 21
92.999999999999886
 31
0.0
  0
LINE
  5
6AFB
  8
0
 10
162.0
 20
87.499999999999886
 30
0.0
 11
150.0
 21
87.499999999999886
 31
0.0
  0
LINE
  5
6AFC
  8
0
 10
162.0
 20
78.999999999999886
 30
0.0
 11
150.0
 21
78.999999999999886
 31
0.0
  0
LINE
  5
6AFD
  8
0
 10
161.0
 20
77.999999999999886
 30
0.0
 11
151.0
 21
77.999999999999886
 31
0.0
  0
ARC
  5
6AFE
  8
0
 10
116.9036483705258
 20
48.430730556388419
 30
0.0
 40
0.7000000000000087
 50
292.71345847098178
 51
105.24282358343569
  0
ARC
  5
6AFF
  8
0
 10
117.25115882835389
 20
47.600527881314399
 30
0.0
 40
0.2000000000000035
 50
112.7134584709889
 51
223.26087984704029
  0
ARC
  5
6B00
  8
0
 10
119.8000017961219
 20
49.999152388330792
 30
0.0
 40
3.7000000000000188
 50
223.26087984704981
 51
137.2247673198348
  0
ARC
  5
6B01
  8
0
 10
117.23091954996219
 20
52.376086634890271
 30
0.0
 40
0.1999999999999965
 50
137.2247673198253
 51
247.77218869589049
  0
ARC
  5
6B02
  8
0
 10
116.8904584070568
 20
51.542968269847499
 30
0.0
 40
0.700000000000001
 50
255.24282358344081
 51
67.77218869589052
  0
LINE
  5
6B03
  8
0
 10
116.13194383239831
 20
51.018892282961353
 30
0.0
 11
116.71215225753861
 21
50.866058440517229
 31
0.0
  0
LINE
  5
6B04
  8
0
 10
116.71961111099451
 20
49.106104739419031
 30
0.0
 11
116.14071895411109
 21
48.948358516963587
 31
0.0
  0
CIRCLE
  5
6B05
  8
0
 10
116.8904584070568
 20
51.542968269847499
 30
0.0
 40
0.4200000000000099
  0
CIRCLE
  5
6B06
  8
0
 10
116.9036483705258
 20
48.430730556388419
 30
0.0
 40
0.4199999999999957
  0
CIRCLE
  5
6B07
  8
0
 10
120.0
 20
50.0
 30
0.0
 40
6.0000000000000071
  0
CIRCLE
  5
6B08
  8
0
 10
120.0
 20
50.0
 30
0.0
 40
4.0
  0
CIRCLE
  5
6B09
  8
0
 10
120.0
 20
49.999999999999879
 30
0.0
 40
8.0
  0
LINE
  5
6B0A
  8
0
 10
121.2500000000001
 20
128.9017403146394
 30
0.0
 11
121.25
 21
123.7271780286588
 31
0.0
  0
LINE
  5
6B0B
  8
0
 10
121.25
 20
118.272821971341
 30
0.0
 11
121.2500000000001
 21
113.0982596853603
 31
0.0
  0
LINE
  5
6B0C
  8
0
 10
118.75
 20
118.272821971341
 30
0.0
 11
118.75
 21
113.0982596853603
 31
0.0
  0
LINE
  5
6B0D
  8
0
 10
118.75
 20
128.9017403146394
 30
0.0
 11
118.75
 21
123.7271780286588
 31
0.0
  0
CIRCLE
  5
6B0E
  8
0
 10
120.0
 20
120.9999999999999
 30
0.0
 40
3.0
  0
CIRCLE
  5
6B0F
  8
0
 10
120.0
 20
120.9999999999999
 30
0.0
 40
8.0
  0
ARC
  5
6B10
  8
0
 10
120.0
 20
120.9999999999999
 30
0.0
 40
4.0000000000000071
 50
288.2099568642829
 51
71.790043135716999
  0
ARC
  5
6B11
  8
0
 10
120.0
 20
120.9999999999999
 30
0.0
 40
4.0000000000000089
 50
108.209956864283
 51
251.79004313571701
  0
LINE
  5
6B12
  8
1
 10
120.0
 20
131.99999999999989
 30
0.0
 11
120.0
 21
109.9999999999999
 31
0.0
  0
LINE
  5
6B13
  8
1
 10
120.0
 20
95.999999999999886
 30
0.0
 11
120.0
 21
74.999999999999886
 31
0.0
  0
LINE
  5
6B14
  8
1
 10
120.0
 20
60.999999999999879
 30
0.0
 11
120.0
 21
38.999999999999879
 31
0.0
  0
LINE
  5
6B15
  8
1
 10
156.0
 20
95.999999999999886
 30
0.0
 11
156.0
 21
74.999999999999886
 31
0.0
  0
LINE
  5
6B16
  8
1
 10
131.0
 20
120.9999999999999
 30
0.0
 11
109.0
 21
120.9999999999999
 31
0.0
  0
LINE
  5
6B17
  8
1
 10
131.0
 20
50.0
 30
0.0
 11
109.0
 21
50.0
 31
0.0
  0
LINE
  5
6B18
  8
3
 10
114.812
 20
78.187999999999874
 30
0.0
 11
114.812
 21
87.499999999999844
 31
0.0
  0
LINE
  5
6B19
  8
3
 10
125.188
 20
78.187999999999874
 30
0.0
 11
125.188
 21
87.499999999999844
 31
0.0
  0
CIRCLE
  5
6B1A
  8
3
 10
120.0
 20
50.0
 30
0.0
 40
5.1879999999999882
  0
LINE
  5
6B1B
  8
3
 10
150.81200000000001
 20
78.187999999999874
 30
0.0
 11
150.81200000000001
 21
87.499999999999844
 31
0.0
  0
LINE
  5
6B1C
  8
3
 10
161.18799999999999
 20
78.187999999999874
 30
0.0
 11
161.18799999999999
 21
87.499999999999844
 31
0.0
  0
TEXT
  5
6B1D
  8
0
 62
     3
 10
148.49104014827299
 20
-19.59476485530055
 30
0.0
 40
3.2000000000000002
  1
6mmのベースの場合
 72
     1
 11
166.3043734816064
 21
-19.59476485530055
 31
0.0
  0
TEXT
  5
6B1E
  8
0
 62
     3
 10
272.6910401482732
 20
-19.59476485530055
 30
0.0
 40
3.2000000000000002
  1
10mmのベースの場合
 72
     1
 11
291.30437348160649
 21
-19.59476485530055
 31
0.0
  0
TEXT
  5
6B1F
  8
0
 62
     3
 10
274.45104014827308
 20
-82.605235144699364
 30
0.0
 40
3.2000000000000002
  1
ブロックへの取付け
 72
     1
 11
291.30437348160649
 21
-82.605235144699364
 31
0.0
  0
TEXT
  5
6B20
  8
0
 62
     3
 10
132.2377068149398
 20
-60.594764855300731
 30
0.0
 40
3.2000000000000002
  1
組付け状態
 72
     1
 11
141.30437348160649
 21
-60.594764855300731
 31
0.0
  0
POLYLINE
  5
6B21
  8
5
 66
     1
 10
0.0
 20
0.0
 30
0.0
 70
     1
  0
VERTEX
  5
6F09
  8
5
 10
103.8043734816064
 20
-10.0
 30
0.0
  0
VERTEX
  5
6F0A
  8
5
 10
353.80437348160649
 20
-10.0
 30
0.0
  0
VERTEX
  5
6F0B
  8
5
 10
353.80437348160649
 20
-150.2225000362136
 30
0.0
  0
VERTEX
  5
6F0C
  8
5
 10
103.8043734816064
 20
-150.2225000362136
 30
0.0
  0
SEQEND
  5
6F0D
  8
5
  0
TEXT
  5
6B22
  8
0
 62
     3
 10
184.0510401482731
 20
-60.594764855300731
 30
0.0
 40
3.2000000000000002
  1
取付け穴
 72
     1
 11
191.30437348160649
 21
-60.594764855300731
 31
0.0
  0
TEXT
  5
6B23
  8
0
 62
     3
 10
257.23770681493983
 20
-60.594764855300731
 30
0.0
 40
3.2000000000000002
  1
組付け状態
 72
     1
 11
266.30437348160649
 21
-60.594764855300731
 31
0.0
  0
TEXT
  5
6B24
  8
0
 62
     3
 10
309.05104014827322
 20
-60.594764855300731
 30
0.0
 40
3.2000000000000002
  1
取付け穴
 72
     1
 11
316.30437348160649
 21
-60.594764855300731
 31
0.0
  0
TEXT
  5
6B25
  8
0
 62
     3
 10
132.23770681493971
 20
-135.2225000362136
 30
0.0
 40
3.2000000000000002
  1
組付け状態
 72
     1
 11
141.3043734816064
 21
-135.2225000362136
 31
0.0
  0
TEXT
  5
6B26
  8
0
 62
     3
 10
184.05104014827299
 20
-135.2225000362136
 30
0.0
 40
3.2000000000000002
  1
取付け穴
 72
     1
 11
191.3043734816064
 21
-135.2225000362136
 31
0.0
  0
TEXT
  5
6B27
  8
0
 62
     3
 10
257.23770681493971
 20
-135.2225000362136
 30
0.0
 40
3.2000000000000002
  1
組付け状態
 72
     1
 11
266.30437348160638
 21
-135.2225000362136
 31
0.0
  0
TEXT
  5
6B28
  8
0
 62
     3
 10
309.0510401482731
 20
-135.2225000362136
 30
0.0
 40
3.2000000000000002
  1
取付け穴
 72
     1
 11
316.30437348160638
 21
-135.2225000362136
 31
0.0
  0
TEXT
  5
6B29
  8
0
 62
     3
 10
103.8043734816064
 20
0.0
 30
0.0
 40
3.2000000000000002
  1
■マグインキャッチャーの取付け方法 (下図)
  0
TEXT
  5
6B2A
  8
0
 62
     3
 10
138.19770681493969
 20
-82.605235144699364
 30
0.0
 40
3.2000000000000002
  1
10mmを超えるベースへの取付け
 72
     1
 11
166.3043734816064
 21
-82.605235144699364
 31
0.0
  0
LINE
  5
6B2B
  8
0
 10
173.80437348160629
 20
-34.594764855300561
 30
0.0
 11
208.80437348160629
 21
-34.594764855300561
 31
0.0
  0
LINE
  5
6B2C
  8
0
 10
183.30437348160629
 20
-38.094764855300546
 30
0.0
 11
199.30437348160629
 21
-38.094764855300546
 31
0.0
  0
LINE
  5
6B2D
  8
1
 10
191.30437348160629
 20
-31.59476485530055
 30
0.0
 11
191.30437348160629
 21
-43.594764855300546
 31
0.0
  0
LINE
  5
6B2E
  8
0
 10
199.30437348160629
 20
-35.094764855300546
 30
0.0
 11
199.30437348160629
 21
-38.094764855300546
 31
0.0
  0
LINE
  5
6B2F
  8
0
 10
183.30437348160629
 20
-35.094764855300546
 30
0.0
 11
183.30437348160629
 21
-38.094764855300546
 31
0.0
  0
LINE
  5
6B30
  8
0
 10
184.80437348160629
 20
-40.094764855300546
 30
0.0
 11
184.80437348160629
 21
-38.094764855300546
 31
0.0
  0
LINE
  5
6B31
  8
0
 10
197.80437348160629
 20
-40.094764855300689
 30
0.0
 11
197.80437348160629
 21
-38.094764855300546
 31
0.0
  0
LINE
  5
6B32
  8
0
 10
173.80437348160629
 20
-40.594764855300546
 30
0.0
 11
208.80437348160629
 21
-40.594764855300546
 31
0.0
  0
LINE
  5
6B33
  8
1
 10
316.30437348160672
 20
-31.59476485530055
 30
0.0
 11
316.30437348160677
 21
-47.594764855300667
 31
0.0
  0
LINE
  5
6B34
  8
0
 10
183.30437348160629
 20
-35.094764855300546
 30
0.0
 11
182.80437348160629
 21
-34.594764855300561
 31
0.0
  0
LINE
  5
6B35
  8
0
 10
199.30437348160629
 20
-35.094764855300753
 30
0.0
 11
199.80437348160621
 21
-34.594764855300753
 31
0.0
  0
LINE
  5
6B36
  8
0
 10
183.30437348160629
 20
-35.094764855300546
 30
0.0
 11
199.30437348160629
 21
-35.094764855300546
 31
0.0
  0
LINE
  5
6B37
  8
0
 10
184.80437348160629
 20
-40.094764855300546
 30
0.0
 11
184.30437348160629
 21
-40.594764855300546
 31
0.0
  0
LINE
  5
6B38
  8
0
 10
197.80437348160621
 20
-40.094764855300546
 30
0.0
 11
198.30437348160629
 21
-40.594764855300546
 31
0.0
  0
LINE
  5
6B39
  8
0
 10
184.80437348160629
 20
-40.094764855300689
 30
0.0
 11
197.80437348160629
 21
-40.094764855300689
 31
0.0
  0
LINE
  5
6B3A
  8
0
 10
298.80437348160649
 20
-34.594764855300561
 30
0.0
 11
333.8043734816066
 21
-34.594764855300703
 31
0.0
  0
LINE
  5
6B3B
  8
0
 10
298.80437348160672
 20
-44.594764855300689
 30
0.0
 11
333.80437348160672
 21
-44.594764855300689
 31
0.0
  0
LINE
  5
6B3C
  8
0
 10
123.8043734816064
 20
-34.59476485530061
 30
0.0
 11
158.8043734816064
 21
-34.59476485530061
 31
0.0
  0
LINE
  5
6B3D
  8
0
 10
133.30437348160629
 20
-38.09476485530061
 30
0.0
 11
149.3043734816064
 21
-38.09476485530061
 31
0.0
  0
LINE
  5
6B3E
  8
0
 10
149.3043734816064
 20
-35.09476485530061
 30
0.0
 11
149.3043734816064
 21
-38.09476485530061
 31
0.0
  0
LINE
  5
6B3F
  8
0
 10
133.30437348160629
 20
-35.09476485530061
 30
0.0
 11
133.30437348160629
 21
-38.09476485530061
 31
0.0
  0
LINE
  5
6B40
  8
0
 10
134.8043734816064
 20
-40.094764855300603
 30
0.0
 11
134.8043734816064
 21
-38.09476485530061
 31
0.0
  0
LINE
  5
6B41
  8
0
 10
147.80437348160629
 20
-40.094764855300753
 30
0.0
 11
147.80437348160629
 21
-38.09476485530061
 31
0.0
  0
LINE
  5
6B42
  8
0
 10
123.8043734816064
 20
-40.59476485530061
 30
0.0
 11
158.8043734816064
 21
-40.59476485530061
 31
0.0
  0
LINE
  5
6B43
  8
0
 10
133.30437348160629
 20
-35.09476485530061
 30
0.0
 11
132.8043734816064
 21
-34.59476485530061
 31
0.0
  0
LINE
  5
6B44
  8
0
 10
149.3043734816064
 20
-35.094764855300809
 30
0.0
 11
149.80437348160621
 21
-34.594764855300809
 31
0.0
  0
LINE
  5
6B45
  8
0
 10
133.30437348160629
 20
-35.09476485530061
 30
0.0
 11
149.3043734816064
 21
-35.09476485530061
 31
0.0
  0
LINE
  5
6B46
  8
0
 10
134.8043734816064
 20
-40.094764855300603
 30
0.0
 11
134.3043734816064
 21
-40.59476485530061
 31
0.0
  0
LINE
  5
6B47
  8
0
 10
147.80437348160621
 20
-40.094764855300603
 30
0.0
 11
148.3043734816064
 21
-40.59476485530061
 31
0.0
  0
LINE
  5
6B48
  8
0
 10
134.8043734816064
 20
-40.094764855300753
 30
0.0
 11
136.39599333031589
 21
-40.094764855300781
 31
0.0
  0
LINE
  5
6B49
  8
0
 10
146.21275363289681
 20
-40.094764855300781
 30
0.0
 11
147.80437348160629
 21
-40.094764855300753
 31
0.0
  0
LINE
  5
6B4A
  8
0
 10
133.30437348160629
 20
-100.60523514469941
 30
0.0
 11
133.8043734816064
 21
-101.10523514469941
 31
0.0
  0
LINE
  5
6B4B
  8
0
 10
148.8043734816064
 20
-101.10523514469941
 30
0.0
 11
149.3043734816064
 21
-100.60523514469941
 31
0.0
  0
LINE
  5
6B4C
  8
0
 10
133.8043734816064
 20
-98.105235144699421
 30
0.0
 11
133.30437348160629
 21
-98.605235144699407
 31
0.0
  0
LINE
  5
6B4D
  8
0
 10
149.3043734816064
 20
-98.605235144699407
 30
0.0
 11
148.8043734816064
 21
-98.105235144699421
 31
0.0
  0
LINE
  5
6B4E
  8
0
 10
135.30437348160629
 20
-112.10523514469941
 30
0.0
 11
136.3043734816064
 21
-113.10523514469941
 31
0.0
  0
LINE
  5
6B4F
  8
0
 10
146.3043734816064
 20
-113.10523514469941
 30
0.0
 11
147.3043734816064
 21
-112.10523514469941
 31
0.0
  0
ARC
  5
6B50
  8
0
 10
146.9543734816063
 20
-102.8052351446994
 30
0.0
 40
0.8000000000000113
 50
180.0
 51
270.0
  0
ARC
  5
6B51
  8
0
 10
135.6543734816064
 20
-102.8052351446994
 30
0.0
 40
0.8000000000000113
 50
270.0
 51
0.0
  0
ARC
  5
6B52
  8
0
 10
146.9543734816063
 20
-101.9052351446994
 30
0.0
 40
0.8000000000000042
 50
90.0
 51
180.0
  0
ARC
  5
6B53
  8
0
 10
135.6543734816064
 20
-101.9052351446994
 30
0.0
 40
0.8000000000000042
 50
0.0
 51
90.0
  0
LINE
  5
6B54
  8
0
 10
146.1543734816064
 20
-102.8052351446994
 30
0.0
 11
146.1543734816064
 21
-101.9052351446994
 31
0.0
  0
LINE
  5
6B55
  8
0
 10
136.4543734816063
 20
-101.9052351446994
 30
0.0
 11
136.4543734816063
 21
-102.8052351446994
 31
0.0
  0
LINE
  5
6B56
  8
0
 10
140.0543734816064
 20
-100.10523514469941
 30
0.0
 11
140.0543734816064
 21
-98.105235144699421
 31
0.0
  0
LINE
  5
6B57
  8
0
 10
142.5543734816064
 20
-98.105235144699421
 30
0.0
 11
142.5543734816064
 21
-100.10523514469941
 31
0.0
  0
LINE
  5
6B58
  8
0
 10
142.5543734816064
 20
-100.10523514469941
 30
0.0
 11
140.0543734816064
 21
-100.10523514469941
 31
0.0
  0
LINE
  5
6B59
  8
0
 10
147.3043734816064
 20
-112.10523514469941
 30
0.0
 11
135.30437348160629
 21
-112.10523514469941
 31
0.0
  0
LINE
  5
6B5A
  8
0
 10
147.3043734816064
 20
-103.60523514469941
 30
0.0
 11
135.30437348160629
 21
-103.60523514469941
 31
0.0
  0
LINE
  5
6B5B
  8
0
 10
146.3043734816064
 20
-113.10523514469941
 30
0.0
 11
136.3043734816064
 21
-113.10523514469941
 31
0.0
  0
LINE
  5
6B5C
  8
0
 10
133.30437348160629
 20
-37.59476485530061
 30
0.0
 11
133.8043734816064
 21
-38.09476485530061
 31
0.0
  0
LINE
  5
6B5D
  8
0
 10
148.8043734816064
 20
-38.09476485530061
 30
0.0
 11
149.3043734816064
 21
-37.59476485530061
 31
0.0
  0
LINE
  5
6B5E
  8
0
 10
133.8043734816064
 20
-35.09476485530061
 30
0.0
 11
133.30437348160629
 21
-35.59476485530061
 31
0.0
  0
LINE
  5
6B5F
  8
0
 10
149.3043734816064
 20
-35.59476485530061
 30
0.0
 11
148.8043734816064
 21
-35.09476485530061
 31
0.0
  0
LINE
  5
6B60
  8
0
 10
147.3043734816064
 20
-49.09476485530061
 30
0.0
 11
147.3043734816064
 21
-46.59476485530061
 31
0.0
  0
LINE
  5
6B61
  8
0
 10
135.30437348160629
 20
-46.59476485530061
 30
0.0
 11
135.30437348160629
 21
-49.09476485530061
 31
0.0
  0
LINE
  5
6B62
  8
0
 10
135.30437348160629
 20
-49.09476485530061
 30
0.0
 11
136.3043734816064
 21
-50.09476485530061
 31
0.0
  0
LINE
  5
6B63
  8
0
 10
146.3043734816064
 20
-50.09476485530061
 30
0.0
 11
147.3043734816064
 21
-49.09476485530061
 31
0.0
  0
ARC
  5
6B64
  8
0
 10
146.9543734816063
 20
-39.794764855300663
 30
0.0
 40
0.8000000000000113
 50
180.0
 51
270.0
  0
ARC
  5
6B65
  8
0
 10
135.6543734816064
 20
-39.794764855300663
 30
0.0
 40
0.8000000000000113
 50
270.0
 51
0.0
  0
ARC
  5
6B66
  8
0
 10
146.9543734816063
 20
-38.894764855300679
 30
0.0
 40
0.8000000000000042
 50
90.0
 51
180.0
  0
ARC
  5
6B67
  8
0
 10
135.6543734816064
 20
-38.894764855300679
 30
0.0
 40
0.8000000000000042
 50
0.0
 51
90.0
  0
LINE
  5
6B68
  8
0
 10
146.1543734816064
 20
-39.794764855300663
 30
0.0
 11
146.1543734816064
 21
-38.894764855300679
 31
0.0
  0
LINE
  5
6B69
  8
0
 10
136.4543734816063
 20
-38.894764855300679
 30
0.0
 11
136.4543734816063
 21
-39.794764855300663
 31
0.0
  0
LINE
  5
6B6A
  8
0
 10
140.0543734816064
 20
-37.09476485530061
 30
0.0
 11
140.0543734816064
 21
-35.09476485530061
 31
0.0
  0
LINE
  5
6B6B
  8
0
 10
142.5543734816064
 20
-35.09476485530061
 30
0.0
 11
142.5543734816064
 21
-37.09476485530061
 31
0.0
  0
LINE
  5
6B6C
  8
0
 10
142.5543734816064
 20
-37.09476485530061
 30
0.0
 11
140.0543734816064
 21
-37.09476485530061
 31
0.0
  0
LINE
  5
6B6D
  8
0
 10
147.3043734816064
 20
-49.09476485530061
 30
0.0
 11
135.30437348160629
 21
-49.09476485530061
 31
0.0
  0
LINE
  5
6B6E
  8
0
 10
146.3043734816064
 20
-50.09476485530061
 30
0.0
 11
136.3043734816064
 21
-50.09476485530061
 31
0.0
  0
LINE
  5
6B6F
  8
1
 10
141.3043734816064
 20
-31.594764855300639
 30
0.0
 11
141.3043734816064
 21
-53.09476485530061
 31
0.0
  0
LINE
  5
6B70
  8
3
 10
136.11637348160639
 20
-49.906764855300622
 30
0.0
 11
136.11637348160639
 21
-46.59476485530061
 31
0.0
  0
LINE
  5
6B71
  8
3
 10
146.49237348160631
 20
-49.906764855300622
 30
0.0
 11
146.49237348160631
 21
-46.59476485530061
 31
0.0
  0
LINE
  5
6B72
  8
0
 10
308.30437348160672
 20
-38.094764855299701
 30
0.0
 11
324.30437348160672
 21
-38.094764855299701
 31
0.0
  0
LINE
  5
6B73
  8
0
 10
324.30437348160672
 20
-35.094764855299701
 30
0.0
 11
324.30437348160672
 21
-38.094764855299701
 31
0.0
  0
LINE
  5
6B74
  8
0
 10
308.30437348160672
 20
-35.094764855299701
 30
0.0
 11
308.30437348160672
 21
-38.094764855299701
 31
0.0
  0
LINE
  5
6B75
  8
0
 10
309.80437348160672
 20
-44.094764855299701
 30
0.0
 11
309.80437348160672
 21
-38.094764855299701
 31
0.0
  0
LINE
  5
6B76
  8
0
 10
322.80437348160672
 20
-44.094764855299843
 30
0.0
 11
322.80437348160672
 21
-38.094764855299701
 31
0.0
  0
LINE
  5
6B77
  8
0
 10
308.30437348160672
 20
-35.094764855299701
 30
0.0
 11
307.80437348160672
 21
-34.594764855299701
 31
0.0
  0
LINE
  5
6B78
  8
0
 10
324.30437348160672
 20
-35.0947648552999
 30
0.0
 11
324.80437348160672
 21
-34.5947648552999
 31
0.0
  0
LINE
  5
6B79
  8
0
 10
308.30437348160672
 20
-35.094764855299701
 30
0.0
 11
324.30437348160672
 21
-35.094764855299701
 31
0.0
  0
LINE
  5
6B7A
  8
0
 10
309.80437348160672
 20
-44.094764855299701
 30
0.0
 11
309.30437348160677
 21
-44.594764855299701
 31
0.0
  0
LINE
  5
6B7B
  8
0
 10
322.80437348160672
 20
-44.094764855299701
 30
0.0
 11
323.30437348160672
 21
-44.594764855299701
 31
0.0
  0
LINE
  5
6B7C
  8
0
 10
309.80437348160672
 20
-44.094764855299843
 30
0.0
 11
322.80437348160672
 21
-44.094764855299843
 31
0.0
  0
LINE
  5
6B7D
  8
1
 10
266.30437348160677
 20
-31.59476485530055
 30
0.0
 11
266.30437348160689
 21
-53.594764855300717
 31
0.0
  0
LINE
  5
6B7E
  8
0
 10
248.8043734816066
 20
-34.594764855300561
 30
0.0
 11
283.80437348160672
 21
-34.594764855300703
 31
0.0
  0
LINE
  5
6B7F
  8
0
 10
248.8043734816068
 20
-44.594764855300689
 30
0.0
 11
283.80437348160677
 21
-44.594764855300689
 31
0.0
  0
LINE
  5
6B80
  8
0
 10
258.30437348160677
 20
-38.094764855299701
 30
0.0
 11
274.30437348160689
 21
-38.094764855299701
 31
0.0
  0
LINE
  5
6B81
  8
0
 10
274.30437348160689
 20
-35.094764855299701
 30
0.0
 11
274.30437348160689
 21
-38.094764855299701
 31
0.0
  0
LINE
  5
6B82
  8
0
 10
258.30437348160677
 20
-35.094764855299701
 30
0.0
 11
258.30437348160677
 21
-38.094764855299701
 31
0.0
  0
LINE
  5
6B83
  8
0
 10
259.80437348160677
 20
-44.094764855299701
 30
0.0
 11
259.80437348160677
 21
-38.094764855299701
 31
0.0
  0
LINE
  5
6B84
  8
0
 10
272.80437348160677
 20
-44.094764855299843
 30
0.0
 11
272.80437348160677
 21
-38.094764855299701
 31
0.0
  0
LINE
  5
6B85
  8
0
 10
258.30437348160677
 20
-35.094764855299701
 30
0.0
 11
257.80437348160677
 21
-34.594764855299701
 31
0.0
  0
LINE
  5
6B86
  8
0
 10
274.30437348160689
 20
-35.0947648552999
 30
0.0
 11
274.80437348160672
 21
-34.5947648552999
 31
0.0
  0
LINE
  5
6B87
  8
0
 10
258.30437348160677
 20
-35.094764855299701
 30
0.0
 11
274.30437348160689
 21
-35.094764855299701
 31
0.0
  0
LINE
  5
6B88
  8
0
 10
259.80437348160677
 20
-44.094764855299701
 30
0.0
 11
259.30437348160689
 21
-44.594764855299701
 31
0.0
  0
LINE
  5
6B89
  8
0
 10
272.80437348160672
 20
-44.094764855299701
 30
0.0
 11
273.30437348160677
 21
-44.594764855299701
 31
0.0
  0
LINE
  5
6B8A
  8
0
 10
259.80437348160677
 20
-44.094764855299843
 30
0.0
 11
260.30437348160677
 21
-44.094764855299807
 31
0.0
  0
LINE
  5
6B8B
  8
0
 10
272.30437348160677
 20
-44.094764855299807
 30
0.0
 11
272.80437348160677
 21
-44.094764855299843
 31
0.0
  0
LINE
  5
6B8C
  8
0
 10
275.80437887640409
 20
-44.594764855300689
 30
0.0
 11
277.27403398208031
 21
-45.443270626178673
 31
0.0
  0
ARC
  5
6B8D
  8
0
 10
274.53162020565969
 20
-49.45082809444034
 30
0.0
 40
4.8560632391392371
 50
90.0
 51
124.3842472978079
  0
ARC
  5
6B8E
  8
0
 10
266.30437348160677
 20
-62.746259155501427
 30
0.0
 40
18.151494300200689
 50
72.412046317071656
 51
107.5879536829283
  0
ARC
  5
6B8F
  8
0
 10
258.07713215235049
 20
-49.45082809444034
 30
0.0
 40
4.8560632391392371
 50
55.615752702192111
 51
89.999999999996746
  0
LINE
  5
6B90
  8
0
 10
256.80437348160621
 20
-44.594764855300689
 30
0.0
 11
255.33471837593021
 21
-45.443270626178673
 31
0.0
  0
LINE
  5
6B91
  8
0
 10
260.81954592877099
 20
-49.746259084422263
 30
0.0
 11
260.81954592877099
 21
-45.44327062617878
 31
0.0
  0
LINE
  5
6B92
  8
0
 10
255.33471837593021
 20
-45.443270626178673
 30
0.0
 11
255.33471837593021
 21
-49.746259084422718
 31
0.0
  0
LINE
  5
6B93
  8
0
 10
271.78920103444261
 20
-49.746259084421808
 30
0.0
 11
271.78920103444261
 21
-45.44327062617878
 31
0.0
  0
LINE
  5
6B94
  8
0
 10
277.27402858727669
 20
-45.44327062617878
 30
0.0
 11
277.27402858727669
 21
-49.746262199113971
 31
0.0
  0
LINE
  5
6B95
  8
0
 10
275.80437348160621
 20
-50.594764855300689
 30
0.0
 11
256.80437348160621
 21
-50.594764855300689
 31
0.0
  0
LINE
  5
6B96
  8
0
 10
256.80437348160621
 20
-50.594764855300689
 30
0.0
 11
255.33471837593021
 21
-49.746259084422718
 31
0.0
  0
ARC
  5
6B97
  8
0
 10
258.07713215235049
 20
-45.738701616161052
 30
0.0
 40
4.8560632391392371
 50
270.0
 51
304.38424729780792
  0
ARC
  5
6B98
  8
0
 10
266.30437348160677
 20
-32.443270555099957
 30
0.0
 40
18.151494300200689
 50
252.4120463170683
 51
287.5879536829284
  0
ARC
  5
6B99
  8
0
 10
274.53162020565969
 20
-45.738701616161052
 30
0.0
 40
4.8560632391392371
 50
235.61575270219211
 51
270.0
  0
LINE
  5
6B9A
  8
0
 10
275.80437887640409
 20
-50.594764855300689
 30
0.0
 11
277.27403398208031
 21
-49.746259084422718
 31
0.0
  0
LINE
  5
6B9B
  8
0
 10
150.8043788764036
 20
-40.59476485530061
 30
0.0
 11
152.27403398207969
 21
-41.443270626178581
 31
0.0
  0
ARC
  5
6B9C
  8
0
 10
149.53162020565929
 20
-45.450828094440247
 30
0.0
 40
4.8560632391392371
 50
90.0
 51
124.3842472978079
  0
ARC
  5
6B9D
  8
0
 10
141.3043734816064
 20
-58.746259155501349
 30
0.0
 40
18.151494300200689
 50
72.412046317071656
 51
107.5879536829283
  0
ARC
  5
6B9E
  8
0
 10
133.07713215235009
 20
-45.450828094440247
 30
0.0
 40
4.8560632391392371
 50
55.615752702192111
 51
89.999999999996746
  0
LINE
  5
6B9F
  8
0
 10
131.80437348160569
 20
-40.59476485530061
 30
0.0
 11
130.3347183759297
 21
-41.443270626178581
 31
0.0
  0
LINE
  5
6BA0
  8
0
 10
135.81954592877059
 20
-45.746259084422171
 30
0.0
 11
135.81954592877059
 21
-41.443270626178702
 31
0.0
  0
LINE
  5
6BA1
  8
0
 10
130.3347183759297
 20
-41.443270626178581
 30
0.0
 11
130.3347183759297
 21
-45.746259084422633
 31
0.0
  0
LINE
  5
6BA2
  8
0
 10
146.7892010344421
 20
-45.746259084421723
 30
0.0
 11
146.7892010344421
 21
-41.443270626178702
 31
0.0
  0
LINE
  5
6BA3
  8
0
 10
152.27402858727621
 20
-41.443270626178702
 30
0.0
 11
152.27402858727621
 21
-45.746262199113879
 31
0.0
  0
LINE
  5
6BA4
  8
0
 10
150.80437348160581
 20
-46.59476485530061
 30
0.0
 11
131.80437348160569
 21
-46.59476485530061
 31
0.0
  0
LINE
  5
6BA5
  8
0
 10
131.80437348160569
 20
-46.59476485530061
 30
0.0
 11
130.3347183759297
 21
-45.746259084422633
 31
0.0
  0
ARC
  5
6BA6
  8
0
 10
133.07713215235009
 20
-41.738701616160959
 30
0.0
 40
4.8560632391392371
 50
270.0
 51
304.38424729780792
  0
ARC
  5
6BA7
  8
0
 10
141.3043734816064
 20
-28.443270555099868
 30
0.0
 40
18.151494300200689
 50
252.4120463170683
 51
287.5879536829284
  0
ARC
  5
6BA8
  8
0
 10
149.53162020565929
 20
-41.738701616160959
 30
0.0
 40
4.8560632391392371
 50
235.61575270219211
 51
270.0
  0
LINE
  5
6BA9
  8
0
 10
150.8043788764036
 20
-46.59476485530061
 30
0.0
 11
152.27403398207969
 21
-45.746259084422633
 31
0.0
  0
LINE
  5
6BAA
  8
0
 10
258.30437348160677
 20
-37.594764855299701
 30
0.0
 11
258.80437348160677
 21
-38.094764855299701
 31
0.0
  0
LINE
  5
6BAB
  8
0
 10
273.80437348160677
 20
-38.094764855299701
 30
0.0
 11
274.30437348160689
 21
-37.594764855299701
 31
0.0
  0
LINE
  5
6BAC
  8
0
 10
258.80437348160677
 20
-35.094764855299701
 30
0.0
 11
258.30437348160677
 21
-35.594764855299701
 31
0.0
  0
LINE
  5
6BAD
  8
0
 10
274.30437348160689
 20
-35.594764855299701
 30
0.0
 11
273.80437348160677
 21
-35.094764855299701
 31
0.0
  0
LINE
  5
6BAE
  8
0
 10
272.30437348160677
 20
-44.594764855300667
 30
0.0
 11
272.30437348160677
 21
-40.594764855299701
 31
0.0
  0
LINE
  5
6BAF
  8
0
 10
260.30437348160677
 20
-40.594764855299701
 30
0.0
 11
260.30437348160677
 21
-44.594764855300667
 31
0.0
  0
ARC
  5
6BB0
  8
0
 10
271.95437348160681
 20
-39.794764855299753
 30
0.0
 40
0.8000000000000113
 50
180.0
 51
270.0
  0
ARC
  5
6BB1
  8
0
 10
260.65437348160691
 20
-39.794764855299753
 30
0.0
 40
0.8000000000000113
 50
270.0
 51
0.0
  0
ARC
  5
6BB2
  8
0
 10
271.95437348160681
 20
-38.894764855299769
 30
0.0
 40
0.8000000000000042
 50
90.0
 51
180.0
  0
ARC
  5
6BB3
  8
0
 10
260.65437348160691
 20
-38.894764855299769
 30
0.0
 40
0.8000000000000042
 50
0.0
 51
90.0
  0
LINE
  5
6BB4
  8
0
 10
271.15437348160691
 20
-39.794764855299753
 30
0.0
 11
271.15437348160691
 21
-38.894764855299769
 31
0.0
  0
LINE
  5
6BB5
  8
0
 10
261.45437348160681
 20
-38.894764855299769
 30
0.0
 11
261.45437348160681
 21
-39.794764855299753
 31
0.0
  0
LINE
  5
6BB6
  8
0
 10
265.05437348160677
 20
-37.094764855299701
 30
0.0
 11
265.05437348160677
 21
-35.094764855299701
 31
0.0
  0
LINE
  5
6BB7
  8
0
 10
267.55437348160677
 20
-35.094764855299701
 30
0.0
 11
267.55437348160677
 21
-37.094764855299701
 31
0.0
  0
LINE
  5
6BB8
  8
0
 10
267.55437348160677
 20
-37.094764855299701
 30
0.0
 11
265.05437348160677
 21
-37.094764855299701
 31
0.0
  0
LINE
  5
6BB9
  8
0
 10
272.30437348160677
 20
-40.594764855299722
 30
0.0
 11
260.30437348160677
 21
-40.594764855299701
 31
0.0
  0
LINE
  5
6BBA
  8
3
 10
261.11637348160679
 20
-44.594764855300667
 30
0.0
 11
261.11637348160679
 21
-40.594764855299722
 31
0.0
  0
LINE
  5
6BBB
  8
3
 10
271.49237348160682
 20
-44.594764855300667
 30
0.0
 11
271.49237348160682
 21
-40.594764855299758
 31
0.0
  0
LINE
  5
6BBC
  8
0
 10
173.80437348160629
 20
-97.605235144699407
 30
0.0
 11
208.80437348160629
 21
-97.605235144699407
 31
0.0
  0
LINE
  5
6BBD
  8
0
 10
173.80437348160629
 20
-109.60523514469941
 30
0.0
 11
208.80437348160629
 21
-109.60523514469941
 31
0.0
  0
LINE
  5
6BBE
  8
0
 10
183.30437348160629
 20
-101.10523514469941
 30
0.0
 11
199.30437348160621
 21
-101.10523514469941
 31
0.0
  0
LINE
  5
6BBF
  8
1
 10
191.30437348160629
 20
-94.605235144699407
 30
0.0
 11
191.30437348160629
 21
-112.60523514469941
 31
0.0
  0
LINE
  5
6BC0
  8
0
 10
199.30437348160629
 20
-98.105235144699421
 30
0.0
 11
199.30437348160629
 21
-101.10523514469941
 31
0.0
  0
LINE
  5
6BC1
  8
0
 10
183.30437348160629
 20
-98.105235144699421
 30
0.0
 11
183.30437348160629
 21
-101.10523514469941
 31
0.0
  0
LINE
  5
6BC2
  8
0
 10
183.30437348160629
 20
-98.105235144699421
 30
0.0
 11
182.80437348160629
 21
-97.605235144699407
 31
0.0
  0
LINE
  5
6BC3
  8
0
 10
199.30437348160629
 20
-98.105235144699577
 30
0.0
 11
199.80437348160621
 21
-97.605235144699591
 31
0.0
  0
LINE
  5
6BC4
  8
0
 10
183.30437348160629
 20
-98.105235144699421
 30
0.0
 11
199.30437348160629
 21
-98.105235144699421
 31
0.0
  0
LINE
  5
6BC5
  8
0
 10
196.49237348160631
 20
-108.10523514469941
 30
0.0
 11
196.49237348160631
 21
-102.60523514469929
 31
0.0
  0
LINE
  5
6BC6
  8
3
 10
185.30437348160621
 20
-108.9172351446994
 30
0.0
 11
185.30437348160621
 21
-101.79323514469939
 31
0.0
  0
LINE
  5
6BC7
  8
0
 10
186.1163734816063
 20
-108.10523514469941
 30
0.0
 11
186.1163734816063
 21
-102.60523514469941
 31
0.0
  0
LINE
  5
6BC8
  8
0
 10
184.6163734816063
 20
-101.10523514469941
 30
0.0
 11
186.1163734816063
 21
-102.60523514469941
 31
0.0
  0
LINE
  5
6BC9
  8
3
 10
197.30437348160629
 20
-108.9172351446995
 30
0.0
 11
197.30437348160629
 21
-101.7932351446993
 31
0.0
  0
LINE
  5
6BCA
  8
0
 10
196.49237348160631
 20
-108.10523514469941
 30
0.0
 11
186.1163734816063
 21
-108.10523514469941
 31
0.0
  0
LINE
  5
6BCB
  8
0
 10
196.49237348160631
 20
-102.60523514469929
 30
0.0
 11
186.1163734816063
 21
-102.60523514469929
 31
0.0
  0
LINE
  5
6BCC
  8
0
 10
123.8043734816064
 20
-97.605235144699407
 30
0.0
 11
158.8043734816064
 21
-97.605235144699407
 31
0.0
  0
LINE
  5
6BCD
  8
0
 10
123.8043734816064
 20
-109.60523514469941
 30
0.0
 11
135.30437348160629
 21
-109.60523514469929
 31
0.0
  0
LINE
  5
6BCE
  8
0
 10
147.3043734816064
 20
-109.60523514469941
 30
0.0
 11
158.8043734816064
 21
-109.60523514469941
 31
0.0
  0
LINE
  5
6BCF
  8
0
 10
133.30437348160629
 20
-101.10523514469941
 30
0.0
 11
149.3043734816064
 21
-101.10523514469941
 31
0.0
  0
LINE
  5
6BD0
  8
1
 10
141.3043734816064
 20
-94.605235144699407
 30
0.0
 11
141.3043734816064
 21
-116.10523514469941
 31
0.0
  0
LINE
  5
6BD1
  8
0
 10
149.3043734816064
 20
-98.105235144699421
 30
0.0
 11
149.3043734816064
 21
-101.10523514469941
 31
0.0
  0
LINE
  5
6BD2
  8
0
 10
133.30437348160629
 20
-98.105235144699421
 30
0.0
 11
133.30437348160629
 21
-101.10523514469941
 31
0.0
  0
LINE
  5
6BD3
  8
0
 10
133.30437348160629
 20
-98.105235144699421
 30
0.0
 11
132.8043734816064
 21
-97.605235144699407
 31
0.0
  0
LINE
  5
6BD4
  8
0
 10
149.3043734816064
 20
-98.105235144699577
 30
0.0
 11
149.80437348160621
 21
-97.605235144699591
 31
0.0
  0
LINE
  5
6BD5
  8
0
 10
133.30437348160629
 20
-98.105235144699421
 30
0.0
 11
149.3043734816064
 21
-98.105235144699421
 31
0.0
  0
LINE
  5
6BD6
  8
3
 10
146.49237348160631
 20
-112.9172351446994
 30
0.0
 11
146.49237348160631
 21
-103.60523514469941
 31
0.0
  0
LINE
  5
6BD7
  8
0
 10
135.30437348160629
 20
-112.10523514469941
 30
0.0
 11
135.30437348160629
 21
-103.60523514469941
 31
0.0
  0
LINE
  5
6BD8
  8
3
 10
136.11637348160639
 20
-112.9172351446994
 30
0.0
 11
136.11637348160639
 21
-103.60523514469941
 31
0.0
  0
LINE
  5
6BD9
  8
0
 10
147.3043734816064
 20
-112.10523514469941
 30
0.0
 11
147.3043734816064
 21
-103.60523514469941
 31
0.0
  0
LINE
  5
6BDA
  8
0
 10
146.49237348160631
 20
-102.60523514469929
 30
0.0
 11
146.1543734816064
 21
-102.60523514469929
 31
0.0
  0
LINE
  5
6BDB
  8
0
 10
136.4543734816063
 20
-102.60523514469941
 30
0.0
 11
136.11637348160639
 21
-102.60523514469941
 31
0.0
  0
LINE
  5
6BDC
  8
3
 10
147.3043734816064
 20
-103.60523514469941
 30
0.0
 11
147.3043734816064
 21
-101.7932351446993
 31
0.0
  0
LINE
  5
6BDD
  8
3
 10
135.30437348160629
 20
-103.60523514469941
 30
0.0
 11
135.30437348160629
 21
-101.79323514469939
 31
0.0
  0
LINE
  5
6BDE
  8
0
 10
136.11637348160639
 20
-103.45834769242759
 30
0.0
 11
136.11637348160639
 21
-102.60523514469941
 31
0.0
  0
LINE
  5
6BDF
  8
0
 10
146.49237348160639
 20
-103.45834769242759
 30
0.0
 11
146.49237348160639
 21
-102.60523514469929
 31
0.0
  0
LINE
  5
6BE0
  8
0
 10
298.80437348160672
 20
-97.605235144698554
 30
0.0
 11
333.80437348160672
 21
-97.605235144698554
 31
0.0
  0
LINE
  5
6BE1
  8
0
 10
308.30437348160677
 20
-101.1052351446985
 30
0.0
 11
324.30437348160672
 21
-101.1052351446985
 31
0.0
  0
LINE
  5
6BE2
  8
0
 10
321.49237348160682
 20
-102.6052351446985
 30
0.0
 11
322.99237348160682
 21
-101.1052351446985
 31
0.0
  0
LINE
  5
6BE3
  8
1
 10
316.30437348160672
 20
-94.605235144698554
 30
0.0
 11
316.30437348160672
 21
-128.2225000362136
 31
0.0
  0
LINE
  5
6BE4
  8
0
 10
324.30437348160672
 20
-98.105235144698554
 30
0.0
 11
324.30437348160672
 21
-101.1052351446985
 31
0.0
  0
LINE
  5
6BE5
  8
0
 10
308.30437348160672
 20
-98.105235144698554
 30
0.0
 11
308.30437348160672
 21
-101.1052351446985
 31
0.0
  0
LINE
  5
6BE6
  8
0
 10
308.30437348160672
 20
-98.105235144698554
 30
0.0
 11
307.80437348160672
 21
-97.605235144698554
 31
0.0
  0
LINE
  5
6BE7
  8
0
 10
324.30437348160672
 20
-98.105235144698725
 30
0.0
 11
324.80437348160672
 21
-97.605235144698725
 31
0.0
  0
LINE
  5
6BE8
  8
0
 10
308.30437348160672
 20
-98.105235144698554
 30
0.0
 11
324.30437348160672
 21
-98.105235144698554
 31
0.0
  0
LINE
  5
6BE9
  8
3
 10
322.3043734816066
 20
-101.7932351446987
 30
0.0
 11
322.3043734816066
 21
-114.1052351446985
 31
0.0
  0
LINE
  5
6BEA
  8
0
 10
321.49237348160682
 20
-102.6052351446985
 30
0.0
 11
321.49237348160682
 21
-122.1052351446985
 31
0.0
  0
LINE
  5
6BEB
  8
0
 10
311.11637348160679
 20
-102.6052351446987
 30
0.0
 11
311.11637348160679
 21
-122.1052351446985
 31
0.0
  0
LINE
  5
6BEC
  8
3
 10
310.3043734816066
 20
-101.7932351446985
 30
0.0
 11
310.3043734816066
 21
-114.1052351446985
 31
0.0
  0
LINE
  5
6BED
  8
0
 10
322.3043734816066
 20
-114.1052351446985
 30
0.0
 11
310.3043734816066
 21
-114.1052351446985
 31
0.0
  0
LINE
  5
6BEE
  8
0
 10
321.49237348160682
 20
-122.1052351446985
 30
0.0
 11
311.11637348160667
 21
-122.1052351446985
 31
0.0
  0
LINE
  5
6BEF
  8
0
 10
321.49237348160699
 20
-122.1052351446985
 30
0.0
 11
316.30437348160672
 21
-125.2225000362137
 31
0.0
  0
LINE
  5
6BF0
  8
0
 10
311.11637348160667
 20
-122.1052351446985
 30
0.0
 11
316.30437348160672
 21
-125.2225000362135
 31
0.0
  0
LINE
  5
6BF1
  8
3
 10
310.3043734816066
 20
-114.1052351446985
 30
0.0
 11
311.11637348160679
 21
-115.5116604004448
 31
0.0
  0
LINE
  5
6BF2
  8
3
 10
322.30437348160689
 20
-114.1052351446985
 30
0.0
 11
321.49237348160682
 21
-115.5116604004448
 31
0.0
  0
LINE
  5
6BF3
  8
0
 10
311.11637348160667
 20
-102.6052351446985
 30
0.0
 11
321.49237348160682
 21
-102.6052351446985
 31
0.0
  0
LINE
  5
6BF4
  8
0
 10
248.8043734816066
 20
-97.605235144698554
 30
0.0
 11
283.8043734816066
 21
-97.605235144698554
 31
0.0
  0
LINE
  5
6BF5
  8
0
 10
258.30437348160677
 20
-101.1052351446985
 30
0.0
 11
274.30437348160689
 21
-101.1052351446985
 31
0.0
  0
LINE
  5
6BF6
  8
1
 10
266.30437348160677
 20
-94.605235144698554
 30
0.0
 11
266.30437348160677
 21
-128.2225000362136
 31
0.0
  0
LINE
  5
6BF7
  8
0
 10
274.30437348160689
 20
-98.105235144698554
 30
0.0
 11
274.30437348160689
 21
-101.1052351446985
 31
0.0
  0
LINE
  5
6BF8
  8
0
 10
258.30437348160677
 20
-98.105235144698554
 30
0.0
 11
258.30437348160677
 21
-101.1052351446985
 31
0.0
  0
LINE
  5
6BF9
  8
0
 10
258.30437348160677
 20
-98.105235144698554
 30
0.0
 11
257.80437348160677
 21
-97.605235144698554
 31
0.0
  0
LINE
  5
6BFA
  8
0
 10
274.30437348160689
 20
-98.105235144698725
 30
0.0
 11
274.80437348160672
 21
-97.605235144698725
 31
0.0
  0
LINE
  5
6BFB
  8
0
 10
258.30437348160677
 20
-98.105235144698554
 30
0.0
 11
274.30437348160689
 21
-98.105235144698554
 31
0.0
  0
LINE
  5
6BFC
  8
3
 10
272.30437348160672
 20
-101.7932351446987
 30
0.0
 11
272.30437348160672
 21
-103.6052351446985
 31
0.0
  0
LINE
  5
6BFD
  8
3
 10
272.30437348160672
 20
-112.1052351446985
 30
0.0
 11
272.30437348160672
 21
-114.1052351446985
 31
0.0
  0
LINE
  5
6BFE
  8
0
 10
271.49237348160682
 20
-102.6052351446986
 30
0.0
 11
271.49237348160682
 21
-103.4583476924268
 31
0.0
  0
LINE
  5
6BFF
  8
0
 10
271.49237348160682
 20
-112.91723514469849
 30
0.0
 11
271.49237348160682
 21
-122.1052351446985
 31
0.0
  0
LINE
  5
6C00
  8
0
 10
261.11637348160679
 20
-102.6052351446986
 30
0.0
 11
261.11637348160679
 21
-103.4583476924268
 31
0.0
  0
LINE
  5
6C01
  8
0
 10
261.11637348160679
 20
-112.91723514469849
 30
0.0
 11
261.11637348160679
 21
-122.1052351446985
 31
0.0
  0
LINE
  5
6C02
  8
3
 10
260.30437348160672
 20
-101.7932351446986
 30
0.0
 11
260.30437348160672
 21
-103.6052351446985
 31
0.0
  0
LINE
  5
6C03
  8
3
 10
260.30437348160672
 20
-112.1052351446985
 30
0.0
 11
260.30437348160672
 21
-114.1052351446985
 31
0.0
  0
LINE
  5
6C04
  8
0
 10
272.30437348160672
 20
-114.1052351446985
 30
0.0
 11
260.30437348160672
 21
-114.1052351446985
 31
0.0
  0
LINE
  5
6C05
  8
0
 10
271.49237348160682
 20
-122.1052351446985
 30
0.0
 11
261.11637348160679
 21
-122.1052351446985
 31
0.0
  0
LINE
  5
6C06
  8
0
 10
271.49237348160699
 20
-122.1052351446985
 30
0.0
 11
266.30437348160677
 21
-125.2225000362137
 31
0.0
  0
LINE
  5
6C07
  8
0
 10
261.11637348160679
 20
-122.1052351446985
 30
0.0
 11
266.30437348160677
 21
-125.2225000362135
 31
0.0
  0
LINE
  5
6C08
  8
3
 10
260.30437348160672
 20
-114.1052351446985
 30
0.0
 11
261.11637348160679
 21
-115.5116604004448
 31
0.0
  0
LINE
  5
6C09
  8
3
 10
272.30437348160712
 20
-114.1052351446985
 30
0.0
 11
271.49237348160682
 21
-115.5116604004448
 31
0.0
  0
LINE
  5
6C0A
  8
0
 10
261.11637348160679
 20
-102.6052351446987
 30
0.0
 11
261.45437348160681
 21
-102.6052351446987
 31
0.0
  0
LINE
  5
6C0B
  8
0
 10
271.15437348160691
 20
-102.6052351446985
 30
0.0
 11
271.49237348160682
 21
-102.6052351446985
 31
0.0
  0
LINE
  5
6C0C
  8
0
 10
258.30437348160677
 20
-100.6052351446985
 30
0.0
 11
258.80437348160677
 21
-101.1052351446985
 31
0.0
  0
LINE
  5
6C0D
  8
0
 10
273.80437348160677
 20
-101.1052351446985
 30
0.0
 11
274.30437348160689
 21
-100.6052351446985
 31
0.0
  0
LINE
  5
6C0E
  8
0
 10
258.80437348160677
 20
-98.105235144698554
 30
0.0
 11
258.30437348160677
 21
-98.605235144698554
 31
0.0
  0
LINE
  5
6C0F
  8
0
 10
274.30437348160689
 20
-98.605235144698554
 30
0.0
 11
273.80437348160677
 21
-98.105235144698554
 31
0.0
  0
LINE
  5
6C10
  8
0
 10
272.30437348160677
 20
-112.1052351446985
 30
0.0
 11
272.30437348160677
 21
-103.6052351446985
 31
0.0
  0
LINE
  5
6C11
  8
0
 10
260.30437348160677
 20
-103.6052351446985
 30
0.0
 11
260.30437348160677
 21
-112.1052351446985
 31
0.0
  0
LINE
  5
6C12
  8
0
 10
260.30437348160677
 20
-112.1052351446985
 30
0.0
 11
261.30437348160677
 21
-113.1052351446985
 31
0.0
  0
LINE
  5
6C13
  8
0
 10
271.30437348160677
 20
-113.1052351446985
 30
0.0
 11
272.30437348160677
 21
-112.1052351446985
 31
0.0
  0
ARC
  5
6C14
  8
0
 10
271.95437348160681
 20
-102.8052351446986
 30
0.0
 40
0.8000000000000113
 50
180.0
 51
270.0
  0
ARC
  5
6C15
  8
0
 10
260.65437348160691
 20
-102.8052351446986
 30
0.0
 40
0.8000000000000113
 50
270.0
 51
0.0
  0
ARC
  5
6C16
  8
0
 10
271.95437348160681
 20
-101.90523514469859
 30
0.0
 40
0.8000000000000042
 50
90.0
 51
180.0
  0
ARC
  5
6C17
  8
0
 10
260.65437348160691
 20
-101.90523514469859
 30
0.0
 40
0.8000000000000042
 50
0.0
 51
90.0
  0
LINE
  5
6C18
  8
0
 10
271.15437348160691
 20
-102.8052351446986
 30
0.0
 11
271.15437348160691
 21
-101.90523514469859
 31
0.0
  0
LINE
  5
6C19
  8
0
 10
261.45437348160681
 20
-101.90523514469859
 30
0.0
 11
261.45437348160681
 21
-102.8052351446986
 31
0.0
  0
LINE
  5
6C1A
  8
0
 10
265.05437348160677
 20
-100.1052351446985
 30
0.0
 11
265.05437348160677
 21
-98.105235144698554
 31
0.0
  0
LINE
  5
6C1B
  8
0
 10
267.55437348160677
 20
-98.105235144698554
 30
0.0
 11
267.55437348160677
 21
-100.1052351446985
 31
0.0
  0
LINE
  5
6C1C
  8
0
 10
267.55437348160677
 20
-100.1052351446985
 30
0.0
 11
265.05437348160677
 21
-100.1052351446985
 31
0.0
  0
LINE
  5
6C1D
  8
0
 10
272.30437348160677
 20
-112.1052351446985
 30
0.0
 11
260.30437348160677
 21
-112.1052351446985
 31
0.0
  0
LINE
  5
6C1E
  8
0
 10
272.30437348160677
 20
-103.6052351446985
 30
0.0
 11
260.30437348160677
 21
-103.6052351446985
 31
0.0
  0
LINE
  5
6C1F
  8
0
 10
271.30437348160677
 20
-113.1052351446985
 30
0.0
 11
261.30437348160677
 21
-113.1052351446985
 31
0.0
  0
LINE
  5
6C20
  8
3
 10
261.11637348160679
 20
-112.91723514469859
 30
0.0
 11
261.11637348160679
 21
-103.6052351446985
 31
0.0
  0
LINE
  5
6C21
  8
3
 10
271.49237348160682
 20
-112.91723514469849
 30
0.0
 11
271.49237348160682
 21
-103.6052351446986
 31
0.0
  0
LINE
  5
6C22
  8
0
 10
197.99237348160619
 20
-101.10523514469929
 30
0.0
 11
196.49237348160631
 21
-102.60523514469929
 31
0.0
  0
LINE
  5
6C23
  8
0
 10
184.6163734816063
 20
-109.60523514469941
 30
0.0
 11
186.1163734816063
 21
-108.10523514469941
 31
0.0
  0
LINE
  5
6C24
  8
0
 10
197.99237348160619
 20
-109.60523514469941
 30
0.0
 11
196.49237348160631
 21
-108.10523514469941
 31
0.0
  0
LINE
  5
6C25
  8
0
 10
134.61637348160639
 20
-101.10523514469941
 30
0.0
 11
136.11637348160639
 21
-102.60523514469941
 31
0.0
  0
LINE
  5
6C26
  8
0
 10
147.99237348160631
 20
-101.10523514469929
 30
0.0
 11
146.49237348160631
 21
-102.60523514469929
 31
0.0
  0
LINE
  5
6C27
  8
0
 10
134.61637348160639
 20
-109.60523514469941
 30
0.0
 11
135.30437348160629
 21
-108.9172351446995
 31
0.0
  0
LINE
  5
6C28
  8
0
 10
147.99237348160631
 20
-109.60523514469941
 30
0.0
 11
147.3043734816064
 21
-108.9172351446995
 31
0.0
  0
LINE
  5
6C29
  8
0
 10
311.11637348160667
 20
-102.6052351446986
 30
0.0
 11
309.61637348160667
 21
-101.1052351446986
 31
0.0
  0
LINE
  5
6C2A
  8
0
 10
271.49237348160682
 20
-102.6052351446985
 30
0.0
 11
272.99237348160682
 21
-101.1052351446985
 31
0.0
  0
LINE
  5
6C2B
  8
0
 10
261.11637348160679
 20
-102.6052351446986
 30
0.0
 11
259.6163734816069
 21
-101.1052351446986
 31
0.0
  0
TEXT
  5
6C2C
  8
0
 62
     3
 10
0.0
 20
0.0
 30
0.0
 40
10.0
  1
QCMA0612A
  7
STANDARD1
  0
TEXT
  5
6CFA
  8
0
 62
     3
 10
116.3923734816064
 20
-26.59476485530055
 30
0.0
 40
3.2000000000000002
  1
For installation on plate of 6 mm thickness.
 41
0.85
 72
     1
 11
166.3043734816064
 21
-26.59476485530055
 31
0.0
  0
TEXT
  5
6CFB
  8
0
 62
     3
 10
240.71237348160651
 20
-26.59476485530055
 30
0.0
 40
3.2000000000000002
  1
For installation on plate of 10 mm thickness.
 41
0.85
 72
     1
 11
291.30437348160649
 21
-26.59476485530055
 31
0.0
  0
TEXT
  5
6CFC
  8
0
 62
     3
 10
257.75770681493981
 20
-89.60523514469935
 30
0.0
 40
3.2000000000000002
  1
For installation on block.
 72
     1
 11
291.30437348160649
 21
-89.60523514469935
 31
0.0
  0
TEXT
  5
6CFD
  8
0
 62
     3
 10
120.0883734816065
 20
-67.594764855300724
 30
0.0
 40
3.2000000000000002
  1
Installed condition
 41
0.85
 72
     1
 11
141.30437348160649
 21
-67.594764855300724
 31
0.0
  0
TEXT
  5
6CFE
  8
0
 62
     3
 10
172.58170681493979
 20
-67.594764855300724
 30
0.0
 40
3.2000000000000002
  1
Installation hole
 41
0.85
 72
     1
 11
191.30437348160649
 21
-67.594764855300724
 31
0.0
  0
TEXT
  5
6CFF
  8
0
 62
     3
 10
245.08837348160651
 20
-67.594764855300724
 30
0.0
 40
3.2000000000000002
  1
Installed condition
 41
0.85
 72
     1
 11
266.30437348160649
 21
-67.594764855300724
 31
0.0
  0
TEXT
  5
6D00
  8
0
 62
     3
 10
297.58170681493982
 20
-67.594764855300724
 30
0.0
 40
3.2000000000000002
  1
Installation hole
 41
0.85
 72
     1
 11
316.30437348160649
 21
-67.594764855300724
 31
0.0
  0
TEXT
  5
6D01
  8
0
 62
     3
 10
120.0883734816064
 20
-142.2225000362136
 30
0.0
 40
3.2000000000000002
  1
Installed condition
 41
0.85
 72
     1
 11
141.3043734816064
 21
-142.2225000362136
 31
0.0
  0
TEXT
  5
6D02
  8
0
 62
     3
 10
172.58170681493971
 20
-142.2225000362136
 30
0.0
 40
3.2000000000000002
  1
Installation hole
 41
0.85
 72
     1
 11
191.3043734816064
 21
-142.2225000362136
 31
0.0
  0
TEXT
  5
6D03
  8
0
 62
     3
 10
245.0883734816064
 20
-142.2225000362136
 30
0.0
 40
3.2000000000000002
  1
Installed condition
 41
0.85
 72
     1
 11
266.30437348160638
 21
-142.2225000362136
 31
0.0
  0
TEXT
  5
6D04
  8
0
 62
     3
 10
297.58170681493971
 20
-142.2225000362136
 30
0.0
 40
3.2000000000000002
  1
Installation hole
 41
0.85
 72
     1
 11
316.30437348160638
 21
-142.2225000362136
 31
0.0
  0
TEXT
  5
6D05
  8
0
 62
     3
 10
109.45637348160641
 20
-89.60523514469935
 30
0.0
 40
3.2000000000000002
  1
For installation on plate of over 10 mm thickness.
 41
0.85
 72
     1
 11
166.3043734816064
 21
-89.60523514469935
 31
0.0
  0
TEXT
  5
6D06
  8
0
 62
     3
 10
103.8043734816064
 20
-7.0
 30
0.0
 40
3.2000000000000002
  1
■Installation Instructions for Magnet-Lock Clamping Receptacles (see diagram below)
  0
ENDSEC
  0
EOF
