  0
SECTION
  2
HEADER
  9
$ACADVER
  1
AC1009
  9
$INSBASE
 10
0.0
 20
0.0
 30
0.0
  9
$EXTMIN
 10
0.0
 20
-2.960436562073669
 30
0.0
  9
$EXTMAX
 10
151.0
 20
181.61424235508159
 30
0.0
  9
$LIMMIN
 10
0.0
 20
0.0
  9
$LIMMAX
 10
770.0
 20
540.0
  9
$ORTHOMODE
 70
     1
  9
$REGENMODE
 70
     1
  9
$FILLMODE
 70
     1
  9
$QTEXTMODE
 70
     0
  9
$MIRRTEXT
 70
     0
  9
$DRAGMODE
 70
     2
  9
$LTSCALE
 40
5.0
  9
$OSMODE
 70
    37
  9
$ATTMODE
 70
     1
  9
$TEXTSIZE
 40
4.000000000000048
  9
$TRACEWID
 40
0.05
  9
$TEXTSTYLE
  7
STANDARD
  9
$CLAYER
  8
0
  9
$CELTYPE
  6
BYLAYER
  9
$CECOLOR
 62
   256
  9
$DIMSCALE
 40
2.0
  9
$DIMASZ
 40
3.0
  9
$DIMEXO
 40
2.0
  9
$DIMDLI
 40
0.38
  9
$DIMRND
 40
0.0
  9
$DIMDLE
 40
0.0
  9
$DIMEXE
 40
2.0
  9
$DIMTP
 40
0.0
  9
$DIMTM
 40
0.0
  9
$DIMTXT
 40
3.0
  9
$DIMCEN
 40
0.0
  9
$DIMTSZ
 40
0.0
  9
$DIMTOL
 70
     0
  9
$DIMLIM
 70
     0
  9
$DIMTIH
 70
     0
  9
$DIMTOH
 70
     0
  9
$DIMSE1
 70
     0
  9
$DIMSE2
 70
     0
  9
$DIMTAD
 70
     1
  9
$DIMZIN
 70
     0
  9
$DIMBLK
  1

  9
$DIMASO
 70
     0
  9
$DIMSHO
 70
     0
  9
$DIMPOST
  1

  9
$DIMAPOST
  1

  9
$DIMALT
 70
     0
  9
$DIMALTD
 70
     2
  9
$DIMALTF
 40
25.399999999999999
  9
$DIMLFAC
 40
1.0
  9
$DIMTOFL
 70
     0
  9
$DIMTVP
 40
1.6000000000000001
  9
$DIMTIX
 70
     1
  9
$DIMSOXD
 70
     0
  9
$DIMSAH
 70
     0
  9
$DIMBLK1
  1

  9
$DIMBLK2
  1

  9
$DIMSTYLE
  2
STANDARD
  9
$DIMCLRD
 70
     4
  9
$DIMCLRE
 70
     4
  9
$DIMCLRT
 70
     4
  9
$DIMTFAC
 40
1.0
  9
$DIMGAP
 40
0.09
  9
$LUNITS
 70
     2
  9
$LUPREC
 70
     1
  9
$SKETCHINC
 40
0.1
  9
$FILLETRAD
 40
0.0
  9
$AUNITS
 70
     0
  9
$AUPREC
 70
     0
  9
$MENU
  1
E:\r13\win\SUPPORT\ACAD
  9
$ELEVATION
 40
0.0
  9
$PELEVATION
 40
0.0
  9
$THICKNESS
 40
0.0
  9
$LIMCHECK
 70
     0
  9
$BLIPMODE
 70
     0
  9
$CHAMFERA
 40
1.1999999999999991
  9
$CHAMFERB
 40
1.1999999999999991
  9
$SKPOLY
 70
     0
  9
$TDCREATE
 40
2450158.583426042
  9
$TDUPDATE
 40
2457170.5815466209
  9
$TDINDWG
 40
0.3064770833
  9
$TDUSRTIMER
 40
0.3064770833
  9
$USRTIMER
 70
     1
  9
$ANGBASE
 50
0.0
  9
$ANGDIR
 70
     0
  9
$PDMODE
 70
     0
  9
$PDSIZE
 40
0.0
  9
$PLINEWID
 40
0.0
  9
$COORDS
 70
     1
  9
$SPLFRAME
 70
     0
  9
$SPLINETYPE
 70
     6
  9
$SPLINESEGS
 70
     8
  9
$ATTDIA
 70
     0
  9
$ATTREQ
 70
     1
  9
$HANDLING
 70
     1
  9
$HANDSEED
  5
2F0B
  9
$SURFTAB1
 70
     6
  9
$SURFTAB2
 70
     6
  9
$SURFTYPE
 70
     6
  9
$SURFU
 70
     6
  9
$SURFV
 70
     6
  9
$UCSNAME
  2

  9
$UCSORG
 10
0.0
 20
0.0
 30
0.0
  9
$UCSXDIR
 10
1.0
 20
0.0
 30
0.0
  9
$UCSYDIR
 10
0.0
 20
1.0
 30
0.0
  9
$PUCSNAME
  2

  9
$PUCSORG
 10
0.0
 20
0.0
 30
0.0
  9
$PUCSXDIR
 10
1.0
 20
0.0
 30
0.0
  9
$PUCSYDIR
 10
0.0
 20
1.0
 30
0.0
  9
$USERI1
 70
     3
  9
$USERI2
 70
     1
  9
$USERI3
 70
     0
  9
$USERI4
 70
     0
  9
$USERI5
 70
     0
  9
$USERR1
 40
2.0
  9
$USERR2
 40
3.0
  9
$USERR3
 40
3.0
  9
$USERR4
 40
3.0
  9
$USERR5
 40
10.0
  9
$WORLDVIEW
 70
     1
  9
$SHADEDGE
 70
     3
  9
$SHADEDIF
 70
    70
  9
$TILEMODE
 70
     1
  9
$MAXACTVP
 70
    16
  9
$PLIMCHECK
 70
     0
  9
$PEXTMIN
 10
1.0000000000000000E+020
 20
1.0000000000000000E+020
 30
1.0000000000000000E+020
  9
$PEXTMAX
 10
-1.0000000000000000E+020
 20
-1.0000000000000000E+020
 30
-1.0000000000000000E+020
  9
$PLIMMIN
 10
0.0
 20
0.0
  9
$PLIMMAX
 10
12.0
 20
9.0
  9
$UNITMODE
 70
     0
  9
$VISRETAIN
 70
     0
  9
$PLINEGEN
 70
     0
  9
$PSLTSCALE
 70
     0
  0
ENDSEC
  0
SECTION
  2
TABLES
  0
TABLE
  2
VPORT
 70
     1
  0
VPORT
  2
*ACTIVE
 70
     0
 10
0.0
 20
0.0
 11
1.0
 21
1.0
 12
245.19230769230771
 22
135.0
 13
0.0
 23
0.0
 14
10.0
 24
10.0
 15
10.0
 25
10.0
 16
0.0
 26
0.0
 36
1.0
 17
0.0
 27
0.0
 37
0.0
 40
270.0
 41
1.816239316239316
 42
50.0
 43
0.0
 44
0.0
 50
0.0
 51
0.0
 71
     0
 72
   500
 73
     1
 74
     0
 75
     0
 76
     0
 77
     0
 78
     2
  0
ENDTAB
  0
TABLE
  2
LTYPE
 70
     3
  0
LTYPE
  2
CONTINUOUS
 70
     0
  3
Solid Line
 72
    65
 73
     0
 40
0.0
  0
LTYPE
  2
CENTER
 70
     0
  3
____ _ ____ _ ____ _ ____ _ ____ _ ____ _ ____
 72
    65
 73
     4
 40
2.0
 49
1.25
 49
-0.25
 49
0.25
 49
-0.25
  0
LTYPE
  2
PHANTOM2
 70
     0
  3
___ _ _ ___ _ _ ___ _ _ ___ _ _
 72
    65
 73
     6
 40
1.25
 49
0.625
 49
-0.125
 49
0.125
 49
-0.125
 49
0.125
 49
-0.125
  0
ENDTAB
  0
TABLE
  2
LAYER
 70
     3
  0
LAYER
  2
0
 70
     0
 62
     7
  6
CONTINUOUS
  0
LAYER
  2
1
 70
     0
 62
     1
  6
CENTER
  0
LAYER
  2
3
 70
     0
 62
     3
  6
CONTINUOUS
  0
ENDTAB
  0
TABLE
  2
STYLE
 70
     2
  0
STYLE
  2
STANDARD
 70
     0
 40
0.0
 41
1.0
 50
0.0
 71
     0
 42
4.000000000000048
  3
SIMPLEX
  4
BIGFONT
  0
STYLE
  2
STANDARD1
 70
     0
 40
0.0
 41
1.0
 50
0.0
 71
     0
 42
3.0
  3
txt
  4

  0
ENDTAB
  0
TABLE
  2
VIEW
 70
     1
  0
VIEW
  2
ALL
 70
     0
 40
179.5384664489153
 10
146.94997169852391
 20
89.769233224457665
 41
0.0
 11
0.0
 21
0.0
 31
1.0
 12
0.0
 22
0.0
 32
0.0
 42
50.0
 43
0.0
 44
0.0
 50
0.0
 71
     0
  0
ENDTAB
  0
TABLE
  2
UCS
 70
     0
  0
ENDTAB
  0
TABLE
  2
APPID
 70
     4
  0
APPID
  2
ACAD
 70
     0
  0
APPID
  2
ACAD_MLEADERVER
 70
     0
  0
APPID
  2
ACAD_EXEMPT_FROM_CAD_STANDARDS
 70
     0
  0
APPID
  2
ACAD_NAV_VCDISPLAY
 70
     0
  0
ENDTAB
  0
TABLE
  2
DIMSTYLE
 70
     1
  0
DIMSTYLE
  2
STANDARD
 70
     0
  3

  4

  5

  6

  7

 40
1.0
 41
0.18
 42
0.0625
 43
0.38
 44
0.18
 45
0.0
 46
0.0
 47
0.0
 48
0.0
140
0.18
141
0.09
142
0.0
143
25.399999999999999
144
1.0
145
0.0
146
1.0
147
0.09
 71
     0
 72
     0
 73
     1
 74
     1
 75
     0
 76
     0
 77
     0
 78
     0
170
     0
171
     2
172
     0
173
     0
174
     0
175
     0
176
     0
177
     0
178
     0
  0
ENDTAB
  0
ENDSEC
  0
SECTION
  2
BLOCKS
  0
BLOCK
  8
0
  2
$MODEL_SPACE
 70
     0
 10
0.0
 20
0.0
 30
0.0
  3
$MODEL_SPACE
  1

  0
ENDBLK
  5
644
  8
0
  0
BLOCK
 67
     1
  8
0
  2
$PAPER_SPACE
 70
     0
 10
0.0
 20
0.0
 30
0.0
  3
$PAPER_SPACE
  1

  0
ENDBLK
  5
642
 67
     1
  8
0
  0
ENDSEC
  0
SECTION
  2
ENTITIES
  0
TEXT
  5
1099
  8
0
 62
     3
 10
0.0
 20
0.0
 30
0.0
 40
10.0
  1
QLCL-06X50-NP
  7
STANDARD1
  0
LINE
  5
1DEA
  8
0
 10
61.402915810895102
 20
120.3316092557816
 30
0.0
 11
61.402915810895102
 21
122.93160925578159
 31
0.0
  0
LINE
  5
1DEB
  8
0
 10
45.402915810895088
 20
122.93160925578159
 30
0.0
 11
45.402915810895088
 21
120.3316092557816
 31
0.0
  0
LINE
  5
1DEC
  8
0
 10
61.402915810895102
 20
122.93160925578159
 30
0.0
 11
61.202915810895099
 21
123.1316092557816
 31
0.0
  0
LINE
  5
1DED
  8
0
 10
45.602915810895077
 20
123.1316092557816
 30
0.0
 11
45.402915810895088
 21
122.93160925578159
 31
0.0
  0
LINE
  5
1DEE
  8
0
 10
45.402915810895088
 20
120.3316092557816
 30
0.0
 11
45.602915810895077
 21
120.1316092557816
 31
0.0
  0
LINE
  5
1DEF
  8
0
 10
61.202915810895099
 20
120.1316092557816
 30
0.0
 11
61.402915810895102
 21
120.3316092557816
 31
0.0
  0
POLYLINE
  5
1DF1
  8
0
 66
     1
 10
0.0
 20
0.0
 30
0.0
 70
   128
  0
VERTEX
  5
2D36
  8
0
 10
62.205647053195101
 20
126.3724592115816
 30
0.0
  0
VERTEX
  5
2D37
  8
0
 10
63.341044101595131
 20
127.3737604974816
 30
0.0
  0
VERTEX
  5
2D38
  8
0
 10
64.718510784095102
 20
128.36760809338159
 30
0.0
  0
VERTEX
  5
2D39
  8
0
 10
66.311980084595078
 20
129.29681223268159
 30
0.0
  0
VERTEX
  5
2D3A
  8
0
 10
68.067670205795096
 20
130.08235495588161
 30
0.0
  0
VERTEX
  5
2D3B
  8
0
 10
69.835219386395082
 20
130.6564299062816
 30
0.0
  0
VERTEX
  5
2D3C
  8
0
 10
71.58242001319509
 20
131.0324581429816
 30
0.0
  0
VERTEX
  5
2D3D
  8
0
 10
73.2863772102951
 20
131.22811901228161
 30
0.0
  0
VERTEX
  5
2D3E
  8
0
 10
74.928050083395092
 20
131.2602771345816
 30
0.0
  0
VERTEX
  5
2D3F
  8
0
 10
76.496816868795079
 20
131.1641792211816
 30
0.0
  0
VERTEX
  5
2D40
  8
0
 10
78.064224969495072
 20
131.0149069528816
 30
0.0
  0
VERTEX
  5
2D41
  8
0
 10
79.667947545895132
 20
130.8597463948816
 30
0.0
  0
VERTEX
  5
2D42
  8
0
 10
81.317714877595137
 20
130.70738736458159
 30
0.0
  0
VERTEX
  5
2D43
  8
0
 10
82.592107566295127
 20
130.59868263718161
 30
0.0
  0
VERTEX
  5
2D44
  8
0
 10
83.898794586495129
 20
130.48627307568159
 30
0.0
  0
VERTEX
  5
2D45
  8
0
 10
85.238974430195086
 20
130.36092222188159
 30
0.0
  0
VERTEX
  5
2D46
  8
0
 10
86.640140305495109
 20
130.27967009318149
 30
0.0
  0
VERTEX
  5
2D47
  8
0
 10
87.77645796229514
 20
130.37859739868159
 30
0.0
  0
VERTEX
  5
2D48
  8
0
 10
88.862624425195136
 20
130.70726130158161
 30
0.0
  0
VERTEX
  5
2D49
  8
0
 10
89.91430908409508
 20
131.11480035818161
 30
0.0
  0
VERTEX
  5
2D4A
  8
0
 10
90.948275144295067
 20
131.48918931678159
 30
0.0
  0
VERTEX
  5
2D4B
  8
0
 10
91.966192982595103
 20
131.8229805087816
 30
0.0
  0
VERTEX
  5
2D4C
  8
0
 10
93.157148933358044
 20
132.15219257101671
 30
0.0
  0
SEQEND
  5
2D4D
  8
0
  0
ARC
  5
1DF3
  8
0
 10
111.39933209156401
 20
137.5860333608926
 30
0.0
 40
6.0616252049439243
 50
306.89444606028673
 51
329.78714869837938
  0
LINE
  5
1DFE
  8
0
 10
52.402915810895088
 20
133.7084734407816
 30
0.0
 11
52.402915810895088
 21
132.55377290238161
 31
0.0
  0
LINE
  5
1DFF
  8
0
 10
52.402915810895088
 20
132.55377290238161
 30
0.0
 11
53.402915810895088
 21
131.97642263318161
 31
0.0
  0
LINE
  5
1E00
  8
0
 10
53.402915810895088
 20
131.97642263318161
 30
0.0
 11
54.402915810895102
 21
132.55377290238161
 31
0.0
  0
LINE
  5
1E01
  8
0
 10
54.402915810895102
 20
133.7084734407816
 30
0.0
 11
53.402915810895088
 21
134.2858237099816
 31
0.0
  0
LINE
  5
1E02
  8
0
 10
53.402915810895088
 20
134.2858237099816
 30
0.0
 11
52.402915810895088
 21
133.7084734407816
 31
0.0
  0
CIRCLE
  5
1E03
  8
0
 10
53.402915810895088
 20
133.13112317158161
 30
0.0
 40
2.0
  0
LINE
  5
1E04
  8
0
 10
54.402915810895102
 20
132.55377290238161
 30
0.0
 11
54.402915810895102
 21
133.7084734407816
 31
0.0
  0
LINE
  5
1E07
  8
0
 10
45.602915810895077
 20
123.1316092557816
 30
0.0
 11
61.202915810895099
 21
123.1316092557816
 31
0.0
  0
LINE
  5
1E08
  8
0
 10
61.202915810895099
 20
120.1316092557816
 30
0.0
 11
45.602915810895077
 21
120.1316092557816
 31
0.0
  0
CIRCLE
  5
1E09
  8
0
 10
53.402915810895088
 20
133.13112317158161
 30
0.0
 40
6.0000000000000133
  0
LINE
  5
1E0F
  8
0
 10
115.4532914281951
 20
136.73679727548159
 30
0.0
 11
54.187317495697883
 21
142.09687545439061
 31
0.0
  0
ARC
  5
1E10
  8
0
 10
115.32255781409511
 20
135.2425052282816
 30
0.0
 40
1.5000000000000699
 50
354.99999999890008
 51
84.999999998800348
  0
POLYLINE
  5
1E1E
  8
0
 66
     1
 10
0.0
 20
0.0
 30
0.0
 70
   128
  0
VERTEX
  5
2D4E
  8
0
 10
116.63755797359509
 20
134.53573997598161
 30
0.0
  0
VERTEX
  5
2D4F
  8
0
 10
116.74643166539509
 20
134.77071839858161
 30
0.0
  0
VERTEX
  5
2D50
  8
0
 10
116.8168498611951
 20
135.11177161418149
 30
0.0
  0
SEQEND
  5
2D51
  8
0
  0
LINE
  5
1E1F
  8
0
 10
61.815709291695107
 20
126.0263734583816
 30
0.0
 11
62.205647053195101
 21
126.3724592115816
 31
0.0
  0
POLYLINE
  5
1E21
  8
0
 66
     1
 10
0.0
 20
0.0
 30
0.0
 70
   128
  0
VERTEX
  5
2D52
  8
0
 10
93.157148933357874
 20
132.15219257101671
 30
0.0
  0
VERTEX
  5
2D53
  8
0
 10
95.513509647395097
 20
132.69174776858159
 30
0.0
  0
VERTEX
  5
2D54
  8
0
 10
98.099749684495137
 20
133.0498709906816
 30
0.0
  0
VERTEX
  5
2D55
  8
0
 10
100.0625577988951
 20
133.17003514388159
 30
0.0
  0
VERTEX
  5
2D56
  8
0
 10
102.0304446554951
 20
133.16300795688159
 30
0.0
  0
VERTEX
  5
2D57
  8
0
 10
103.9817131401951
 20
133.02933191838159
 30
0.0
  0
VERTEX
  5
2D58
  8
0
 10
105.9812924429951
 20
132.75573806478161
 30
0.0
  0
VERTEX
  5
2D59
  8
0
 10
107.3055895759951
 20
132.4909601219816
 30
0.0
  0
VERTEX
  5
2D5A
  8
0
 10
108.5216804986951
 20
132.1878884008816
 30
0.0
  0
VERTEX
  5
2D5B
  8
0
 10
109.60604509869501
 20
131.88729939068159
 30
0.0
  0
VERTEX
  5
2D5C
  8
0
 10
110.3713663252951
 20
131.7007521383816
 30
0.0
  0
VERTEX
  5
2D5D
  8
0
 10
111.1152280486951
 20
131.59207676778161
 30
0.0
  0
VERTEX
  5
2D5E
  8
0
 10
111.8447127908951
 20
131.59187776488159
 30
0.0
  0
VERTEX
  5
2D5F
  8
0
 10
112.54754213399509
 20
131.6830485488816
 30
0.0
  0
VERTEX
  5
2D60
  8
0
 10
113.2094230230951
 20
131.8409369167816
 30
0.0
  0
VERTEX
  5
2D61
  8
0
 10
113.82736479589499
 20
132.05841924348161
 30
0.0
  0
VERTEX
  5
2D62
  8
0
 10
114.9307707353951
 20
132.66119985038159
 30
0.0
  0
VERTEX
  5
2D63
  8
0
 10
115.038384566494
 20
132.73829190636789
 30
0.0
  0
SEQEND
  5
2D64
  8
0
  0
LINE
  5
1E2B
  8
0
 10
51.073544404895081
 20
141.82445560818149
 30
0.0
 11
54.18731749559511
 21
142.0968754543816
 31
0.0
  0
ARC
  5
1E2E
  8
0
 10
74.464413741795127
 20
113.2197237899816
 30
0.0
 40
18.000000000002281
 50
134.6444960759998
 51
142.05885547199989
  0
LINE
  5
1E2F
  8
0
 10
44.437163527995111
 20
133.91552485628159
 30
0.0
 11
45.246145727495119
 21
136.9346875272816
 31
0.0
  0
LINE
  5
1E32
  8
0
 10
57.902915810895088
 20
123.1316092557816
 30
0.0
 11
57.646969558295112
 21
123.1316092557816
 31
0.0
  0
ARC
  5
1E36
  8
0
 10
53.453410153295081
 20
131.79373618788159
 30
0.0
 40
9.2625423271211265
 50
166.7575600423001
 51
197.37781873209971
  0
ARC
  5
1E38
  8
0
 10
53.643590446995127
 20
132.95303879378159
 30
0.0
 40
9.8463931583031439
 50
203.4969448390994
 51
263.51436986740021
  0
ARC
  5
1E3A
  8
0
 10
53.402915810895088
 20
133.13112317158161
 30
0.0
 40
9.0
 50
104.9999999812996
 51
155.00000001869941
  0
ARC
  5
1E3B
  8
0
 10
57.902915810895088
 20
126.1316092557816
 30
0.0
 40
2.9999999999999138
 50
270.0
 51
322.05885547199989
  0
LINE
  5
1E3D
  8
0
 10
132.5
 20
135.13112317158161
 30
0.0
 11
131.5
 21
135.13112317158161
 31
0.0
  0
LINE
  5
1E3E
  8
0
 10
131.5
 20
131.13112317158161
 30
0.0
 11
132.5
 21
131.13112317158161
 31
0.0
  0
LINE
  5
1E3F
  8
0
 10
132.5
 20
120.3316092557816
 30
0.0
 11
132.69999999999999
 21
120.1316092557816
 31
0.0
  0
LINE
  5
1E40
  8
0
 10
148.30000000000001
 20
120.1316092557816
 30
0.0
 11
148.5
 21
120.3316092557816
 31
0.0
  0
LINE
  5
1E41
  8
0
 10
148.5
 20
120.3316092557816
 30
0.0
 11
148.5
 21
122.93160925578159
 31
0.0
  0
LINE
  5
1E42
  8
0
 10
132.5
 20
122.93160925578159
 30
0.0
 11
132.5
 21
120.3316092557816
 31
0.0
  0
LINE
  5
1E43
  8
0
 10
148.5
 20
122.93160925578159
 30
0.0
 11
148.30000000000001
 21
123.1316092557816
 31
0.0
  0
LINE
  5
1E44
  8
0
 10
132.69999999999999
 20
123.1316092557816
 30
0.0
 11
132.5
 21
122.93160925578159
 31
0.0
  0
LINE
  5
1E45
  8
0
 10
148.0
 20
127.13112317158151
 30
0.0
 11
148.5
 21
127.63112317158161
 31
0.0
  0
LINE
  5
1E46
  8
0
 10
148.5
 20
138.63112317158149
 30
0.0
 11
148.0
 21
139.13112317158161
 31
0.0
  0
LINE
  5
1E47
  8
0
 10
147.5
 20
127.13112317158151
 30
0.0
 11
148.0
 21
127.13112317158151
 31
0.0
  0
LINE
  5
1E48
  8
0
 10
133.0
 20
127.13112317158151
 30
0.0
 11
133.5
 21
127.13112317158151
 31
0.0
  0
LINE
  5
1E49
  8
0
 10
133.5
 20
139.13112317158161
 30
0.0
 11
133.0
 21
139.13112317158161
 31
0.0
  0
LINE
  5
1E4A
  8
0
 10
148.0
 20
139.13112317158161
 30
0.0
 11
147.5
 21
139.13112317158161
 31
0.0
  0
LINE
  5
1E4B
  8
0
 10
133.0
 20
139.13112317158161
 30
0.0
 11
132.5
 21
138.63112317158149
 31
0.0
  0
LINE
  5
1E4C
  8
0
 10
132.5
 20
127.63112317158161
 30
0.0
 11
133.0
 21
127.13112317158151
 31
0.0
  0
ARC
  5
1E4D
  8
0
 10
142.8254642533
 20
134.05519079398161
 30
0.0
 40
4.9603553833736624
 50
22.923626685100469
 51
49.849561477998819
  0
ARC
  5
1E4E
  8
0
 10
138.14627471239999
 20
134.07601642038159
 30
0.0
 40
4.926221387876967
 50
130.0553785096003
 51
157.17143332340041
  0
POLYLINE
  5
1E4F
  8
0
 66
     1
 10
0.0
 20
0.0
 30
0.0
 70
   128
  0
VERTEX
  5
2D65
  8
0
 10
133.48597435420001
 20
135.72183166898159
 30
0.0
  0
VERTEX
  5
2D66
  8
0
 10
133.6076296004
 20
135.16307869538161
 30
0.0
  0
VERTEX
  5
2D67
  8
0
 10
134.00975356239999
 20
134.43281191428159
 30
0.0
  0
VERTEX
  5
2D68
  8
0
 10
134.32164193579999
 20
133.8923530955816
 30
0.0
  0
VERTEX
  5
2D69
  8
0
 10
134.5455866099
 20
133.50442997358161
 30
0.0
  0
VERTEX
  5
2D6A
  8
0
 10
134.76771949389999
 20
133.1208592195816
 30
0.0
  0
VERTEX
  5
2D6B
  8
0
 10
135.04333170570001
 20
132.6590271103816
 30
0.0
  0
VERTEX
  5
2D6C
  8
0
 10
135.20664802920001
 20
132.41336561208161
 30
0.0
  0
VERTEX
  5
2D6D
  8
0
 10
135.423823906
 20
132.17181870228151
 30
0.0
  0
VERTEX
  5
2D6E
  8
0
 10
136.02535204439999
 20
131.76789477018161
 30
0.0
  0
VERTEX
  5
2D6F
  8
0
 10
136.3966895492
 20
131.6388442917816
 30
0.0
  0
VERTEX
  5
2D70
  8
0
 10
136.8493932303
 20
131.58042511448161
 30
0.0
  0
SEQEND
  5
2D71
  8
0
  0
POLYLINE
  5
1E50
  8
0
 66
     1
 10
0.0
 20
0.0
 30
0.0
 70
   128
  0
VERTEX
  5
2D72
  8
0
 10
144.16921825649999
 20
131.5866080952816
 30
0.0
  0
VERTEX
  5
2D73
  8
0
 10
144.98467154150001
 20
131.77143443428159
 30
0.0
  0
VERTEX
  5
2D74
  8
0
 10
145.57702385570011
 20
132.16391016088161
 30
0.0
  0
VERTEX
  5
2D75
  8
0
 10
145.95372054219999
 20
132.65001232638161
 30
0.0
  0
VERTEX
  5
2D76
  8
0
 10
146.2296948370001
 20
133.1148239636816
 30
0.0
  0
VERTEX
  5
2D77
  8
0
 10
146.40088062780001
 20
133.41072227338159
 30
0.0
  0
VERTEX
  5
2D78
  8
0
 10
146.5662362985
 20
133.69783866658159
 30
0.0
  0
VERTEX
  5
2D79
  8
0
 10
146.75672337550009
 20
134.02857682458159
 30
0.0
  0
VERTEX
  5
2D7A
  8
0
 10
147.1563763529
 20
134.72450396998161
 30
0.0
  0
VERTEX
  5
2D7B
  8
0
 10
147.39290625059999
 20
135.16860830748161
 30
0.0
  0
VERTEX
  5
2D7C
  8
0
 10
147.51402564579999
 20
135.72183166898159
 30
0.0
  0
SEQEND
  5
2D7D
  8
0
  0
POLYLINE
  5
1E51
  8
0
 66
     1
 10
0.0
 20
0.0
 30
0.0
 70
   128
  0
VERTEX
  5
2D7E
  8
0
 10
136.8493932303
 20
131.58042511448161
 30
0.0
  0
VERTEX
  5
2D7F
  8
0
 10
140.5
 20
131.58504612808159
 30
0.0
  0
VERTEX
  5
2D80
  8
0
 10
144.16921825649999
 20
131.5866080952816
 30
0.0
  0
SEQEND
  5
2D81
  8
0
  0
LINE
  5
1E54
  8
0
 10
131.5
 20
135.13112317158161
 30
0.0
 11
131.5
 21
131.13112317158161
 31
0.0
  0
LINE
  5
1E56
  8
0
 10
148.30000000000001
 20
120.1316092557816
 30
0.0
 11
132.69999999999999
 21
120.1316092557816
 31
0.0
  0
LINE
  5
1E58
  8
0
 10
132.69999999999999
 20
123.1316092557816
 30
0.0
 11
148.30000000000001
 21
123.1316092557816
 31
0.0
  0
LINE
  5
1E59
  8
0
 10
148.5
 20
138.63112317158149
 30
0.0
 11
148.5
 21
127.63112317158161
 31
0.0
  0
LINE
  5
1E5C
  8
0
 10
132.5
 20
127.63112317158161
 30
0.0
 11
132.5
 21
138.63112317158149
 31
0.0
  0
POLYLINE
  5
1E5D
  8
0
 66
     1
 10
0.0
 20
0.0
 30
0.0
 70
   128
  0
VERTEX
  5
2D82
  8
0
 10
147.5
 20
139.81818172258161
 30
0.0
  0
VERTEX
  5
2D83
  8
0
 10
147.44629287859999
 20
139.5579668101816
 30
0.0
  0
VERTEX
  5
2D84
  8
0
 10
147.28125219090009
 20
139.28123066568159
 30
0.0
  0
VERTEX
  5
2D85
  8
0
 10
146.98646305430009
 20
138.9931707270816
 30
0.0
  0
VERTEX
  5
2D86
  8
0
 10
146.58275604100001
 20
138.70148328648159
 30
0.0
  0
VERTEX
  5
2D87
  8
0
 10
146.2359403016001
 20
138.4074844838816
 30
0.0
  0
VERTEX
  5
2D88
  8
0
 10
146.04719523029999
 20
138.11150718698161
 30
0.0
  0
VERTEX
  5
2D89
  8
0
 10
146.0238853050725
 20
137.84665862385211
 30
0.0
  0
SEQEND
  5
2D8A
  8
0
  0
POLYLINE
  5
1E5E
  8
0
 66
     1
 10
0.0
 20
0.0
 30
0.0
 70
   128
  0
VERTEX
  5
2D8B
  8
0
 10
147.39341411464551
 20
135.98882974518159
 30
0.0
  0
VERTEX
  5
2D8C
  8
0
 10
147.45070929939999
 20
135.9068518880816
 30
0.0
  0
VERTEX
  5
2D8D
  8
0
 10
147.51402564579999
 20
135.72183166898159
 30
0.0
  0
SEQEND
  5
2D8E
  8
0
  0
POLYLINE
  5
1E5F
  8
0
 66
     1
 10
0.0
 20
0.0
 30
0.0
 70
   128
  0
VERTEX
  5
2D8F
  8
0
 10
140.5
 20
135.11177161418149
 30
0.0
  0
VERTEX
  5
2D90
  8
0
 10
141.36828670739999
 20
135.11649287198159
 30
0.0
  0
VERTEX
  5
2D91
  8
0
 10
142.18909893009999
 20
135.12948163298159
 30
0.0
  0
VERTEX
  5
2D92
  8
0
 10
142.95578625120001
 20
135.15024028108161
 30
0.0
  0
VERTEX
  5
2D93
  8
0
 10
143.66314244279999
 20
135.17735564908159
 30
0.0
  0
VERTEX
  5
2D94
  8
0
 10
144.3086723401
 20
135.20979792658159
 30
0.0
  0
VERTEX
  5
2D95
  8
0
 10
144.89926565580001
 20
135.2471137933816
 30
0.0
  0
VERTEX
  5
2D96
  8
0
 10
145.41844120729999
 20
135.2874929036816
 30
0.0
  0
VERTEX
  5
2D97
  8
0
 10
145.86959572559999
 20
135.3302490412816
 30
0.0
  0
VERTEX
  5
2D98
  8
0
 10
146.58557579629999
 20
135.42056221308161
 30
0.0
  0
VERTEX
  5
2D99
  8
0
 10
147.09407076580001
 20
135.51822703218161
 30
0.0
  0
VERTEX
  5
2D9A
  8
0
 10
147.40586427529999
 20
135.62287739688159
 30
0.0
  0
VERTEX
  5
2D9B
  8
0
 10
147.51402564579999
 20
135.72183166898159
 30
0.0
  0
SEQEND
  5
2D9C
  8
0
  0
ARC
  5
1E62
  8
0
 10
146.00284854629999
 20
139.81532229528159
 30
0.0
 40
1.497154184314246
 50
0.1094297549001674
 51
90.109013341099285
  0
POLYLINE
  5
1E64
  8
0
 66
     1
 10
0.0
 20
0.0
 30
0.0
 70
   128
  0
VERTEX
  5
2D9D
  8
0
 10
133.48597435420001
 20
135.72183166898159
 30
0.0
  0
VERTEX
  5
2D9E
  8
0
 10
133.59413572459999
 20
135.62287739688159
 30
0.0
  0
VERTEX
  5
2D9F
  8
0
 10
133.90592923400001
 20
135.51822703218161
 30
0.0
  0
VERTEX
  5
2DA0
  8
0
 10
134.4144242035
 20
135.42056221308161
 30
0.0
  0
VERTEX
  5
2DA1
  8
0
 10
135.13040427409999
 20
135.3302490412816
 30
0.0
  0
VERTEX
  5
2DA2
  8
0
 10
135.5815587925
 20
135.2874929036816
 30
0.0
  0
VERTEX
  5
2DA3
  8
0
 10
136.10073434399999
 20
135.2471137933816
 30
0.0
  0
VERTEX
  5
2DA4
  8
0
 10
136.69132765969999
 20
135.20979792658159
 30
0.0
  0
VERTEX
  5
2DA5
  8
0
 10
137.336857557
 20
135.17735564908159
 30
0.0
  0
VERTEX
  5
2DA6
  8
0
 10
138.0442137486001
 20
135.15024028108161
 30
0.0
  0
VERTEX
  5
2DA7
  8
0
 10
138.8109010698
 20
135.12948163298159
 30
0.0
  0
VERTEX
  5
2DA8
  8
0
 10
139.63171329260001
 20
135.11649287198159
 30
0.0
  0
VERTEX
  5
2DA9
  8
0
 10
140.5
 20
135.11177161418149
 30
0.0
  0
SEQEND
  5
2DAA
  8
0
  0
POLYLINE
  5
1E65
  8
0
 66
     1
 10
0.0
 20
0.0
 30
0.0
 70
   128
  0
VERTEX
  5
2DAB
  8
0
 10
133.5
 20
139.81818172258161
 30
0.0
  0
VERTEX
  5
2DAC
  8
0
 10
133.59363810310001
 20
139.47028480608159
 30
0.0
  0
VERTEX
  5
2DAD
  8
0
 10
133.86400058469999
 20
139.12402848088161
 30
0.0
  0
VERTEX
  5
2DAE
  8
0
 10
134.3040232620001
 20
138.78095117388159
 30
0.0
  0
VERTEX
  5
2DAF
  8
0
 10
134.73407199159999
 20
138.44122481098159
 30
0.0
  0
VERTEX
  5
2DB0
  8
0
 10
134.9599115070001
 20
138.10390708778161
 30
0.0
  0
VERTEX
  5
2DB1
  8
0
 10
134.97611469505671
 20
137.8466586238815
 30
0.0
  0
SEQEND
  5
2DB2
  8
0
  0
POLYLINE
  5
1E66
  8
0
 66
     1
 10
0.0
 20
0.0
 30
0.0
 70
   128
  0
VERTEX
  5
2DB3
  8
0
 10
133.60592509067391
 20
135.98726796710901
 30
0.0
  0
VERTEX
  5
2DB4
  8
0
 10
133.5335893049
 20
135.88283793628159
 30
0.0
  0
VERTEX
  5
2DB5
  8
0
 10
133.48597435420001
 20
135.72183166898159
 30
0.0
  0
SEQEND
  5
2DB6
  8
0
  0
ARC
  5
1E67
  8
0
 10
134.99715145370001
 20
139.81532229528159
 30
0.0
 40
1.4971541843143481
 50
89.890986658900687
 51
179.89057024509981
  0
ARC
  5
1E68
  8
0
 10
144.94058022390001
 20
129.37218038348161
 30
0.0
 40
11.49819946090693
 50
157.10237769749929
 51
185.7383626262997
  0
POLYLINE
  5
1E6D
  8
0
 66
     1
 10
0.0
 20
0.0
 30
0.0
 70
   128
  0
VERTEX
  5
2DB7
  8
0
 10
134.89155893809999
 20
126.03229627358159
 30
0.0
  0
VERTEX
  5
2DB8
  8
0
 10
134.93335348439999
 20
126.0286297208816
 30
0.0
  0
VERTEX
  5
2DB9
  8
0
 10
134.9752543945001
 20
126.0267020788816
 30
0.0
  0
SEQEND
  5
2DBA
  8
0
  0
POLYLINE
  5
1E6E
  8
0
 66
     1
 10
0.0
 20
0.0
 30
0.0
 70
   128
  0
VERTEX
  5
2DBB
  8
0
 10
134.71666569929999
 20
126.0676566282816
 30
0.0
  0
VERTEX
  5
2DBC
  8
0
 10
134.8033375638
 20
126.0459612170816
 30
0.0
  0
VERTEX
  5
2DBD
  8
0
 10
134.89155893809999
 20
126.03229627358159
 30
0.0
  0
SEQEND
  5
2DBE
  8
0
  0
POLYLINE
  5
1E6F
  8
0
 66
     1
 10
0.0
 20
0.0
 30
0.0
 70
   128
  0
VERTEX
  5
2DBF
  8
0
 10
134.63910933330001
 20
126.0941011658816
 30
0.0
  0
VERTEX
  5
2DC0
  8
0
 10
134.6776616153
 20
126.08013242148159
 30
0.0
  0
VERTEX
  5
2DC1
  8
0
 10
134.71666569929999
 20
126.0676566282816
 30
0.0
  0
SEQEND
  5
2DC2
  8
0
  0
POLYLINE
  5
1E70
  8
0
 66
     1
 10
0.0
 20
0.0
 30
0.0
 70
   128
  0
VERTEX
  5
2DC3
  8
0
 10
134.45134409319999
 20
126.1856537006816
 30
0.0
  0
VERTEX
  5
2DC4
  8
0
 10
134.5434231914
 20
126.1357777350816
 30
0.0
  0
VERTEX
  5
2DC5
  8
0
 10
134.63910933330001
 20
126.0941011658816
 30
0.0
  0
SEQEND
  5
2DC6
  8
0
  0
POLYLINE
  5
1E71
  8
0
 66
     1
 10
0.0
 20
0.0
 30
0.0
 70
   128
  0
VERTEX
  5
2DC7
  8
0
 10
134.34209631249999
 20
126.2586821765816
 30
0.0
  0
VERTEX
  5
2DC8
  8
0
 10
134.3958874978
 20
126.22072596388161
 30
0.0
  0
VERTEX
  5
2DC9
  8
0
 10
134.45134409319999
 20
126.1856537006816
 30
0.0
  0
SEQEND
  5
2DCA
  8
0
  0
ARC
  5
1E72
  8
0
 10
135.7132407485
 20
127.94280089928159
 30
0.0
 40
2.1717027735309711
 50
190.7915136066996
 51
230.8488494442995
  0
POLYLINE
  5
1E73
  8
0
 66
     1
 10
0.0
 20
0.0
 30
0.0
 70
   128
  0
VERTEX
  5
2DCB
  8
0
 10
133.5009643519
 20
128.14701187858159
 30
0.0
  0
VERTEX
  5
2DCC
  8
0
 10
133.52439513709999
 20
127.8413327296816
 30
0.0
  0
VERTEX
  5
2DCD
  8
0
 10
133.57994455150001
 20
127.53618034848159
 30
0.0
  0
SEQEND
  5
2DCE
  8
0
  0
POLYLINE
  5
1E74
  8
0
 66
     1
 10
0.0
 20
0.0
 30
0.0
 70
   128
  0
VERTEX
  5
2DCF
  8
0
 10
133.5
 20
128.22252174558159
 30
0.0
  0
VERTEX
  5
2DD0
  8
0
 10
133.50024712519999
 20
128.1847676591816
 30
0.0
  0
VERTEX
  5
2DD1
  8
0
 10
133.5009643519
 20
128.14701187858159
 30
0.0
  0
SEQEND
  5
2DD2
  8
0
  0
POLYLINE
  5
1E75
  8
0
 66
     1
 10
0.0
 20
0.0
 30
0.0
 70
   128
  0
VERTEX
  5
2DD3
  8
0
 10
147.4875643302
 20
127.94969006798161
 30
0.0
  0
VERTEX
  5
2DD4
  8
0
 10
147.45643853799999
 20
127.71404101598161
 30
0.0
  0
VERTEX
  5
2DD5
  8
0
 10
147.40621524299999
 20
127.4801894174816
 30
0.0
  0
SEQEND
  5
2DD6
  8
0
  0
POLYLINE
  5
1E76
  8
0
 66
     1
 10
0.0
 20
0.0
 30
0.0
 70
   128
  0
VERTEX
  5
2DD7
  8
0
 10
147.40621524299999
 20
127.4801894174816
 30
0.0
  0
VERTEX
  5
2DD8
  8
0
 10
147.3657997816
 20
127.33861900648159
 30
0.0
  0
VERTEX
  5
2DD9
  8
0
 10
147.3179750984001
 20
127.19923011278161
 30
0.0
  0
SEQEND
  5
2DDA
  8
0
  0
POLYLINE
  5
1E77
  8
0
 66
     1
 10
0.0
 20
0.0
 30
0.0
 70
   128
  0
VERTEX
  5
2DDB
  8
0
 10
147.31698789640001
 20
127.1965898904816
 30
0.0
  0
VERTEX
  5
2DDC
  8
0
 10
147.240372552
 20
127.0130798596816
 30
0.0
  0
VERTEX
  5
2DDD
  8
0
 10
147.1498474343
 20
126.8362105087816
 30
0.0
  0
SEQEND
  5
2DDE
  8
0
  0
POLYLINE
  5
1E78
  8
0
 66
     1
 10
0.0
 20
0.0
 30
0.0
 70
   128
  0
VERTEX
  5
2DDF
  8
0
 10
147.1498474343
 20
126.8362105087816
 30
0.0
  0
VERTEX
  5
2DE0
  8
0
 10
147.1420690283
 20
126.8225500719816
 30
0.0
  0
VERTEX
  5
2DE1
  8
0
 10
147.13419948360001
 20
126.8089457037816
 30
0.0
  0
SEQEND
  5
2DE2
  8
0
  0
ARC
  5
1E79
  8
0
 10
145.7539511322
 20
127.5260387221816
 30
0.0
 40
1.555412456039255
 50
293.12373803880081
 51
332.5463581042988
  0
POLYLINE
  5
1E7A
  8
0
 66
     1
 10
0.0
 20
0.0
 30
0.0
 70
   128
  0
VERTEX
  5
2DE3
  8
0
 10
146.3647898677001
 20
126.0955898597816
 30
0.0
  0
VERTEX
  5
2DE4
  8
0
 10
146.3136731173
 20
126.07723081108161
 30
0.0
  0
VERTEX
  5
2DE5
  8
0
 10
146.26177695850001
 20
126.0615207810816
 30
0.0
  0
SEQEND
  5
2DE6
  8
0
  0
POLYLINE
  5
1E7B
  8
0
 66
     1
 10
0.0
 20
0.0
 30
0.0
 70
   128
  0
VERTEX
  5
2DE7
  8
0
 10
146.26177695850001
 20
126.0615207810816
 30
0.0
  0
VERTEX
  5
2DE8
  8
0
 10
146.1900082022
 20
126.0446915050816
 30
0.0
  0
VERTEX
  5
2DE9
  8
0
 10
146.11722336810001
 20
126.0333218335816
 30
0.0
  0
SEQEND
  5
2DEA
  8
0
  0
POLYLINE
  5
1E7C
  8
0
 66
     1
 10
0.0
 20
0.0
 30
0.0
 70
   128
  0
VERTEX
  5
2DEB
  8
0
 10
146.11722336810001
 20
126.0333218335816
 30
0.0
  0
VERTEX
  5
2DEC
  8
0
 10
146.07318197710001
 20
126.02910122458159
 30
0.0
  0
VERTEX
  5
2DED
  8
0
 10
146.0290083065
 20
126.0268215546816
 30
0.0
  0
SEQEND
  5
2DEE
  8
0
  0
POLYLINE
  5
1E7D
  8
0
 66
     1
 10
0.0
 20
0.0
 30
0.0
 70
   128
  0
VERTEX
  5
2DEF
  8
0
 10
146.0290083065
 20
126.0268215546816
 30
0.0
  0
VERTEX
  5
2DF0
  8
0
 10
146.0253025312
 20
126.0267181966816
 30
0.0
  0
VERTEX
  5
2DF1
  8
0
 10
146.02159650620001
 20
126.0266283685816
 30
0.0
  0
SEQEND
  5
2DF2
  8
0
  0
POLYLINE
  5
1E7E
  8
0
 66
     1
 10
0.0
 20
0.0
 30
0.0
 70
   128
  0
VERTEX
  5
2DF3
  8
0
 10
146.02159650620001
 20
126.0266283685816
 30
0.0
  0
VERTEX
  5
2DF4
  8
0
 10
146.01072120890001
 20
126.0264428081816
 30
0.0
  0
VERTEX
  5
2DF5
  8
0
 10
145.99984554400001
 20
126.0263734583816
 30
0.0
  0
SEQEND
  5
2DF6
  8
0
  0
ARC
  5
1E82
  8
0
 10
136.4169848935
 20
129.4312201811816
 30
0.0
 40
11.14872978235204
 50
353.77599868850018
 51
23.34321952830004
  0
POLYLINE
  5
1E83
  8
0
 66
     1
 10
0.0
 20
0.0
 30
0.0
 70
   128
  0
VERTEX
  5
2DF7
  8
0
 10
147.5
 20
128.22252174558159
 30
0.0
  0
VERTEX
  5
2DF8
  8
0
 10
147.49689006560001
 20
128.08611984398161
 30
0.0
  0
VERTEX
  5
2DF9
  8
0
 10
147.4875643302
 20
127.94969006798161
 30
0.0
  0
SEQEND
  5
2DFA
  8
0
  0
LINE
  5
1E86
  8
0
 10
135.00015445599999
 20
126.0263734584816
 30
0.0
 11
145.99984555968271
 21
126.0263734584816
 31
0.0
  0
LINE
  5
1E87
  8
0
 10
143.75
 20
142.0968754543816
 30
0.0
 11
147.0
 21
142.0968754543816
 31
0.0
  0
ARC
  5
1E88
  8
0
 10
144.2193805787
 20
144.61213830798161
 30
0.0
 40
3.7494521718037861
 50
298.35291885230089
 51
317.86847517030031
  0
ARC
  5
1E89
  8
0
 10
132.2193805787
 20
138.7972109161816
 30
0.0
 40
3.7494521717990801
 50
42.131524829699728
 51
61.647081147699041
  0
LINE
  5
1E8A
  8
0
 10
134.0
 20
142.0968754543816
 30
0.0
 11
137.25
 21
142.0968754543816
 31
0.0
  0
LINE
  5
1E8B
  8
0
 10
137.25
 20
141.44320738378161
 30
0.0
 11
137.25
 21
142.0968754543816
 31
0.0
  0
ARC
  5
1E8C
  8
0
 10
138.37784854629999
 20
145.71316644738161
 30
0.0
 40
4.4164004288778349
 50
255.20405517679961
 51
274.83380603579809
  0
LINE
  5
1E8D
  8
0
 10
142.25
 20
141.31247376968159
 30
0.0
 11
138.75
 21
141.31247376968159
 31
0.0
  0
ARC
  5
1E8E
  8
0
 10
142.62215145370001
 20
145.71316644738161
 30
0.0
 40
4.416400428877794
 50
265.1661939641985
 51
284.79594482319862
  0
LINE
  5
1E8F
  8
0
 10
143.75
 20
141.44320738378161
 30
0.0
 11
143.75
 21
142.0968754543816
 31
0.0
  0
POLYLINE
  5
1E90
  8
0
 66
     1
 10
0.0
 20
0.0
 30
0.0
 70
   128
  0
VERTEX
  5
2DFB
  8
0
 10
140.5
 20
136.75496901928159
 30
0.0
  0
VERTEX
  5
2DFC
  8
0
 10
139.8497362877001
 20
136.7584645652816
 30
0.0
  0
VERTEX
  5
2DFD
  8
0
 10
139.2093299105
 20
136.7688982144816
 30
0.0
  0
VERTEX
  5
2DFE
  8
0
 10
138.58848877610001
 20
136.78611180348159
 30
0.0
  0
VERTEX
  5
2DFF
  8
0
 10
137.99662420350001
 20
136.80984439158149
 30
0.0
  0
VERTEX
  5
2E00
  8
0
 10
137.44270825609999
 20
136.83973621708159
 30
0.0
  0
VERTEX
  5
2E01
  8
0
 10
136.9351377351
 20
136.8753341503816
 30
0.0
  0
VERTEX
  5
2E02
  8
0
 10
136.48160689230011
 20
136.91609856308159
 30
0.0
  0
VERTEX
  5
2E03
  8
0
 10
136.08899079279999
 20
136.96141150818161
 30
0.0
  0
VERTEX
  5
2E04
  8
0
 10
135.76324109660001
 20
137.01058608768159
 30
0.0
  0
VERTEX
  5
2E05
  8
0
 10
135.50929583690001
 20
137.06287686508159
 30
0.0
  0
VERTEX
  5
2E06
  8
0
 10
135.33100456509999
 20
137.1174911654816
 30
0.0
  0
VERTEX
  5
2E07
  8
0
 10
135.23106999519999
 20
137.17360109188161
 30
0.0
  0
VERTEX
  5
2E08
  8
0
 10
135.2110070332001
 20
137.23035607478161
 30
0.0
  0
VERTEX
  5
2E09
  8
0
 10
135.27111981339999
 20
137.28689576658161
 30
0.0
  0
VERTEX
  5
2E0A
  8
0
 10
135.4104970871
 20
137.3423630831816
 30
0.0
  0
VERTEX
  5
2E0B
  8
0
 10
135.62702603709999
 20
137.39591719668161
 30
0.0
  0
VERTEX
  5
2E0C
  8
0
 10
135.917424305
 20
137.44674628118159
 30
0.0
  0
VERTEX
  5
2E0D
  8
0
 10
136.2772897493
 20
137.49407981968159
 30
0.0
  0
VERTEX
  5
2E0E
  8
0
 10
136.70116717659999
 20
137.53720028398149
 30
0.0
  0
VERTEX
  5
2E0F
  8
0
 10
137.1826310372
 20
137.57545401168159
 30
0.0
  0
VERTEX
  5
2E10
  8
0
 10
137.7143828298
 20
137.60826111538159
 30
0.0
  0
VERTEX
  5
2E11
  8
0
 10
138.28836173910011
 20
137.63512427278161
 30
0.0
  0
VERTEX
  5
2E12
  8
0
 10
138.89586682999999
 20
137.6556362657816
 30
0.0
  0
VERTEX
  5
2E13
  8
0
 10
139.5276889447
 20
137.66948615348161
 30
0.0
  0
VERTEX
  5
2E14
  8
0
 10
140.17425030379999
 20
137.6764639857816
 30
0.0
  0
VERTEX
  5
2E15
  8
0
 10
140.82574969620001
 20
137.6764639857816
 30
0.0
  0
VERTEX
  5
2E16
  8
0
 10
141.4723110553
 20
137.66948615348161
 30
0.0
  0
VERTEX
  5
2E17
  8
0
 10
142.1041331700001
 20
137.6556362657816
 30
0.0
  0
VERTEX
  5
2E18
  8
0
 10
142.7116382609
 20
137.63512427278161
 30
0.0
  0
VERTEX
  5
2E19
  8
0
 10
143.2856171702
 20
137.60826111538159
 30
0.0
  0
VERTEX
  5
2E1A
  8
0
 10
143.8173689628
 20
137.57545401168159
 30
0.0
  0
VERTEX
  5
2E1B
  8
0
 10
144.29883282329999
 20
137.53720028398149
 30
0.0
  0
VERTEX
  5
2E1C
  8
0
 10
144.7227102507
 20
137.49407981968159
 30
0.0
  0
VERTEX
  5
2E1D
  8
0
 10
145.082575695
 20
137.44674628118159
 30
0.0
  0
VERTEX
  5
2E1E
  8
0
 10
145.37297396290001
 20
137.39591719668161
 30
0.0
  0
VERTEX
  5
2E1F
  8
0
 10
145.5895029129
 20
137.3423630831816
 30
0.0
  0
VERTEX
  5
2E20
  8
0
 10
145.72888018660001
 20
137.28689576658161
 30
0.0
  0
VERTEX
  5
2E21
  8
0
 10
145.78899296669999
 20
137.23035607478161
 30
0.0
  0
VERTEX
  5
2E22
  8
0
 10
145.76893000480001
 20
137.17360109188161
 30
0.0
  0
VERTEX
  5
2E23
  8
0
 10
145.6689954348
 20
137.1174911654816
 30
0.0
  0
VERTEX
  5
2E24
  8
0
 10
145.49070416309999
 20
137.06287686508159
 30
0.0
  0
VERTEX
  5
2E25
  8
0
 10
145.23675890339999
 20
137.01058608768159
 30
0.0
  0
VERTEX
  5
2E26
  8
0
 10
144.91100920720001
 20
136.96141150818161
 30
0.0
  0
VERTEX
  5
2E27
  8
0
 10
144.51839310770001
 20
136.91609856308159
 30
0.0
  0
VERTEX
  5
2E28
  8
0
 10
144.0648622649
 20
136.8753341503816
 30
0.0
  0
VERTEX
  5
2E29
  8
0
 10
143.55729174390001
 20
136.83973621708159
 30
0.0
  0
VERTEX
  5
2E2A
  8
0
 10
143.00337579649999
 20
136.80984439158149
 30
0.0
  0
VERTEX
  5
2E2B
  8
0
 10
142.41151122380001
 20
136.78611180348159
 30
0.0
  0
VERTEX
  5
2E2C
  8
0
 10
141.7906700895
 20
136.7688982144816
 30
0.0
  0
VERTEX
  5
2E2D
  8
0
 10
141.15026371229999
 20
136.7584645652816
 30
0.0
  0
VERTEX
  5
2E2E
  8
0
 10
140.5
 20
136.75496901928159
 30
0.0
  0
SEQEND
  5
2E2F
  8
0
  0
LINE
  5
1E91
  8
0
 10
147.5
 20
130.63991861710161
 30
0.0
 11
147.5
 21
135.65776831311791
 31
0.0
  0
LINE
  5
1E93
  8
0
 10
133.5
 20
130.5218390212124
 30
0.0
 11
133.5
 21
135.65741298140159
 31
0.0
  0
LINE
  5
1E95
  8
0
 10
133.5
 20
135.76925830375771
 30
0.0
 11
133.5
 21
141.5949307130816
 31
0.0
  0
ARC
  5
1E96
  8
0
 10
134.00118676669999
 20
141.59568951838159
 30
0.0
 40
0.5011873410774075
 50
90.135671391898498
 51
180.08674672239999
  0
ARC
  5
1E97
  8
0
 10
146.99881323330001
 20
141.59568951838159
 30
0.0
 40
0.5011873410778917
 50
359.91325327760001
 51
89.86432860800052
  0
LINE
  5
1E98
  8
0
 10
147.5
 20
141.5949307130816
 30
0.0
 11
147.5
 21
135.7628167890411
 31
0.0
  0
ARC
  5
1E99
  8
0
 10
138.8618775068
 20
124.4172051031815
 30
0.0
 40
1.6130528114475391
 50
93.977091980699612
 51
184.6280029160996
  0
LINE
  5
1E9A
  8
0
 10
137.25
 20
124.13810578838159
 30
0.0
 11
137.25408395279999
 21
124.2870541892816
 31
0.0
  0
LINE
  5
1E9B
  8
0
 10
143.74591604720001
 20
124.2870541892816
 30
0.0
 11
143.75
 21
124.13810578838159
 31
0.0
  0
ARC
  5
1E9C
  8
0
 10
142.13715945210001
 20
124.4163768315816
 30
0.0
 40
1.6139461354422591
 50
355.40406373759947
 51
85.990841365599891
  0
LINE
  5
1E9F
  8
0
 10
133.5
 20
124.59448003368161
 30
0.0
 11
133.5
 21
128.22252174558159
 31
0.0
  0
LINE
  5
1EA2
  8
0
 10
147.5
 20
128.22252174558159
 30
0.0
 11
147.5
 21
124.59448003368161
 31
0.0
  0
ARC
  5
1EA5
  8
0
 10
147.0
 20
123.6316092557816
 30
0.0
 40
0.5000000000000285
 50
270.0
 51
0.0
  0
LINE
  5
1EA7
  8
0
 10
147.5
 20
124.59448003368161
 30
0.0
 11
147.5
 21
123.6316092557816
 31
0.0
  0
ARC
  5
1EA9
  8
0
 10
134.0
 20
123.6316092557816
 30
0.0
 40
0.5
 50
180.0
 51
270.0
  0
LINE
  5
1EAA
  8
0
 10
133.5
 20
123.6316092557816
 30
0.0
 11
133.5
 21
124.59448003368161
 31
0.0
  0
LINE
  5
1EAB
  8
0
 10
146.8710281745
 20
123.1316092557816
 30
0.0
 11
147.0
 21
123.1316092557816
 31
0.0
  0
LINE
  5
1EAC
  8
0
 10
143.75
 20
123.1316092557816
 30
0.0
 11
143.75
 21
124.13810578838159
 31
0.0
  0
LINE
  5
1EAD
  8
0
 10
134.0
 20
123.1316092557816
 30
0.0
 11
134.1289718255
 21
123.1316092557816
 31
0.0
  0
LINE
  5
1EAE
  8
0
 10
137.25
 20
123.1316092557816
 30
0.0
 11
137.25
 21
124.13810578838159
 31
0.0
  0
LINE
  5
1EB2
  8
0
 10
28.500000000000011
 20
131.13112317158161
 30
0.0
 11
29.500000000000011
 21
131.13112317158161
 31
0.0
  0
LINE
  5
1EB3
  8
0
 10
29.500000000000011
 20
135.13112317158161
 30
0.0
 11
28.500000000000011
 21
135.13112317158161
 31
0.0
  0
LINE
  5
1EB4
  8
0
 10
12.500000000000011
 20
120.3316092557816
 30
0.0
 11
12.699999999999999
 21
120.1316092557816
 31
0.0
  0
LINE
  5
1EB5
  8
0
 10
28.300000000000029
 20
120.1316092557816
 30
0.0
 11
28.500000000000011
 21
120.3316092557816
 31
0.0
  0
LINE
  5
1EB6
  8
0
 10
28.500000000000011
 20
120.3316092557816
 30
0.0
 11
28.500000000000011
 21
122.93160925578159
 31
0.0
  0
LINE
  5
1EB7
  8
0
 10
12.500000000000011
 20
122.93160925578159
 30
0.0
 11
12.500000000000011
 21
120.3316092557816
 31
0.0
  0
LINE
  5
1EB8
  8
0
 10
28.500000000000011
 20
122.93160925578159
 30
0.0
 11
28.300000000000029
 21
123.1316092557816
 31
0.0
  0
LINE
  5
1EB9
  8
0
 10
12.699999999999999
 20
123.1316092557816
 30
0.0
 11
12.500000000000011
 21
122.93160925578159
 31
0.0
  0
LINE
  5
1EBA
  8
0
 10
28.000000000000021
 20
127.13112317158161
 30
0.0
 11
28.500000000000011
 21
127.63112317158161
 31
0.0
  0
LINE
  5
1EBB
  8
0
 10
28.500000000000011
 20
138.63112317158161
 30
0.0
 11
28.000000000000021
 21
139.13112317158161
 31
0.0
  0
LINE
  5
1EBC
  8
0
 10
13.500000000000011
 20
139.13112317158161
 30
0.0
 11
13.000000000000011
 21
139.13112317158161
 31
0.0
  0
LINE
  5
1EBD
  8
0
 10
28.000000000000021
 20
139.13112317158161
 30
0.0
 11
27.500000000000021
 21
139.13112317158161
 31
0.0
  0
LINE
  5
1EBE
  8
0
 10
27.500000000000021
 20
127.13112317158161
 30
0.0
 11
28.000000000000021
 21
127.13112317158161
 31
0.0
  0
LINE
  5
1EBF
  8
0
 10
13.000000000000011
 20
127.13112317158161
 30
0.0
 11
13.500000000000011
 21
127.13112317158161
 31
0.0
  0
LINE
  5
1EC0
  8
0
 10
13.000000000000011
 20
139.13112317158161
 30
0.0
 11
12.500000000000011
 21
138.63112317158161
 31
0.0
  0
LINE
  5
1EC1
  8
0
 10
12.500000000000011
 20
127.63112317158161
 30
0.0
 11
13.000000000000011
 21
127.13112317158161
 31
0.0
  0
LINE
  5
1EC2
  8
0
 10
29.500000000000011
 20
131.13112317158161
 30
0.0
 11
29.500000000000011
 21
135.13112317158161
 31
0.0
  0
LINE
  5
1EC6
  8
0
 10
28.300000000000029
 20
120.1316092557816
 30
0.0
 11
12.699999999999999
 21
120.1316092557816
 31
0.0
  0
LINE
  5
1EC9
  8
0
 10
12.699999999999999
 20
123.1316092557816
 30
0.0
 11
28.300000000000029
 21
123.1316092557816
 31
0.0
  0
LINE
  5
1ECD
  8
0
 10
28.500000000000011
 20
138.63112317158149
 30
0.0
 11
28.500000000000011
 21
127.63112317158161
 31
0.0
  0
LINE
  5
1ED4
  8
0
 10
12.500000000000011
 20
127.63112317158161
 30
0.0
 11
12.500000000000011
 21
138.63112317158161
 31
0.0
  0
LINE
  5
1EE5
  8
0
 10
13.500000000000011
 20
123.6679777673816
 30
0.0
 11
13.500000000000011
 21
141.594930742044
 31
0.0
  0
LINE
  5
1EE8
  8
0
 10
27.500000000000021
 20
141.5949306758186
 30
0.0
 11
27.500000000000021
 21
123.6679777673816
 31
0.0
  0
LINE
  5
1EEA
  8
0
 10
17.250000000000011
 20
142.0968754543816
 30
0.0
 11
17.250000000000011
 21
123.1316092557816
 31
0.0
  0
LINE
  5
1EEC
  8
0
 10
23.750000000000011
 20
142.0968754543816
 30
0.0
 11
23.750000000000011
 21
123.1316092557816
 31
0.0
  0
ARC
  5
1F02
  8
0
 10
14.00118676670003
 20
141.59568951838159
 30
0.0
 40
0.5011873410779345
 50
90.135671391999438
 51
180.08674672239999
  0
ARC
  5
1F05
  8
0
 10
26.998813233400039
 20
141.59568951838159
 30
0.0
 40
0.5011873410781403
 50
359.91325327760001
 51
89.86432860800052
  0
LINE
  5
1F07
  8
0
 10
17.250000000000011
 20
142.0968754543816
 30
0.0
 11
14.000000000000011
 21
142.0968754543816
 31
0.0
  0
LINE
  5
1F09
  8
0
 10
27.000000000000011
 20
142.0968754543816
 30
0.0
 11
23.750000000000011
 21
142.0968754543816
 31
0.0
  0
ARC
  5
1F0B
  8
0
 10
26.999168036797322
 20
123.6336177926291
 30
0.0
 40
0.5020092262404369
 50
270.09495443420877
 51
3.9246726941693519
  0
ARC
  5
1F0C
  8
0
 10
14.00083196320271
 20
123.6336177926291
 30
0.0
 40
0.50200922624038
 50
176.0753273058306
 51
269.90504556579123
  0
ARC
  5
1F0D
  8
0
 10
22.138122493299999
 20
124.4172051031816
 30
0.0
 40
1.6130528114475191
 50
355.3719970839004
 51
43.920972468939361
  0
ARC
  5
1F0E
  8
0
 10
22.622151453699999
 20
145.71316644738161
 30
0.0
 40
4.4164004288787986
 50
265.1661939641985
 51
284.79594482319862
  0
ARC
  5
1F0F
  8
0
 10
18.862840548000019
 20
124.4163768315816
 30
0.0
 40
1.6139461354422591
 50
136.09538555476229
 51
184.59593626239959
  0
ARC
  5
1F10
  8
0
 10
18.377848546400021
 20
145.71316644738161
 30
0.0
 40
4.4164004288776386
 50
255.20405517679961
 51
274.83380603579809
  0
LINE
  5
1F12
  8
0
 10
18.750000000000011
 20
141.31247376968159
 30
0.0
 11
22.250000000000011
 21
141.31247376968159
 31
0.0
  0
LINE
  5
1F17
  8
0
 10
51.402915810895081
 20
163.11424235508159
 30
0.0
 11
51.402915810895081
 21
162.11424235508159
 31
0.0
  0
LINE
  5
1F18
  8
0
 10
55.402915810895081
 20
162.11424235508159
 30
0.0
 11
55.402915810895081
 21
163.11424235508159
 31
0.0
  0
LINE
  5
1F19
  8
0
 10
59.402915810895081
 20
178.61424235508159
 30
0.0
 11
58.902915810895081
 21
179.11424235508159
 31
0.0
  0
LINE
  5
1F1A
  8
0
 10
47.902915810895067
 20
179.11424235508159
 30
0.0
 11
47.402915810895081
 21
178.61424235508159
 31
0.0
  0
LINE
  5
1F1B
  8
0
 10
59.402915810895081
 20
163.61424235508159
 30
0.0
 11
59.402915810895081
 21
164.11424235508159
 31
0.0
  0
LINE
  5
1F1C
  8
0
 10
59.402915810895081
 20
167.86424235508159
 30
0.0
 11
59.402915810895081
 21
174.36424235508159
 31
0.0
  0
LINE
  5
1F1D
  8
0
 10
59.402915810895081
 20
178.11424235508159
 30
0.0
 11
59.402915810895081
 21
178.61424235508159
 31
0.0
  0
LINE
  5
1F1E
  8
0
 10
47.402915810895081
 20
178.61424235508159
 30
0.0
 11
47.402915810895081
 21
178.11424235508159
 31
0.0
  0
LINE
  5
1F1F
  8
0
 10
47.402915810895081
 20
174.36424235508159
 30
0.0
 11
47.402915810895081
 21
167.86424235508159
 31
0.0
  0
LINE
  5
1F20
  8
0
 10
47.402915810895081
 20
164.11424235508159
 30
0.0
 11
47.402915810895081
 21
163.61424235508159
 31
0.0
  0
LINE
  5
1F21
  8
0
 10
47.402915810895081
 20
163.61424235508159
 30
0.0
 11
47.902915810895067
 21
163.11424235508159
 31
0.0
  0
LINE
  5
1F22
  8
0
 10
58.902915810895081
 20
163.11424235508159
 30
0.0
 11
59.402915810895081
 21
163.61424235508159
 31
0.0
  0
LINE
  5
1F31
  8
0
 10
44.190649462595097
 20
177.61424235508159
 30
0.0
 11
44.190649462595097
 21
174.36424235508159
 31
0.0
  0
LINE
  5
1F32
  8
0
 10
44.190649462595097
 20
167.86424235508159
 30
0.0
 11
44.190649462595097
 21
164.61424235508159
 31
0.0
  0
POLYLINE
  5
1F33
  8
0
 66
     1
 10
0.0
 20
0.0
 30
0.0
 70
   128
  0
VERTEX
  5
2E30
  8
0
 10
44.923451795395067
 20
178.11424235508159
 30
0.0
  0
VERTEX
  5
2E31
  8
0
 10
44.68918831199511
 20
178.10595929448161
 30
0.0
  0
VERTEX
  5
2E32
  8
0
 10
44.524433796295057
 20
178.07938834458159
 30
0.0
  0
VERTEX
  5
2E33
  8
0
 10
44.417811900795073
 20
178.03323718448161
 30
0.0
  0
VERTEX
  5
2E34
  8
0
 10
44.34318852629508
 20
177.96847155828161
 30
0.0
  0
VERTEX
  5
2E35
  8
0
 10
44.311484890295098
 20
177.93010145888161
 30
0.0
  0
VERTEX
  5
2E36
  8
0
 10
44.296633726995083
 20
177.90967879828159
 30
0.0
  0
VERTEX
  5
2E37
  8
0
 10
44.282447374495057
 20
177.88854786838161
 30
0.0
  0
VERTEX
  5
2E38
  8
0
 10
44.26897043649506
 20
177.86680208208159
 30
0.0
  0
VERTEX
  5
2E39
  8
0
 10
44.256273005995119
 20
177.84453791188159
 30
0.0
  0
VERTEX
  5
2E3A
  8
0
 10
44.233572162795099
 20
177.79884749628161
 30
0.0
  0
VERTEX
  5
2E3B
  8
0
 10
44.201538938395061
 20
177.70552096868161
 30
0.0
  0
VERTEX
  5
2E3C
  8
0
 10
44.190649462695092
 20
177.61424235508159
 30
0.0
  0
SEQEND
  5
2E3D
  8
0
  0
POLYLINE
  5
1F34
  8
0
 66
     1
 10
0.0
 20
0.0
 30
0.0
 70
   128
  0
VERTEX
  5
2E3E
  8
0
 10
44.190649462695092
 20
164.61424235508159
 30
0.0
  0
VERTEX
  5
2E3F
  8
0
 10
44.199292775095103
 20
164.52313498848159
 30
0.0
  0
VERTEX
  5
2E40
  8
0
 10
44.21043695409508
 20
164.4764798395816
 30
0.0
  0
VERTEX
  5
2E41
  8
0
 10
44.217763258395109
 20
164.4531594458816
 30
0.0
  0
VERTEX
  5
2E42
  8
0
 10
44.226265516695094
 20
164.42996456758161
 30
0.0
  0
VERTEX
  5
2E43
  8
0
 10
44.235950982795082
 20
164.40699004228159
 30
0.0
  0
VERTEX
  5
2E44
  8
0
 10
44.246834769995068
 20
164.3843328797816
 30
0.0
  0
VERTEX
  5
2E45
  8
0
 10
44.27233333009508
 20
164.3403623657816
 30
0.0
  0
VERTEX
  5
2E46
  8
0
 10
44.340416161895057
 20
164.26044473268161
 30
0.0
  0
VERTEX
  5
2E47
  8
0
 10
44.475955955795087
 20
164.17797649558159
 30
0.0
  0
VERTEX
  5
2E48
  8
0
 10
44.67148413729506
 20
164.12932569688169
 30
0.0
  0
VERTEX
  5
2E49
  8
0
 10
44.923451795395067
 20
164.11424235508159
 30
0.0
  0
SEQEND
  5
2E4A
  8
0
  0
LINE
  5
1F35
  8
0
 10
51.402915810895081
 20
162.11424235508159
 30
0.0
 11
55.402915810895081
 21
162.11424235508159
 31
0.0
  0
ARC
  5
1F3A
  8
0
 10
53.402915810895081
 20
171.11424235508159
 30
0.0
 40
8.0000000000000266
 50
336.68858400959999
 51
23.24816094359878
  0
ARC
  5
1F3B
  8
0
 10
53.402915810895081
 20
171.11424235508159
 30
0.0
 40
8.0000000000000089
 50
156.0305176822398
 51
203.96948231780021
  0
LINE
  5
1F3C
  8
0
 10
47.902915810895067
 20
179.11424235508159
 30
0.0
 11
58.902915810895081
 21
179.11424235508159
 31
0.0
  0
LINE
  5
1F41
  8
0
 10
58.902915810895081
 20
163.11424235508159
 30
0.0
 11
47.902915810895067
 21
163.11424235508159
 31
0.0
  0
LINE
  5
1F45
  8
0
 10
44.923451795395067
 20
178.11424235508159
 30
0.0
 11
54.186919471995111
 21
178.11424235508159
 31
0.0
  0
LINE
  5
1F47
  8
0
 10
54.186919471995111
 20
164.11424235508159
 30
0.0
 11
44.923451795395067
 21
164.11424235508159
 31
0.0
  0
LINE
  5
1F5D
  8
0
 10
63.022336164295098
 20
164.11424235508159
 30
0.0
 11
54.186919471995111
 21
164.11424235508159
 31
0.0
  0
LINE
  5
1F60
  8
0
 10
54.186919471995111
 20
178.11424235508159
 30
0.0
 11
63.022336164295098
 21
178.11424235508159
 31
0.0
  0
ARC
  5
1F63
  8
0
 10
61.655918303995122
 20
169.36139380868161
 30
0.0
 40
1.497154184314377
 50
270.10942975489849
 51
0.1090133411001293
  0
LINE
  5
1F64
  8
0
 10
63.153069778395093
 20
172.86424235508159
 30
0.0
 11
63.153069778395093
 21
169.36424235508159
 31
0.0
  0
ARC
  5
1F65
  8
0
 10
61.655918303995122
 20
172.8670909013816
 30
0.0
 40
1.497154184314446
 50
359.89098665889992
 51
89.890570245101472
  0
CIRCLE
  5
1F66
  8
0
 10
109.9604214153951
 20
171.11586423158161
 30
0.0
 40
5.2851662792421239
  0
LINE
  5
1F67
  8
0
 10
61.658777731295118
 20
167.86424235508159
 30
0.0
 11
44.190649462595097
 21
167.86424235508159
 31
0.0
  0
LINE
  5
1F68
  8
0
 10
61.658777731295118
 20
174.36424235508159
 30
0.0
 11
44.190649462595097
 21
174.36424235508159
 31
0.0
  0
ARC
  5
1F69
  8
0
 10
60.253770692895102
 20
169.43164592338161
 30
0.0
 40
1.563392281997376
 50
270.55242387999851
 51
357.52900314499999
  0
ARC
  5
1F6C
  8
0
 10
60.249269609895123
 20
172.7921844020816
 30
0.0
 40
1.5680961785348051
 50
2.6338122891999611
 51
89.284760685799966
  0
POLYLINE
  5
1F6D
  8
0
 66
     1
 10
0.0
 20
0.0
 30
0.0
 70
   128
  0
VERTEX
  5
2E4B
  8
0
 10
63.022336164295098
 20
178.11424235508159
 30
0.0
  0
VERTEX
  5
2E4C
  8
0
 10
65.996606222195055
 20
178.06053523368161
 30
0.0
  0
VERTEX
  5
2E4D
  8
0
 10
69.159714827795085
 20
177.89549454598159
 30
0.0
  0
VERTEX
  5
2E4E
  8
0
 10
72.452254992695075
 20
177.6007054092816
 30
0.0
  0
VERTEX
  5
2E4F
  8
0
 10
75.78625769509506
 20
177.1969983960816
 30
0.0
  0
VERTEX
  5
2E50
  8
0
 10
79.146679385695052
 20
176.85018265658161
 30
0.0
  0
VERTEX
  5
2E51
  8
0
 10
82.529715370795074
 20
176.66143758528159
 30
0.0
  0
VERTEX
  5
2E52
  8
0
 10
85.92891467299512
 20
176.61053440478159
 30
0.0
  0
VERTEX
  5
2E53
  8
0
 10
90.383518706695099
 20
176.68701110018159
 30
0.0
  0
VERTEX
  5
2E54
  8
0
 10
94.845977906795099
 20
176.90119987868161
 30
0.0
  0
VERTEX
  5
2E55
  8
0
 10
99.310518072795105
 20
177.24148966078161
 30
0.0
  0
VERTEX
  5
2E56
  8
0
 10
101.4143866794951
 20
177.4422467084816
 30
0.0
  0
VERTEX
  5
2E57
  8
0
 10
103.5170490050951
 20
177.66658221218159
 30
0.0
  0
VERTEX
  5
2E58
  8
0
 10
105.619284730895
 20
177.90100572958161
 30
0.0
  0
VERTEX
  5
2E59
  8
0
 10
107.7290407449951
 20
178.06495165438159
 30
0.0
  0
VERTEX
  5
2E5A
  8
0
 10
109.6491612765042
 20
178.1191984860836
 30
0.0
  0
SEQEND
  5
2E5B
  8
0
  0
POLYLINE
  5
1F73
  8
0
 66
     1
 10
0.0
 20
0.0
 30
0.0
 70
   128
  0
VERTEX
  5
2E5C
  8
0
 10
63.022336164295098
 20
164.11424235508159
 30
0.0
  0
VERTEX
  5
2E5D
  8
0
 10
66.998816115595105
 20
164.20788045818159
 30
0.0
  0
VERTEX
  5
2E5E
  8
0
 10
70.956544022295077
 20
164.47824293968159
 30
0.0
  0
VERTEX
  5
2E5F
  8
0
 10
74.877935586195122
 20
164.9182656170816
 30
0.0
  0
VERTEX
  5
2E60
  8
0
 10
78.761025681795104
 20
165.3483143466816
 30
0.0
  0
VERTEX
  5
2E61
  8
0
 10
82.616584901195097
 20
165.5741538620816
 30
0.0
  0
VERTEX
  5
2E62
  8
0
 10
86.448513130295098
 20
165.61453071108161
 30
0.0
  0
VERTEX
  5
2E63
  8
0
 10
90.719121989195045
 20
165.52430777548159
 30
0.0
  0
VERTEX
  5
2E64
  8
0
 10
94.989018170695076
 20
165.3152486586817
 30
0.0
  0
VERTEX
  5
2E65
  8
0
 10
99.300533924395111
 20
164.9872747535816
 30
0.0
  0
VERTEX
  5
2E66
  8
0
 10
101.0156267973951
 20
164.82612073968161
 30
0.0
  0
VERTEX
  5
2E67
  8
0
 10
102.74689152109509
 20
164.6468380078816
 30
0.0
  0
VERTEX
  5
2E68
  8
0
 10
104.4965044914951
 20
164.4507665436816
 30
0.0
  0
VERTEX
  5
2E69
  8
0
 10
106.2542042171951
 20
164.2669525483816
 30
0.0
  0
VERTEX
  5
2E6A
  8
0
 10
108.003521470095
 20
164.1478316598816
 30
0.0
  0
VERTEX
  5
2E6B
  8
0
 10
109.8093639932151
 20
164.1210319340816
 30
0.0
  0
SEQEND
  5
2E6C
  8
0
  0
LINE
  5
1F74
  8
0
 10
61.8157092916951
 20
169.36424235508159
 30
0.0
 11
61.8157092916951
 21
172.86424235508159
 31
0.0
  0
LINE
  5
1F89
  8
0
 10
55.402915810895081
 20
49.114242355081643
 30
0.0
 11
55.402915810895081
 21
50.114242355081643
 31
0.0
  0
LINE
  5
1F8A
  8
0
 10
51.402915810895081
 20
50.114242355081643
 30
0.0
 11
51.402915810895081
 21
49.114242355081643
 31
0.0
  0
LINE
  5
1F8B
  8
0
 10
47.402915810895081
 20
33.614242355081643
 30
0.0
 11
47.902915810895067
 21
33.11424235508165
 31
0.0
  0
LINE
  5
1F8C
  8
0
 10
58.902915810895081
 20
33.11424235508165
 30
0.0
 11
59.402915810895081
 21
33.614242355081643
 31
0.0
  0
LINE
  5
1F8D
  8
0
 10
47.402915810895081
 20
48.614242355081643
 30
0.0
 11
47.402915810895081
 21
48.114242355081643
 31
0.0
  0
LINE
  5
1F8E
  8
0
 10
47.402915810895081
 20
34.114242355081643
 30
0.0
 11
47.402915810895081
 21
33.614242355081643
 31
0.0
  0
LINE
  5
1F8F
  8
0
 10
59.402915810895081
 20
33.614242355081643
 30
0.0
 11
59.402915810895081
 21
34.114242355081643
 31
0.0
  0
LINE
  5
1F90
  8
0
 10
59.402915810895081
 20
48.114242355081643
 30
0.0
 11
59.402915810895081
 21
48.614242355081643
 31
0.0
  0
LINE
  5
1F91
  8
0
 10
59.402915810895081
 20
48.614242355081643
 30
0.0
 11
58.902915810895081
 21
49.114242355081643
 31
0.0
  0
LINE
  5
1F92
  8
0
 10
47.902915810895067
 20
49.114242355081643
 30
0.0
 11
47.402915810895081
 21
48.614242355081643
 31
0.0
  0
POLYLINE
  5
1F9D
  8
0
 66
     1
 10
0.0
 20
0.0
 30
0.0
 70
   128
  0
VERTEX
  5
2E6D
  8
0
 10
44.190649462695092
 20
34.61424235508165
 30
0.0
  0
VERTEX
  5
2E6E
  8
0
 10
44.199508498695081
 20
34.523050535081637
 30
0.0
  0
VERTEX
  5
2E6F
  8
0
 10
44.210795094195078
 20
34.476356762081643
 30
0.0
  0
VERTEX
  5
2E70
  8
0
 10
44.218153409395093
 20
34.45301950258164
 30
0.0
  0
VERTEX
  5
2E71
  8
0
 10
44.22664786859508
 20
34.429809955781643
 30
0.0
  0
VERTEX
  5
2E72
  8
0
 10
44.236284148595132
 20
34.406823342281633
 30
0.0
  0
VERTEX
  5
2E73
  8
0
 10
44.247087251795101
 20
34.384157003781638
 30
0.0
  0
VERTEX
  5
2E74
  8
0
 10
44.272453863095052
 20
34.340177864081639
 30
0.0
  0
VERTEX
  5
2E75
  8
0
 10
44.342509508995079
 20
34.260281026281632
 30
0.0
  0
VERTEX
  5
2E76
  8
0
 10
44.496574004395079
 20
34.177885613181651
 30
0.0
  0
VERTEX
  5
2E77
  8
0
 10
44.746379994895108
 20
34.129301841681638
 30
0.0
  0
VERTEX
  5
2E78
  8
0
 10
45.10005255479507
 20
34.114242355081643
 30
0.0
  0
SEQEND
  5
2E79
  8
0
  0
POLYLINE
  5
1F9E
  8
0
 66
     1
 10
0.0
 20
0.0
 30
0.0
 70
   128
  0
VERTEX
  5
2E7A
  8
0
 10
45.10005255479507
 20
48.114242355081643
 30
0.0
  0
VERTEX
  5
2E7B
  8
0
 10
44.754336494895092
 20
48.106001930481639
 30
0.0
  0
VERTEX
  5
2E7C
  8
0
 10
44.536739917595121
 20
48.079555547481633
 30
0.0
  0
VERTEX
  5
2E7D
  8
0
 10
44.468244622195073
 20
48.05900748308165
 30
0.0
  0
VERTEX
  5
2E7E
  8
0
 10
44.418320218995063
 20
48.033567650381642
 30
0.0
  0
VERTEX
  5
2E7F
  8
0
 10
44.379850023195097
 20
48.003421463081636
 30
0.0
  0
VERTEX
  5
2E80
  8
0
 10
44.3472633179951
 20
47.968921561481629
 30
0.0
  0
VERTEX
  5
2E81
  8
0
 10
44.317460883295098
 20
47.930574555181629
 30
0.0
  0
VERTEX
  5
2E82
  8
0
 10
44.303173270895059
 20
47.910152573481632
 30
0.0
  0
VERTEX
  5
2E83
  8
0
 10
44.296163448395077
 20
47.899667461981629
 30
0.0
  0
VERTEX
  5
2E84
  8
0
 10
44.289247442395087
 20
47.889014951481641
 30
0.0
  0
VERTEX
  5
2E85
  8
0
 10
44.282433038995123
 20
47.878206870381632
 30
0.0
  0
VERTEX
  5
2E86
  8
0
 10
44.275730981195117
 20
47.867255249681641
 30
0.0
  0
VERTEX
  5
2E87
  8
0
 10
44.262718951595097
 20
47.844970267781633
 30
0.0
  0
VERTEX
  5
2E88
  8
0
 10
44.250339668195068
 20
47.822258672281627
 30
0.0
  0
VERTEX
  5
2E89
  8
0
 10
44.238741782795103
 20
47.799219634981633
 30
0.0
  0
VERTEX
  5
2E8A
  8
0
 10
44.203235594195121
 20
47.705719246381641
 30
0.0
  0
VERTEX
  5
2E8B
  8
0
 10
44.190649462695092
 20
47.614242355081643
 30
0.0
  0
SEQEND
  5
2E8C
  8
0
  0
LINE
  5
1F9F
  8
0
 10
44.190649462595097
 20
37.864242355081643
 30
0.0
 11
44.190649462595097
 21
34.61424235508165
 31
0.0
  0
LINE
  5
1FA0
  8
0
 10
44.190649462595097
 20
47.614242355081643
 30
0.0
 11
44.190649462595097
 21
44.364242355081643
 31
0.0
  0
LINE
  5
1FA6
  8
0
 10
53.402915810895081
 20
50.114242355081643
 30
0.0
 11
51.402915810895081
 21
50.114242355081643
 31
0.0
  0
LINE
  5
1FA7
  8
0
 10
55.402915810895081
 20
50.114242355081643
 30
0.0
 11
53.402915810895081
 21
50.114242355081643
 31
0.0
  0
CIRCLE
  5
1FA8
  8
0
 10
53.402915810895081
 20
41.114242355081643
 30
0.0
 40
7.9999999999999858
  0
LINE
  5
1FAC
  8
0
 10
58.902915810895081
 20
33.11424235508165
 30
0.0
 11
47.902915810895067
 21
33.11424235508165
 31
0.0
  0
LINE
  5
1FB4
  8
0
 10
47.902915810895067
 20
49.114242355081643
 30
0.0
 11
58.902915810895081
 21
49.114242355081643
 31
0.0
  0
POLYLINE
  5
1FB6
  8
0
 66
     1
 10
0.0
 20
0.0
 30
0.0
 70
   128
  0
VERTEX
  5
2E8D
  8
0
 10
107.93196431059501
 20
48.075780319181632
 30
0.0
  0
VERTEX
  5
2E8E
  8
0
 10
107.0795986136951
 20
48.025819400581639
 30
0.0
  0
VERTEX
  5
2E8F
  8
0
 10
104.32242802119509
 20
47.762475568881641
 30
0.0
  0
VERTEX
  5
2E90
  8
0
 10
101.5673594588951
 20
47.455167427081633
 30
0.0
  0
VERTEX
  5
2E91
  8
0
 10
98.811366541895111
 20
47.194312639981632
 30
0.0
  0
VERTEX
  5
2E92
  8
0
 10
96.05439225489512
 20
46.981679210781628
 30
0.0
  0
VERTEX
  5
2E93
  8
0
 10
92.442612332295084
 20
46.776619091881621
 30
0.0
  0
VERTEX
  5
2E94
  8
0
 10
88.829252597695117
 20
46.654652031981641
 30
0.0
  0
VERTEX
  5
2E95
  8
0
 10
85.214285578995089
 20
46.61424105478163
 30
0.0
  0
VERTEX
  5
2E96
  8
0
 10
82.1412928318951
 20
46.670994866481628
 30
0.0
  0
VERTEX
  5
2E97
  8
0
 10
79.084999462195071
 20
46.838415848481638
 30
0.0
  0
VERTEX
  5
2E98
  8
0
 10
76.045264812495077
 20
47.115435936281642
 30
0.0
  0
VERTEX
  5
2E99
  8
0
 10
73.029048314595116
 20
47.482934761281633
 30
0.0
  0
VERTEX
  5
2E9A
  8
0
 10
71.040060549495081
 20
47.693594523481629
 30
0.0
  0
VERTEX
  5
2E9B
  8
0
 10
69.087591332195075
 20
47.859228246181637
 30
0.0
  0
VERTEX
  5
2E9C
  8
0
 10
67.190334558995119
 20
47.979590443481626
 30
0.0
  0
VERTEX
  5
2E9D
  8
0
 10
65.369432547595125
 20
48.058297294581642
 30
0.0
  0
VERTEX
  5
2E9E
  8
0
 10
63.643663006395059
 20
48.10122890028164
 30
0.0
  0
VERTEX
  5
2E9F
  8
0
 10
62.007847370195122
 20
48.114242355081643
 30
0.0
  0
SEQEND
  5
2EA0
  8
0
  0
ARC
  5
1FB7
  8
0
 10
109.80863653679511
 20
41.120140568881631
 30
0.0
 40
7.0082158064556017
 50
359.95177905309993
 51
89.712261594300998
  0
POLYLINE
  5
1FB9
  8
0
 66
     1
 10
0.0
 20
0.0
 30
0.0
 70
   128
  0
VERTEX
  5
2EA1
  8
0
 10
61.8157092916951
 20
46.614087899081639
 30
0.0
  0
VERTEX
  5
2EA2
  8
0
 10
63.241526618695097
 20
46.505948281781642
 30
0.0
  0
VERTEX
  5
2EA3
  8
0
 10
64.791131818095096
 20
46.375853227281631
 30
0.0
  0
VERTEX
  5
2EA4
  8
0
 10
66.445983716495107
 20
46.218251697781639
 30
0.0
  0
VERTEX
  5
2EA5
  8
0
 10
68.187211190595121
 20
46.027577790781628
 30
0.0
  0
VERTEX
  5
2EA6
  8
0
 10
69.995109913695103
 20
45.798224960181621
 30
0.0
  0
VERTEX
  5
2EA7
  8
0
 10
71.846972696495072
 20
45.524438948281642
 30
0.0
  0
VERTEX
  5
2EA8
  8
0
 10
73.7193416339951
 20
45.200428570081641
 30
0.0
  0
VERTEX
  5
2EA9
  8
0
 10
75.587901044895091
 20
44.819154317381631
 30
0.0
  0
VERTEX
  5
2EAA
  8
0
 10
78.051487834895056
 20
44.237907429681641
 30
0.0
  0
VERTEX
  5
2EAB
  8
0
 10
80.496088627595114
 20
43.650735821481632
 30
0.0
  0
VERTEX
  5
2EAC
  8
0
 10
82.956144281795105
 20
43.171608684581642
 30
0.0
  0
VERTEX
  5
2EAD
  8
0
 10
84.195059597895124
 20
43.006910283881638
 30
0.0
  0
VERTEX
  5
2EAE
  8
0
 10
85.444821920695077
 20
42.912066622481632
 30
0.0
  0
VERTEX
  5
2EAF
  8
0
 10
86.728423067695076
 20
42.906997146881629
 30
0.0
  0
VERTEX
  5
2EB0
  8
0
 10
87.69160809709507
 20
42.954637680581641
 30
0.0
  0
VERTEX
  5
2EB1
  8
0
 10
88.629530628395074
 20
43.032481146981631
 30
0.0
  0
VERTEX
  5
2EB2
  8
0
 10
89.552918973195105
 20
43.132413018381627
 30
0.0
  0
VERTEX
  5
2EB3
  8
0
 10
90.477745571995115
 20
43.248315618081641
 30
0.0
  0
VERTEX
  5
2EB4
  8
0
 10
92.971450971795093
 20
43.618959969781621
 30
0.0
  0
VERTEX
  5
2EB5
  8
0
 10
95.513509647395097
 20
44.053235831881629
 30
0.0
  0
VERTEX
  5
2EB6
  8
0
 10
98.099749684495123
 20
44.506794320681628
 30
0.0
  0
VERTEX
  5
2EB7
  8
0
 10
100.0625577988951
 20
44.830294070181637
 30
0.0
  0
VERTEX
  5
2EB8
  8
0
 10
102.0304446554951
 20
45.115502683781642
 30
0.0
  0
VERTEX
  5
2EB9
  8
0
 10
103.9817131401951
 20
45.338938030781627
 30
0.0
  0
VERTEX
  5
2EBA
  8
0
 10
105.9812924429951
 20
45.474775285781632
 30
0.0
  0
VERTEX
  5
2EBB
  8
0
 10
107.3055895759951
 20
45.484188722481633
 30
0.0
  0
VERTEX
  5
2EBC
  8
0
 10
108.5216804986951
 20
45.414655547581638
 30
0.0
  0
VERTEX
  5
2EBD
  8
0
 10
109.60604509869501
 20
45.271908069181627
 30
0.0
  0
VERTEX
  5
2EBE
  8
0
 10
110.371366325295
 20
45.117906067781632
 30
0.0
  0
VERTEX
  5
2EBF
  8
0
 10
111.1152280486951
 20
44.917434780781633
 30
0.0
  0
VERTEX
  5
2EC0
  8
0
 10
111.844712790895
 20
44.667466821381637
 30
0.0
  0
VERTEX
  5
2EC1
  8
0
 10
112.54754213399509
 20
44.369578271081629
 30
0.0
  0
VERTEX
  5
2EC2
  8
0
 10
113.2094230230951
 20
44.027522797181639
 30
0.0
  0
VERTEX
  5
2EC3
  8
0
 10
113.82736479589499
 20
43.649160941181627
 30
0.0
  0
VERTEX
  5
2EC4
  8
0
 10
114.9307707353951
 20
42.819067124081641
 30
0.0
  0
VERTEX
  5
2EC5
  8
0
 10
115.85643943809509
 20
41.95039490148163
 30
0.0
  0
VERTEX
  5
2EC6
  8
0
 10
116.6030503894951
 20
41.114242355081643
 30
0.0
  0
SEQEND
  5
2EC7
  8
0
  0
POLYLINE
  5
1FCC
  8
0
 66
     1
 10
0.0
 20
0.0
 30
0.0
 70
   128
  0
VERTEX
  5
2EC8
  8
0
 10
61.8157092916951
 20
35.614396810981638
 30
0.0
  0
VERTEX
  5
2EC9
  8
0
 10
63.187217523895072
 20
35.71912542888164
 30
0.0
  0
VERTEX
  5
2ECA
  8
0
 10
64.674002986695086
 20
35.845344280781632
 30
0.0
  0
VERTEX
  5
2ECB
  8
0
 10
66.259978498195096
 20
35.997234062981647
 30
0.0
  0
VERTEX
  5
2ECC
  8
0
 10
67.929056876695086
 20
36.178975471581637
 30
0.0
  0
VERTEX
  5
2ECD
  8
0
 10
69.664558091795129
 20
36.394952468881641
 30
0.0
  0
VERTEX
  5
2ECE
  8
0
 10
71.447430719095109
 20
36.650362082981651
 30
0.0
  0
VERTEX
  5
2ECF
  8
0
 10
73.258030485895119
 20
36.950604607881651
 30
0.0
  0
VERTEX
  5
2ED0
  8
0
 10
75.076713119395095
 20
37.301080338081647
 30
0.0
  0
VERTEX
  5
2ED1
  8
0
 10
77.488195770395123
 20
37.847430806681643
 30
0.0
  0
VERTEX
  5
2ED2
  8
0
 10
79.886046333695106
 20
38.43102384348164
 30
0.0
  0
VERTEX
  5
2ED3
  8
0
 10
82.288731513795085
 20
38.942372419081643
 30
0.0
  0
VERTEX
  5
2ED4
  8
0
 10
84.103173025495096
 20
39.210947953281632
 30
0.0
  0
VERTEX
  5
2ED5
  8
0
 10
85.93190666389512
 20
39.330522378081639
 30
0.0
  0
VERTEX
  5
2ED6
  8
0
 10
86.856202352395087
 20
39.31868135408164
 30
0.0
  0
VERTEX
  5
2ED7
  8
0
 10
87.766749932495088
 20
39.268632037981646
 30
0.0
  0
VERTEX
  5
2ED8
  8
0
 10
88.645287357195116
 20
39.193935403281642
 30
0.0
  0
VERTEX
  5
2ED9
  8
0
 10
89.503552549595042
 20
39.101771919081642
 30
0.0
  0
VERTEX
  5
2EDA
  8
0
 10
91.80195711169506
 20
38.793421646481633
 30
0.0
  0
VERTEX
  5
2EDB
  8
0
 10
94.142629594395089
 20
38.415862682481638
 30
0.0
  0
VERTEX
  5
2EDC
  8
0
 10
96.526311082695102
 20
37.999695781081641
 30
0.0
  0
VERTEX
  5
2EDD
  8
0
 10
98.939172584595084
 20
37.581686190181628
 30
0.0
  0
VERTEX
  5
2EDE
  8
0
 10
101.368812555695
 20
37.20315186768164
 30
0.0
  0
VERTEX
  5
2EDF
  8
0
 10
103.8033503454951
 20
36.906493714781632
 30
0.0
  0
VERTEX
  5
2EE0
  8
0
 10
105.624220486095
 20
36.768250673681628
 30
0.0
  0
VERTEX
  5
2EE1
  8
0
 10
107.42954798559509
 20
36.747876636581637
 30
0.0
  0
VERTEX
  5
2EE2
  8
0
 10
108.3225090322951
 20
36.797020330081637
 30
0.0
  0
VERTEX
  5
2EE3
  8
0
 10
109.20576134009499
 20
36.894465561381637
 30
0.0
  0
VERTEX
  5
2EE4
  8
0
 10
110.0828211661951
 20
37.04806129618165
 30
0.0
  0
VERTEX
  5
2EE5
  8
0
 10
110.9725013594951
 20
37.269299703381641
 30
0.0
  0
VERTEX
  5
2EE6
  8
0
 10
111.85903382419509
 20
37.566820411581631
 30
0.0
  0
VERTEX
  5
2EE7
  8
0
 10
112.7192734173951
 20
37.939510999381639
 30
0.0
  0
VERTEX
  5
2EE8
  8
0
 10
113.5328713614951
 20
38.382425962881641
 30
0.0
  0
VERTEX
  5
2EE9
  8
0
 10
114.28759543479509
 20
38.884660853681638
 30
0.0
  0
VERTEX
  5
2EEA
  8
0
 10
114.9746387893951
 20
39.431873461381642
 30
0.0
  0
VERTEX
  5
2EEB
  8
0
 10
115.5907795161951
 20
40.001929473081638
 30
0.0
  0
VERTEX
  5
2EEC
  8
0
 10
116.1341919410951
 20
40.570746550481637
 30
0.0
  0
VERTEX
  5
2EED
  8
0
 10
116.6030503894951
 20
41.114242355081643
 30
0.0
  0
SEQEND
  5
2EEE
  8
0
  0
ARC
  5
1FCD
  8
0
 10
109.80863653679511
 20
41.108344141181632
 30
0.0
 40
7.0082158064313171
 50
270.28773841060058
 51
0.0482209469994182
  0
LINE
  5
1FD2
  8
0
 10
61.8157092916951
 20
42.864242355081643
 30
0.0
 11
61.8157092916951
 21
39.36424235508165
 31
0.0
  0
LINE
  5
1FD4
  8
0
 10
57.902915810895081
 20
34.114242355081643
 30
0.0
 11
57.249438124295118
 21
34.114242355081643
 31
0.0
  0
LINE
  5
1FD6
  8
0
 10
57.199711034795079
 20
48.114242355081643
 30
0.0
 11
57.902915810895081
 21
48.114242355081643
 31
0.0
  0
ARC
  5
1FD7
  8
0
 10
59.81460289659509
 20
34.566987030081627
 30
0.0
 40
0.4566925930561319
 50
277.53916175229989
 51
5.9391931805000562
  0
LINE
  5
1FD8
  8
0
 10
59.874522707395101
 20
34.114242355081643
 30
0.0
 11
57.902915810895081
 21
34.114242355081643
 31
0.0
  0
ARC
  5
1FD9
  8
0
 10
59.81460289659509
 20
47.661497679981643
 30
0.0
 40
0.4566925930561947
 50
354.06080681949987
 51
82.460838247700025
  0
LINE
  5
1FDA
  8
0
 10
57.902915810895081
 20
48.114242355081643
 30
0.0
 11
59.874522707395101
 21
48.114242355081643
 31
0.0
  0
LINE
  5
1FE0
  8
0
 10
49.529932464687697
 20
34.114242355081643
 30
0.0
 11
45.083497535695066
 21
34.114242355081643
 31
0.0
  0
LINE
  5
1FE2
  8
0
 10
45.083492082295102
 20
48.114242355081643
 30
0.0
 11
49.529932464687697
 21
48.114242355081643
 31
0.0
  0
ARC
  5
1FE3
  8
0
 10
65.850385348695113
 20
54.550512525781642
 30
0.0
 40
8.9031144405446927
 50
231.1767442312991
 51
243.05237636859951
  0
ARC
  5
1FE4
  8
0
 10
60.322472680495082
 20
42.833119210381639
 30
0.0
 40
1.493560921808464
 50
1.1940282370995119
 51
74.74095781650017
  0
ARC
  5
1FE5
  8
0
 10
60.396976632295093
 20
39.351155636781641
 30
0.0
 40
1.4187930155164881
 50
283.52400809539881
 51
0.5284945364998027
  0
ARC
  5
1FE6
  8
0
 10
66.047289878795084
 20
27.373434455681629
 30
0.0
 40
9.2638941492110511
 50
117.1796533918999
 51
128.5912260083002
  0
LINE
  5
1FE7
  8
0
 10
59.874522707395101
 20
48.114242355081643
 30
0.0
 11
62.007847370195122
 21
48.114242355081643
 31
0.0
  0
LINE
  5
1FEC
  8
0
 10
62.007847370195122
 20
34.114242355081643
 30
0.0
 11
59.874522707395101
 21
34.114242355081643
 31
0.0
  0
POLYLINE
  5
1FF1
  8
0
 66
     1
 10
0.0
 20
0.0
 30
0.0
 70
   128
  0
VERTEX
  5
2EEF
  8
0
 10
107.93196431059501
 20
48.075780319181632
 30
0.0
  0
VERTEX
  5
2EF0
  8
0
 10
108.003521470095
 20
48.080653050181638
 30
0.0
  0
VERTEX
  5
2EF1
  8
0
 10
109.84383152639511
 20
48.128268000881633
 30
0.0
  0
SEQEND
  5
2EF2
  8
0
  0
LINE
  5
1FF2
  8
0
 10
62.007847370195122
 20
48.114242355081643
 30
0.0
 11
63.022336164295098
 21
48.114242355081643
 31
0.0
  0
LINE
  5
1FF3
  8
0
 10
44.222380864695083
 20
37.864242355081643
 30
0.0
 11
46.092820052288339
 21
37.864242355081643
 31
0.0
  0
LINE
  5
1FF4
  8
0
 10
44.222380864695083
 20
44.364242355081643
 30
0.0
 11
46.092820052288339
 21
44.364242355081643
 31
0.0
  0
LINE
  5
1FF6
  8
0
 10
60.268844086695083
 20
37.008267572981637
 30
0.0
 11
60.268844086695083
 21
34.61424235508165
 31
0.0
  0
LINE
  5
1FF9
  8
0
 10
60.268844086695083
 20
47.614242355081643
 30
0.0
 11
60.268844086695083
 21
45.220217137081633
 31
0.0
  0
LINE
  5
2088
  8
0
 10
52.531400748410199
 20
123.16966042523011
 30
0.0
 11
53.402915810910223
 21
123.1316092558301
 31
0.0
  0
ARC
  5
20D0
  8
0
 10
109.8093639932151
 20
171.1210319340816
 30
0.0
 40
7.0
 50
268.29952119583498
 51
91.925163556263044
  0
POLYLINE
  5
2157
  8
0
 66
     1
 10
0.0
 20
0.0
 30
0.0
 70
   128
  0
VERTEX
  5
2EF3
  8
0
 10
107.93196431123989
 20
34.152704390951229
 30
0.0
  0
VERTEX
  5
2EF4
  8
0
 10
107.07959861434
 20
34.202665309551222
 30
0.0
  0
VERTEX
  5
2EF5
  8
0
 10
104.3224280218399
 20
34.46600914125122
 30
0.0
  0
VERTEX
  5
2EF6
  8
0
 10
101.56735945954
 20
34.773317283051227
 30
0.0
  0
VERTEX
  5
2EF7
  8
0
 10
98.81136654254
 20
35.034172070151229
 30
0.0
  0
VERTEX
  5
2EF8
  8
0
 10
96.054392255539994
 20
35.246805499351233
 30
0.0
  0
VERTEX
  5
2EF9
  8
0
 10
92.442612332939973
 20
35.451865618251233
 30
0.0
  0
VERTEX
  5
2EFA
  8
0
 10
88.829252598340005
 20
35.57383267815122
 30
0.0
  0
VERTEX
  5
2EFB
  8
0
 10
85.214285579639977
 20
35.614243655351231
 30
0.0
  0
VERTEX
  5
2EFC
  8
0
 10
82.141292832539989
 20
35.557489843651233
 30
0.0
  0
VERTEX
  5
2EFD
  8
0
 10
79.084999462839946
 20
35.390068861651223
 30
0.0
  0
VERTEX
  5
2EFE
  8
0
 10
76.045264813139966
 20
35.113048773851219
 30
0.0
  0
VERTEX
  5
2EFF
  8
0
 10
73.029048315240004
 20
34.74554994885122
 30
0.0
  0
VERTEX
  5
2F00
  8
0
 10
71.040060550139955
 20
34.534890186651232
 30
0.0
  0
VERTEX
  5
2F01
  8
0
 10
69.087591332839963
 20
34.369256463951217
 30
0.0
  0
VERTEX
  5
2F02
  8
0
 10
67.190334559640007
 20
34.24889426665122
 30
0.0
  0
VERTEX
  5
2F03
  8
0
 10
65.369432548240013
 20
34.170187415551233
 30
0.0
  0
VERTEX
  5
2F04
  8
0
 10
63.643663007039947
 20
34.127255809851221
 30
0.0
  0
VERTEX
  5
2F05
  8
0
 10
62.007847370840011
 20
34.114242355051218
 30
0.0
  0
SEQEND
  5
2F06
  8
0
  0
POLYLINE
  5
2158
  8
0
 66
     1
 10
0.0
 20
0.0
 30
0.0
 70
   128
  0
VERTEX
  5
2F07
  8
0
 10
107.93196431123989
 20
34.152704390951229
 30
0.0
  0
VERTEX
  5
2F08
  8
0
 10
108.0035214707399
 20
34.147831659951223
 30
0.0
  0
VERTEX
  5
2F09
  8
0
 10
109.84383152704
 20
34.100216709251228
 30
0.0
  0
SEQEND
  5
2F0A
  8
0
  0
LINE
  5
22EF
  8
1
 10
39.190649462595097
 20
171.11424235508159
 30
0.0
 11
121.809350537405
 21
171.11424235508159
 31
0.0
  0
LINE
  5
22F0
  8
1
 10
53.402915810895081
 20
181.61424235508159
 30
0.0
 11
53.402915810895081
 21
160.61424235508159
 31
0.0
  0
LINE
  5
22F2
  8
1
 10
20.500000000000071
 20
63.131609255781633
 30
0.0
 11
20.500000000000071
 21
147.0968754543816
 31
0.0
  0
LINE
  5
22F5
  8
1
 10
10.000000000000011
 20
133.13112317158161
 30
0.0
 11
31.000000000000011
 21
133.13112317158161
 31
0.0
  0
LINE
  5
22F6
  8
1
 10
140.5
 20
63.131609255781612
 30
0.0
 11
140.5
 21
147.0968754543816
 31
0.0
  0
LINE
  5
22F7
  8
1
 10
130.0
 20
133.13112317158161
 30
0.0
 11
151.0
 21
133.13112317158161
 31
0.0
  0
LINE
  5
22F8
  8
1
 10
53.402915810895152
 20
63.131609255781612
 30
0.0
 11
53.402915810895152
 21
147.0968754543816
 31
0.0
  0
LINE
  5
22F9
  8
1
 10
44.902915810895088
 20
133.13112317158161
 30
0.0
 11
61.902915810895102
 21
133.13112317158161
 31
0.0
  0
LINE
  5
22FB
  8
1
 10
39.190649462595097
 20
41.114242355081643
 30
0.0
 11
121.809350537405
 21
41.114242355081643
 31
0.0
  0
LINE
  5
22FC
  8
1
 10
53.402915810895081
 20
51.614242355081643
 30
0.0
 11
53.402915810895081
 21
30.61424235508165
 31
0.0
  0
LINE
  5
2767
  8
0
 10
17.500000000000071
 20
140.13112317158161
 30
0.0
 11
17.500000000000071
 21
138.68923999828161
 31
0.0
  0
LINE
  5
2768
  8
0
 10
17.500000000000071
 20
127.5735712041816
 30
0.0
 11
17.500000000000071
 21
126.63112317158161
 31
0.0
  0
LINE
  5
2769
  8
0
 10
23.500000000000071
 20
126.63112317158161
 30
0.0
 11
23.500000000000071
 21
127.5704840324816
 31
0.0
  0
LINE
  5
276A
  8
0
 10
23.500000000000071
 20
138.69063750848159
 30
0.0
 11
23.500000000000071
 21
140.13112317158161
 31
0.0
  0
LINE
  5
276B
  8
0
 10
17.500000000000071
 20
120.1316092557816
 30
0.0
 11
17.500000000000071
 21
69.131609255781626
 31
0.0
  0
LINE
  5
276C
  8
0
 10
23.500000000000071
 20
69.131609255781626
 30
0.0
 11
23.500000000000071
 21
120.1316092557816
 31
0.0
  0
LINE
  5
276D
  8
0
 10
17.500000000000071
 20
69.131609255781626
 30
0.0
 11
18.500000000000071
 21
68.131609255781626
 31
0.0
  0
LINE
  5
276E
  8
0
 10
22.500000000000071
 20
68.131609255781626
 30
0.0
 11
23.500000000000071
 21
69.131609255781626
 31
0.0
  0
LINE
  5
276F
  8
0
 10
18.000000000000071
 20
140.63112317158149
 30
0.0
 11
17.500000000000071
 21
140.13112317158161
 31
0.0
  0
LINE
  5
2770
  8
0
 10
23.500000000000071
 20
140.13112317158161
 30
0.0
 11
23.000000000000071
 21
140.63112317158149
 31
0.0
  0
LINE
  5
2771
  8
0
 10
17.70000000000006
 20
126.63112317158161
 30
0.0
 11
17.70000000000006
 21
124.13112317158161
 31
0.0
  0
LINE
  5
2772
  8
0
 10
23.30000000000005
 20
124.13112317158161
 30
0.0
 11
23.30000000000005
 21
126.63112317158161
 31
0.0
  0
LINE
  5
2773
  8
0
 10
17.850000000000058
 20
124.13112317158161
 30
0.0
 11
17.850000000000058
 21
123.1316092557816
 31
0.0
  0
LINE
  5
2774
  8
0
 10
23.150000000000048
 20
123.1316092557816
 30
0.0
 11
23.150000000000048
 21
124.13112317158161
 31
0.0
  0
LINE
  5
2786
  8
0
 10
17.500000000000071
 20
126.63112317158161
 30
0.0
 11
23.500000000000071
 21
126.63112317158161
 31
0.0
  0
LINE
  5
2787
  8
0
 10
23.50000000000006
 20
140.13112317158161
 30
0.0
 11
17.500000000000071
 21
140.13112317158161
 31
0.0
  0
LINE
  5
278C
  8
0
 10
17.500000000000071
 20
69.131609255781626
 30
0.0
 11
23.500000000000071
 21
69.131609255781626
 31
0.0
  0
LINE
  5
278D
  8
0
 10
22.500000000000071
 20
68.131609255781626
 30
0.0
 11
18.500000000000071
 21
68.131609255781626
 31
0.0
  0
LINE
  5
278E
  8
0
 10
18.000000000000071
 20
140.63112317158149
 30
0.0
 11
23.000000000000071
 21
140.63112317158149
 31
0.0
  0
LINE
  5
2792
  8
0
 10
17.70000000000006
 20
124.13112317158161
 30
0.0
 11
23.30000000000005
 21
124.13112317158161
 31
0.0
  0
ARC
  5
2799
  8
0
 10
20.50071013190005
 20
118.5969534380816
 30
0.0
 40
9.4671509217906529
 50
69.926989649000348
 51
110.0821620347995
  0
ARC
  5
279A
  8
0
 10
20.501213450200041
 20
147.62713756958161
 30
0.0
 40
9.4322852705201097
 50
249.83713284180041
 51
290.1471634829004
  0
ARC
  5
27F5
  8
0
 10
53.402915810895081
 20
171.11424235508159
 30
0.0
 40
2.5
 50
282.70903299440039
 51
77.290967005599612
  0
ARC
  5
27F9
  8
0
 10
53.402915810895081
 20
171.11424235508159
 30
0.0
 40
2.4999999999999938
 50
102.7090329944004
 51
257.29096700559961
  0
LINE
  5
27FD
  8
0
 10
52.85291581089507
 20
174.06339477569341
 30
0.0
 11
52.85291581089507
 21
168.1650899344699
 31
0.0
  0
LINE
  5
27FE
  8
0
 10
53.952915810895057
 20
168.1650899344699
 30
0.0
 11
53.952915810895057
 21
174.06339477569341
 31
0.0
  0
CIRCLE
  5
2847
  8
0
 10
53.402915810895081
 20
171.11424235508159
 30
0.0
 40
3.0000000000000102
  0
LINE
  5
2856
  8
3
 10
22.958500000000161
 20
68.590109255781698
 30
0.0
 11
22.95850000000015
 21
120.1316092557816
 31
0.0
  0
LINE
  5
2857
  8
3
 10
18.041499999999981
 20
68.590109255781712
 30
0.0
 11
18.041499999999989
 21
120.1316092557816
 31
0.0
  0
LINE
  5
2859
  8
3
 10
22.958500000000161
 20
138.52056037303609
 30
0.0
 11
22.958500000000161
 21
140.63112317158149
 31
0.0
  0
LINE
  5
285A
  8
3
 10
18.041499999999981
 20
138.52121558620311
 30
0.0
 11
18.041499999999981
 21
140.63112317158149
 31
0.0
  0
LINE
  5
285B
  8
3
 10
18.041499999999981
 20
126.63112317158161
 30
0.0
 11
18.041499999999981
 21
127.7391212391625
 31
0.0
  0
LINE
  5
285C
  8
3
 10
22.95850000000015
 20
126.63112317158161
 30
0.0
 11
22.95850000000015
 21
127.7395031666981
 31
0.0
  0
LINE
  5
285D
  8
0
 10
50.402915810895152
 20
120.1316092557816
 30
0.0
 11
50.402915810895152
 21
69.131609255781598
 31
0.0
  0
LINE
  5
285E
  8
0
 10
56.402915810895152
 20
69.131609255781598
 30
0.0
 11
56.402915810895152
 21
120.1316092557816
 31
0.0
  0
LINE
  5
285F
  8
0
 10
50.402915810895152
 20
69.131609255781598
 30
0.0
 11
51.402915810895152
 21
68.131609255781584
 31
0.0
  0
LINE
  5
2860
  8
0
 10
55.402915810895152
 20
68.131609255781584
 30
0.0
 11
56.402915810895152
 21
69.131609255781598
 31
0.0
  0
LINE
  5
2861
  8
0
 10
50.752915810895153
 20
123.54052274460069
 30
0.0
 11
50.752915810895153
 21
123.1316092557815
 31
0.0
  0
LINE
  5
2863
  8
0
 10
50.402915810895152
 20
69.131609255781598
 30
0.0
 11
56.402915810895152
 21
69.131609255781598
 31
0.0
  0
LINE
  5
2864
  8
0
 10
55.402915810895152
 20
68.131609255781584
 30
0.0
 11
51.402915810895152
 21
68.131609255781584
 31
0.0
  0
LINE
  5
2865
  8
3
 10
55.861415810895238
 20
68.59010925578167
 30
0.0
 11
55.861415810895238
 21
120.1316092557816
 31
0.0
  0
LINE
  5
2866
  8
3
 10
50.944415810895059
 20
68.590109255781684
 30
0.0
 11
50.944415810895059
 21
120.1316092557816
 31
0.0
  0
LINE
  5
2867
  8
0
 10
137.50000000000011
 20
120.1316092557816
 30
0.0
 11
137.50000000000011
 21
69.131609255781598
 31
0.0
  0
LINE
  5
2868
  8
0
 10
143.50000000000011
 20
69.131609255781598
 30
0.0
 11
143.50000000000011
 21
120.1316092557816
 31
0.0
  0
LINE
  5
2869
  8
0
 10
137.50000000000011
 20
69.131609255781598
 30
0.0
 11
138.50000000000011
 21
68.131609255781584
 31
0.0
  0
LINE
  5
286A
  8
0
 10
142.50000000000011
 20
68.131609255781584
 30
0.0
 11
143.50000000000011
 21
69.131609255781598
 31
0.0
  0
LINE
  5
286B
  8
0
 10
137.85000000000011
 20
124.13112317158161
 30
0.0
 11
137.85000000000011
 21
123.1316092557815
 31
0.0
  0
LINE
  5
286C
  8
0
 10
143.15000000000009
 20
123.1316092557815
 30
0.0
 11
143.15000000000009
 21
124.13112317158161
 31
0.0
  0
LINE
  5
286D
  8
0
 10
137.50000000000011
 20
69.131609255781598
 30
0.0
 11
143.50000000000011
 21
69.131609255781598
 31
0.0
  0
LINE
  5
286E
  8
0
 10
142.50000000000011
 20
68.131609255781584
 30
0.0
 11
138.50000000000011
 21
68.131609255781584
 31
0.0
  0
LINE
  5
286F
  8
3
 10
142.95850000000021
 20
68.59010925578167
 30
0.0
 11
142.95850000000021
 21
120.1316092557816
 31
0.0
  0
LINE
  5
2870
  8
3
 10
138.04150000000001
 20
68.590109255781684
 30
0.0
 11
138.04150000000001
 21
120.1316092557816
 31
0.0
  0
LINE
  5
2871
  8
0
 10
137.69999999999999
 20
125.5361242386471
 30
0.0
 11
137.69999999999999
 21
124.13112317158161
 31
0.0
  0
LINE
  5
2872
  8
0
 10
143.30000000000001
 20
124.13112317158161
 30
0.0
 11
143.30000000000001
 21
125.5355836883639
 31
0.0
  0
LINE
  5
2873
  8
0
 10
137.69999999999999
 20
124.13112317158161
 30
0.0
 11
143.30000000000001
 21
124.13112317158161
 31
0.0
  0
CIRCLE
  5
28B7
  8
3
 10
53.402915810895081
 20
41.114242355081643
 30
0.0
 40
2.4585000000000861
  0
CIRCLE
  5
28B8
  8
0
 10
53.402915810895081
 20
41.114242355081643
 30
0.0
 40
3.0
  0
ARC
  5
28B9
  8
3
 10
53.402915810895081
 20
171.11424235508159
 30
0.0
 40
2.4585000000000861
 50
102.9272474839247
 51
257.07275251607518
  0
ARC
  5
28BA
  8
3
 10
53.402915810895081
 20
171.11424235508159
 30
0.0
 40
2.4585000000000861
 50
282.92724748392391
 51
77.072752516076051
  0
ENDSEC
  0
EOF
