  0
SECTION
  2
HEADER
  9
$ACADVER
  1
AC1009
  9
$INSBASE
 10
0.0
 20
0.0
 30
0.0
  9
$EXTMIN
 10
0.0
 20
-2.960436562073669
 30
0.0
  9
$EXTMAX
 10
405.7775130216034
 20
302.00000748038292
 30
0.0
  9
$LIMMIN
 10
0.0
 20
0.0
  9
$LIMMAX
 10
375.0
 20
270.0
  9
$ORTHOMODE
 70
     1
  9
$REGENMODE
 70
     1
  9
$FILLMODE
 70
     1
  9
$QTEXTMODE
 70
     0
  9
$MIRRTEXT
 70
     0
  9
$DRAGMODE
 70
     2
  9
$LTSCALE
 40
10.0
  9
$OSMODE
 70
  3071
  9
$ATTMODE
 70
     1
  9
$TEXTSIZE
 40
6.0
  9
$TRACEWID
 40
0.05
  9
$TEXTSTYLE
  7
STANDARD
  9
$CLAYER
  8
0
  9
$CELTYPE
  6
BYLAYER
  9
$CECOLOR
 62
   256
  9
$DIMSCALE
 40
1.0
  9
$DIMASZ
 40
3.0
  9
$DIMEXO
 40
2.0
  9
$DIMDLI
 40
0.3799999999999999
  9
$DIMRND
 40
0.0
  9
$DIMDLE
 40
0.0
  9
$DIMEXE
 40
2.0
  9
$DIMTP
 40
0.0
  9
$DIMTM
 40
0.0
  9
$DIMTXT
 40
3.2000000000000002
  9
$DIMCEN
 40
0.09
  9
$DIMTSZ
 40
0.0
  9
$DIMTOL
 70
     0
  9
$DIMLIM
 70
     0
  9
$DIMTIH
 70
     0
  9
$DIMTOH
 70
     0
  9
$DIMSE1
 70
     0
  9
$DIMSE2
 70
     0
  9
$DIMTAD
 70
     1
  9
$DIMZIN
 70
     9
  9
$DIMBLK
  1

  9
$DIMASO
 70
     0
  9
$DIMSHO
 70
     0
  9
$DIMPOST
  1

  9
$DIMAPOST
  1

  9
$DIMALT
 70
     0
  9
$DIMALTD
 70
     2
  9
$DIMALTF
 40
25.399999999999999
  9
$DIMLFAC
 40
1.0
  9
$DIMTOFL
 70
     0
  9
$DIMTVP
 40
0.0
  9
$DIMTIX
 70
     0
  9
$DIMSOXD
 70
     0
  9
$DIMSAH
 70
     0
  9
$DIMBLK1
  1

  9
$DIMBLK2
  1

  9
$DIMSTYLE
  2
STANDARD
  9
$DIMCLRD
 70
     0
  9
$DIMCLRE
 70
     0
  9
$DIMCLRT
 70
     0
  9
$DIMTFAC
 40
1.0
  9
$DIMGAP
 40
0.09
  9
$LUNITS
 70
     2
  9
$LUPREC
 70
     4
  9
$SKETCHINC
 40
0.1
  9
$FILLETRAD
 40
20.0
  9
$AUNITS
 70
     0
  9
$AUPREC
 70
     3
  9
$MENU
  1
E:\r13\win\SUPPORT\ACAD
  9
$ELEVATION
 40
0.0
  9
$PELEVATION
 40
0.0
  9
$THICKNESS
 40
0.0
  9
$LIMCHECK
 70
     0
  9
$BLIPMODE
 70
     0
  9
$CHAMFERA
 40
0.0
  9
$CHAMFERB
 40
0.0
  9
$SKPOLY
 70
     0
  9
$TDCREATE
 40
2449840.6320370371
  9
$TDUPDATE
 40
2456598.4296904509
  9
$TDINDWG
 40
0.9745526273
  9
$TDUSRTIMER
 40
0.9745526273
  9
$USRTIMER
 70
     1
  9
$ANGBASE
 50
0.0
  9
$ANGDIR
 70
     0
  9
$PDMODE
 70
     0
  9
$PDSIZE
 40
0.0
  9
$PLINEWID
 40
0.0
  9
$COORDS
 70
     1
  9
$SPLFRAME
 70
     0
  9
$SPLINETYPE
 70
     6
  9
$SPLINESEGS
 70
     8
  9
$ATTDIA
 70
     0
  9
$ATTREQ
 70
     1
  9
$HANDLING
 70
     1
  9
$HANDSEED
  5
1566E
  9
$SURFTAB1
 70
     6
  9
$SURFTAB2
 70
     6
  9
$SURFTYPE
 70
     6
  9
$SURFU
 70
     6
  9
$SURFV
 70
     6
  9
$UCSNAME
  2

  9
$UCSORG
 10
0.0
 20
0.0
 30
0.0
  9
$UCSXDIR
 10
1.0
 20
0.0
 30
0.0
  9
$UCSYDIR
 10
0.0
 20
1.0
 30
0.0
  9
$PUCSNAME
  2

  9
$PUCSORG
 10
0.0
 20
0.0
 30
0.0
  9
$PUCSXDIR
 10
1.0
 20
0.0
 30
0.0
  9
$PUCSYDIR
 10
0.0
 20
1.0
 30
0.0
  9
$USERI1
 70
     0
  9
$USERI2
 70
     1
  9
$USERI3
 70
     0
  9
$USERI4
 70
     0
  9
$USERI5
 70
     0
  9
$USERR1
 40
0.0
  9
$USERR2
 40
0.0
  9
$USERR3
 40
0.0
  9
$USERR4
 40
0.0
  9
$USERR5
 40
0.0
  9
$WORLDVIEW
 70
     1
  9
$SHADEDGE
 70
     3
  9
$SHADEDIF
 70
    70
  9
$TILEMODE
 70
     1
  9
$MAXACTVP
 70
    16
  9
$PLIMCHECK
 70
     0
  9
$PEXTMIN
 10
1.0000000000000000E+020
 20
1.0000000000000000E+020
 30
1.0000000000000000E+020
  9
$PEXTMAX
 10
-1.0000000000000000E+020
 20
-1.0000000000000000E+020
 30
-1.0000000000000000E+020
  9
$PLIMMIN
 10
0.0
 20
0.0
  9
$PLIMMAX
 10
12.0
 20
9.0
  9
$UNITMODE
 70
     0
  9
$VISRETAIN
 70
     0
  9
$PLINEGEN
 70
     0
  9
$PSLTSCALE
 70
     0
  0
ENDSEC
  0
SECTION
  2
TABLES
  0
TABLE
  2
VPORT
 70
     1
  0
VPORT
  2
*ACTIVE
 70
     0
 10
0.0
 20
0.0
 11
1.0
 21
1.0
 12
202.8887574555761
 22
167.2368642189783
 13
0.0
 23
0.0
 14
10.0
 24
10.0
 15
10.0
 25
10.0
 16
0.0
 26
0.0
 36
1.0
 17
0.0
 27
0.0
 37
0.0
 40
344.71224940295127
 41
2.304913294797688
 42
50.0
 43
0.0
 44
0.0
 50
0.0
 51
0.0
 71
     0
 72
   500
 73
     1
 74
     0
 75
     0
 76
     0
 77
     0
 78
     0
  0
ENDTAB
  0
TABLE
  2
LTYPE
 70
     3
  0
LTYPE
  2
CONTINUOUS
 70
     0
  3
Solid Line
 72
    65
 73
     0
 40
0.0
  0
LTYPE
  2
CENTER
 70
     0
  3
____ _ ____ _ ____ _ ____ _ ____ _ ____ _ ____
 72
    65
 73
     4
 40
2.0
 49
1.25
 49
-0.25
 49
0.25
 49
-0.25
  0
LTYPE
  2
PHANTOM2
 70
     0
  3
___ _ _ ___ _ _ ___ _ _ ___ _ _
 72
    65
 73
     6
 40
1.25
 49
0.625
 49
-0.125
 49
0.125
 49
-0.125
 49
0.125
 49
-0.125
  0
ENDTAB
  0
TABLE
  2
LAYER
 70
     4
  0
LAYER
  2
0
 70
     0
 62
     7
  6
CONTINUOUS
  0
LAYER
  2
1
 70
     0
 62
     1
  6
CENTER
  0
LAYER
  2
DEFPOINTS
 70
     0
 62
     7
  6
CONTINUOUS
  0
LAYER
  2
3
 70
     0
 62
     3
  6
CONTINUOUS
  0
ENDTAB
  0
TABLE
  2
STYLE
 70
     2
  0
STYLE
  2
STANDARD
 70
     0
 40
0.0
 41
1.0
 50
0.0
 71
     0
 42
6.0
  3
TXT
  4
BIGFONT
  0
STYLE
  2
STANDARD1
 70
     0
 40
0.0
 41
1.0
 50
0.0
 71
     0
 42
3.0
  3
txt
  4

  0
ENDTAB
  0
TABLE
  2
VIEW
 70
     1
  0
VIEW
  2
ALL
 70
     0
 40
270.0
 10
213.25689075630251
 20
135.0
 41
0.0
 11
0.0
 21
0.0
 31
1.0
 12
0.0
 22
0.0
 32
0.0
 42
0.0
 43
0.0
 44
0.0
 50
0.0
 71
     0
  0
ENDTAB
  0
TABLE
  2
UCS
 70
     0
  0
ENDTAB
  0
TABLE
  2
APPID
 70
     6
  0
APPID
  2
ACAD
 70
     0
  0
APPID
  2
ACAD_EXEMPT_FROM_CAD_STANDARDS
 70
     0
  0
APPID
  2
ACAD_MLEADERVER
 70
     0
  0
APPID
  2
ACAD_DSTYLE_DIMJAG
 70
     0
  0
APPID
  2
ACAD_DSTYLE_DIMTALN
 70
     0
  0
APPID
  2
ACAD_NAV_VCDISPLAY
 70
     0
  0
ENDTAB
  0
TABLE
  2
DIMSTYLE
 70
     1
  0
DIMSTYLE
  2
STANDARD
 70
     0
  3

  4

  5

  6

  7

 40
1.0
 41
0.18
 42
0.0625
 43
0.38
 44
0.18
 45
0.0
 46
0.0
 47
0.0
 48
0.0
140
0.18
141
0.09
142
0.0
143
25.399999999999999
144
1.0
145
0.0
146
1.0
147
0.09
 71
     0
 72
     0
 73
     1
 74
     1
 75
     0
 76
     0
 77
     0
 78
     0
170
     0
171
     2
172
     0
173
     0
174
     0
175
     0
176
     0
177
     0
178
     0
  0
ENDTAB
  0
ENDSEC
  0
SECTION
  2
BLOCKS
  0
BLOCK
  8
0
  2
$MODEL_SPACE
 70
     0
 10
0.0
 20
0.0
 30
0.0
  3
$MODEL_SPACE
  1

  0
ENDBLK
  5
126
  8
0
  0
BLOCK
 67
     1
  8
0
  2
$PAPER_SPACE
 70
     0
 10
0.0
 20
0.0
 30
0.0
  3
$PAPER_SPACE
  1

  0
ENDBLK
  5
124
 67
     1
  8
0
  0
ENDSEC
  0
SECTION
  2
ENTITIES
  0
LINE
  5
C5D5
  8
0
 10
210.68749495781981
 20
258.00000585615641
 30
0.0
 11
211.58751019276701
 21
258.00000585615641
 31
0.0
  0
LINE
  5
C5D6
  8
0
 10
211.58751019276701
 20
271.00000612437731
 30
0.0
 11
210.68749495781981
 21
271.00000612437731
 31
0.0
  0
LINE
  5
C5D7
  8
0
 10
211.58751019276701
 20
258.00000585615641
 30
0.0
 11
211.78750985302051
 21
258.20000598207122
 31
0.0
  0
LINE
  5
C5D8
  8
0
 10
211.78750985302051
 20
270.8000059984625
 30
0.0
 11
211.58751019276701
 21
271.00000612437731
 31
0.0
  0
LINE
  5
C5DD
  8
0
 10
284.77751010097592
 20
266.93712955340737
 30
0.0
 11
284.77751010097592
 21
270.26374720036978
 31
0.0
  0
ARC
  5
C5DE
  8
0
 10
282.7936934000092
 20
266.943319897263
 30
0.0
 40
1.9838263591834271
 50
331.52410223852439
 51
359.8212136104558
  0
ARC
  5
C5DF
  8
0
 10
282.9192420109116
 20
270.27610995690918
 30
0.0
 40
1.858309213317394
 50
359.61882608512008
 51
21.46701046319086
  0
ARC
  5
C5E0
  8
0
 10
272.32416485971481
 20
265.9508404542363
 30
0.0
 40
0.2788174782772829
 50
349.0749556138328
 51
51.904213170372579
  0
ARC
  5
C5E1
  8
0
 10
275.0850258788671
 20
264.79704002148401
 30
0.0
 40
0.29865693574616
 50
67.341419306020654
 51
124.77685933997751
  0
ARC
  5
C5E2
  8
0
 10
272.28436682963388
 20
275.8965084332761
 30
0.0
 40
0.3000000000159871
 50
279.39757769015807
 51
358.48796935099358
  0
ARC
  5
C5E3
  8
0
 10
273.83384722685201
 20
265.71089813719323
 30
0.0
 40
1.250000000000056
 50
171.39163908861269
 51
180.00000000000239
  0
ARC
  5
C5E4
  8
0
 10
273.83384722685201
 20
265.71089813719323
 30
0.0
 40
1.2499999999999629
 50
311.20857684350699
 51
323.78026715410749
  0
ARC
  5
C5E5
  8
0
 10
273.83107704597819
 20
265.71084936614892
 30
0.0
 40
1.2472298200797911
 50
179.9977595348027
 51
183.98609787439679
  0
ARC
  5
C5E6
  8
0
 10
273.83385021565209
 20
275.85637678320938
 30
0.0
 40
1.2500030498375221
 50
164.7019141682639
 51
178.52318598197161
  0
ARC
  5
C5E7
  8
0
 10
273.83384722685201
 20
275.8563774159465
 30
0.0
 40
1.249999999999982
 50
21.423509941630162
 51
34.999423493073792
  0
ARC
  5
C5E8
  8
0
 10
274.45937260142091
 20
264.99590302862009
 30
0.0
 40
0.3000000002427618
 50
244.52863335408091
 51
311.15383138836972
  0
ARC
  5
C5E9
  8
0
 10
272.88605336715358
 20
265.64619265548532
 30
0.0
 40
0.3000000000809134
 50
184.21384440671159
 51
250.4681569757623
  0
ARC
  5
C5EA
  8
0
 10
272.9166688485036
 20
276.10391966171608
 30
0.0
 40
0.3000022066792009
 50
99.638662679879985
 51
163.32737301963391
  0
ARC
  5
C5EB
  8
0
 10
274.61190733848071
 20
276.40144680860232
 30
0.0
 40
0.3000134873328694
 50
35.019330725442671
 51
100.2696915708737
  0
ARC
  5
C5EC
  8
0
 10
270.29458129547629
 20
275.58037300859792
 30
0.0
 40
0.3000150080118133
 50
199.111817787555
 51
278.6322502913431
  0
ARC
  5
C5ED
  8
0
 10
267.2864693257913
 20
275.15217433700178
 30
0.0
 40
0.300007548457239
 50
277.57742478155052
 51
356.70471542841261
  0
ARC
  5
C5EE
  8
0
 10
275.284089352509
 20
276.42698487573978
 30
0.0
 40
0.308424256435305
 50
201.6990210480713
 51
276.96949435705062
  0
ARC
  5
C5EF
  8
0
 10
277.3865577935556
 20
276.52285002366818
 30
0.0
 40
0.2898248051992571
 50
288.38943975169758
 51
341.67460678738001
  0
POLYLINE
  5
C5F0
  8
0
 66
     1
 10
0.0
 20
0.0
 30
0.0
 70
   128
  0
VERTEX
  5
14B95
  8
0
 10
280.24477058090292
 20
275.51071055233479
 30
0.0
  0
VERTEX
  5
14B96
  8
0
 10
280.24489724077313
 20
275.51065281033522
 30
0.0
  0
VERTEX
  5
14B97
  8
0
 10
280.24397336877911
 20
275.51107469946152
 30
0.0
  0
VERTEX
  5
14B98
  8
0
 10
280.24252795614331
 20
275.51173966377968
 30
0.0
  0
VERTEX
  5
14B99
  8
0
 10
280.24073981679999
 20
275.51257878541952
 30
0.0
  0
VERTEX
  5
14B9A
  8
0
 10
280.23807250894629
 20
275.51385655999178
 30
0.0
  0
VERTEX
  5
14B9B
  8
0
 10
280.23210459388821
 20
275.51682841032738
 30
0.0
  0
VERTEX
  5
14B9C
  8
0
 10
280.19812249578558
 20
275.5371880531311
 30
0.0
  0
VERTEX
  5
14B9D
  8
0
 10
280.16548150219052
 20
275.56334052234888
 30
0.0
  0
VERTEX
  5
14B9E
  8
0
 10
280.11071228422247
 20
275.63110820949078
 30
0.0
  0
VERTEX
  5
14B9F
  8
0
 10
280.07661097683041
 20
275.7163922116161
 30
0.0
  0
VERTEX
  5
14BA0
  8
0
 10
280.07091128267371
 20
275.81811964511871
 30
0.0
  0
VERTEX
  5
14BA1
  8
0
 10
280.0719022098931
 20
275.8251203969121
 30
0.0
  0
SEQEND
  5
14BA2
  8
0
  0
ARC
  5
C5F1
  8
0
 10
268.83378508059258
 20
275.06195771603069
 30
0.0
 40
1.2499361238911739
 50
162.6913531392434
 51
176.65315303029169
  0
ARC
  5
C5F2
  8
0
 10
268.8338482455415
 20
275.06194287558208
 30
0.0
 40
1.2499988951035961
 50
19.643177637595851
 51
33.155213732412349
  0
ARC
  5
C5F3
  8
0
 10
269.62913400572688
 20
275.58157590912691
 30
0.0
 40
0.3000000000016115
 50
33.139222928425539
 51
98.425380863900287
  0
ARC
  5
C5F4
  8
0
 10
267.92525515601642
 20
275.33878754896068
 30
0.0
 40
0.3002462038614015
 50
97.798180517958158
 51
161.5441953296795
  0
ARC
  5
C5F5
  8
0
 10
278.83387134711393
 20
275.99750671933981
 30
0.0
 40
1.2500271146846369
 50
143.97417303549619
 51
159.67362758023
  0
ARC
  5
C5F6
  8
0
 10
278.83384722685167
 20
275.99751966361339
 30
0.0
 40
1.2500000000000451
 50
352.07640907392442
 51
8.1712611997710916
  0
ARC
  5
C5F7
  8
0
 10
278.0655647530532
 20
276.55630588429671
 30
0.0
 40
0.3000000000142342
 50
81.821529021201314
 51
143.98381709399109
  0
ARC
  5
C5F8
  8
0
 10
279.77453462789282
 20
276.13021183849708
 30
0.0
 40
0.3000000001217692
 50
8.7450097385470915
 51
70.321362344835521
  0
ARC
  5
C5F9
  8
0
 10
270.30136707033989
 20
266.43537080284551
 30
0.0
 40
0.3000029558629798
 50
79.787588982508467
 51
161.2241355071792
  0
ARC
  5
C5FA
  8
0
 10
280.30445813283058
 20
263.0048282260592
 30
0.0
 40
0.2573251062989322
 50
114.5977956320088
 51
171.72723665619509
  0
POLYLINE
  5
C5FB
  8
0
 66
     1
 10
0.0
 20
0.0
 30
0.0
 70
   128
  0
VERTEX
  5
14BA3
  8
0
 10
277.4015373178816
 20
263.80682825092089
 30
0.0
  0
VERTEX
  5
14BA4
  8
0
 10
277.42500149644928
 20
263.7784832087346
 30
0.0
  0
VERTEX
  5
14BA5
  8
0
 10
277.42632769979559
 20
263.7778405379504
 30
0.0
  0
VERTEX
  5
14BA6
  8
0
 10
277.42816054262238
 20
263.77693302230909
 30
0.0
  0
VERTEX
  5
14BA7
  8
0
 10
277.4304329697045
 20
263.77578435232863
 30
0.0
  0
VERTEX
  5
14BA8
  8
0
 10
277.43385278619849
 20
263.77401227829978
 30
0.0
  0
VERTEX
  5
14BA9
  8
0
 10
277.44341188110428
 20
263.76875088782981
 30
0.0
  0
VERTEX
  5
14BAA
  8
0
 10
277.48160355724423
 20
263.74272024724633
 30
0.0
  0
VERTEX
  5
14BAB
  8
0
 10
277.51804434694373
 20
263.7081308686175
 30
0.0
  0
VERTEX
  5
14BAC
  8
0
 10
277.55946212448202
 20
263.64839531481272
 30
0.0
  0
VERTEX
  5
14BAD
  8
0
 10
277.59078436531149
 20
263.55262852041051
 30
0.0
  0
VERTEX
  5
14BAE
  8
0
 10
277.59201183805658
 20
263.47420083091419
 30
0.0
  0
SEQEND
  5
14BAF
  8
0
  0
ARC
  5
C5FC
  8
0
 10
278.83384722685201
 20
263.33156539655312
 30
0.0
 40
1.250000000000056
 50
173.44780141902629
 51
180.0
  0
ARC
  5
C5FD
  8
0
 10
278.83384786093143
 20
263.33156519495969
 30
0.0
 40
1.2499993364628239
 50
329.63815556923481
 51
346.59873644470321
  0
ARC
  5
C5FE
  8
0
 10
278.83384722685201
 20
263.33156539655312
 30
0.0
 40
1.250000000000056
 50
180.0
 51
190.76778618213351
  0
ARC
  5
C5FF
  8
0
 10
268.83384722685201
 20
266.93425893560368
 30
0.0
 40
1.250000000000038
 50
328.5917146829517
 51
341.2179070591838
  0
ARC
  5
C600
  8
0
 10
268.83384722685201
 20
266.93425893560368
 30
0.0
 40
1.249999999999962
 50
188.69247142905419
 51
201.49376991080899
  0
ARC
  5
C601
  8
0
 10
269.64503970733222
 20
266.43888086169778
 30
0.0
 40
0.2995092507502624
 50
261.9445616105051
 51
328.60200801659653
  0
ARC
  5
C602
  8
0
 10
267.9559148796659
 20
266.59889049056238
 30
0.0
 40
0.3103916949862544
 50
203.27138008546191
 51
269.14079648779898
  0
ARC
  5
C603
  8
0
 10
279.65351417579558
 20
262.85130912068217
 30
0.0
 40
0.3000000011455728
 50
269.005467032041
 51
329.65367145392571
  0
ARC
  5
C604
  8
0
 10
277.90008273399991
 20
263.15668294604592
 30
0.0
 40
0.3000000001975874
 50
191.39552093382559
 51
251.4454011222966
  0
ARC
  5
C605
  8
0
 10
267.30165090862079
 20
266.7000059902673
 30
0.0
 40
0.3000000000000114
 50
8.6924714290541871
 51
90.0
  0
LINE
  5
C606
  8
0
 10
212.48423227109041
 20
267.50000601634378
 30
0.0
 11
211.78750985302051
 21
267.50000601634378
 31
0.0
  0
LINE
  5
C607
  8
0
 10
211.78750985302051
 20
261.50000596418982
 30
0.0
 11
212.0847917441281
 21
261.50000596418982
 31
0.0
  0
LINE
  5
C608
  8
0
 10
208.27751153148731
 20
256.50000561028719
 30
0.0
 11
210.1874939445409
 21
256.50000561028719
 31
0.0
  0
LINE
  5
C609
  8
0
 10
210.1874939445409
 20
272.50000637024641
 30
0.0
 11
208.27751153148731
 21
272.50000637024641
 31
0.0
  0
LINE
  5
C60A
  8
0
 10
210.1874939445409
 20
256.50000561028719
 30
0.0
 11
210.68749495781981
 21
257.00000615790492
 31
0.0
  0
LINE
  5
C60B
  8
0
 10
210.68749495781981
 20
272.00000582262868
 30
0.0
 11
210.1874939445409
 21
272.50000637024641
 31
0.0
  0
LINE
  5
C60C
  8
0
 10
221.200159871951
 20
263.50000594276941
 30
0.0
 11
222.35486202873309
 21
263.50000594276941
 31
0.0
  0
LINE
  5
C60D
  8
0
 10
222.35486202873309
 20
265.50000603776431
 30
0.0
 11
221.200159871951
 21
265.50000603776431
 31
0.0
  0
LINE
  5
C60F
  8
0
 10
222.9322149697694
 20
264.5000059902668
 30
0.0
 11
222.35486202873309
 21
265.50000603776431
 31
0.0
  0
LINE
  5
C610
  8
0
 10
222.35486202873309
 20
263.50000594276941
 30
0.0
 11
222.9322149697694
 21
264.5000059902668
 31
0.0
  0
LINE
  5
C611
  8
0
 10
220.6228106562051
 20
264.5000059902668
 30
0.0
 11
221.200159871951
 21
263.50000594276941
 31
0.0
  0
LINE
  5
C612
  8
0
 10
221.200159871951
 20
265.50000603776431
 30
0.0
 11
220.6228106562051
 21
264.5000059902668
 31
0.0
  0
LINE
  5
C614
  8
0
 10
211.58751019276701
 20
258.00000585615641
 30
0.0
 11
211.58751019276701
 21
270.99980914965272
 31
0.0
  0
LINE
  5
C615
  8
0
 10
211.78750985302051
 20
270.79981554299587
 30
0.0
 11
211.78750985302051
 21
258.20000598207122
 31
0.0
  0
ARC
  5
C616
  8
0
 10
195.13044712197799
 20
255.53804784755221
 30
0.0
 40
2.851313406453754
 50
142.5032314598599
 51
170.7510319717511
  0
LINE
  5
C617
  8
0
 10
192.31620349921309
 20
255.99632494151589
 30
0.0
 11
193.4222384635361
 21
255.9971649944782
 31
0.0
  0
LINE
  5
C618
  8
0
 10
189.9219352100047
 20
255.9945060685277
 30
0.0
 11
189.92008187808119
 21
258.43544945120811
 31
0.0
  0
ARC
  5
C619
  8
0
 10
190.41720021177571
 20
251.5366347790235
 30
0.0
 40
3.8172642562508798
 50
71.496483276654061
 51
81.129597981822187
  0
LINE
  5
C61A
  8
0
 10
191.60758250392999
 20
255.3087006136775
 30
0.0
 11
191.00582146085819
 21
255.30824333429339
 31
0.0
  0
LINE
  5
C61B
  8
0
 10
188.2970474008473
 20
255.30618511140349
 30
0.0
 11
187.1910124365242
 21
255.30534505844119
 31
0.0
  0
ARC
  5
C61C
  8
0
 10
190.3094514968061
 20
251.92954182821001
 30
0.0
 40
0.9161142857051459
 50
270.04356074218799
 51
90.043445193018783
  0
LINE
  5
C61D
  8
0
 10
189.92572010494791
 20
251.0131354257465
 30
0.0
 11
190.31014771200739
 21
251.0134278610349
 31
0.0
  0
LINE
  5
C61E
  8
0
 10
189.92619880475129
 20
250.38330711424351
 30
0.0
 11
189.92572010494791
 21
251.0131354257465
 31
0.0
  0
LINE
  5
C61F
  8
0
 10
190.31062641181069
 20
250.38359954953191
 30
0.0
 11
189.92619880475129
 21
250.38330711424351
 31
0.0
  0
ARC
  5
C620
  8
0
 10
190.39905929692691
 20
252.04204564635069
 30
0.0
 40
1.6608022945178771
 50
266.94772457243488
 51
344.10813616549592
  0
LINE
  5
C621
  8
0
 10
192.71388568915449
 20
251.5878257155419
 30
0.0
 11
191.9963873270901
 21
251.58727996051309
 31
0.0
  0
ARC
  5
C622
  8
0
 10
190.4371854756962
 20
252.0795531915046
 30
0.0
 40
2.3291970680757088
 50
266.8970350705693
 51
347.8123147831692
  0
LINE
  5
C623
  8
0
 10
189.9266756419095
 20
249.7534788027406
 30
0.0
 11
190.3111051116141
 21
249.753771238029
 31
0.0
  0
LINE
  5
C624
  8
0
 10
189.92715434171279
 20
249.1236504912377
 30
0.0
 11
189.9266756419095
 21
249.7534788027406
 31
0.0
  0
LINE
  5
C625
  8
0
 10
190.31158381141739
 20
249.1239429265261
 30
0.0
 11
189.92715434171279
 21
249.1236504912377
 31
0.0
  0
ARC
  5
C626
  8
0
 10
190.47500333084551
 20
252.1170605024389
 30
0.0
 40
2.9975757930068081
 50
266.87483505939662
 51
349.84137374400859
  0
LINE
  5
C627
  8
0
 10
194.13472631014909
 20
251.58890511840579
 30
0.0
 11
193.42558749951439
 21
251.58836588263509
 31
0.0
  0
ARC
  5
C628
  8
0
 10
190.3410832014558
 20
251.83927654576789
 30
0.0
 40
3.8018977258946398
 50
149.16608930843901
 51
356.22408712698569
  0
ARC
  5
C629
  8
0
 10
190.30645659188301
 20
255.87271926225981
 30
0.0
 40
3.8442857142472988
 50
327.24635697690621
 51
212.8406935685438
  0
ARC
  5
C62A
  8
0
 10
190.68479676713491
 20
251.7986519249481
 30
0.0
 40
3.482280259220226
 50
7.8787040467270621
 51
34.936701865274941
  0
LINE
  5
C62B
  8
0
 10
193.42506595887269
 20
252.27545190602541
 30
0.0
 11
194.13420476950731
 21
252.27599021047351
 31
0.0
  0
ARC
  5
C62C
  8
0
 10
190.475288040278
 20
251.7422748962974
 30
0.0
 40
2.9975757930068241
 50
10.24567680144335
 51
93.21221548604484
  0
LINE
  5
C62D
  8
0
 10
189.92289260961141
 20
254.7348494455218
 30
0.0
 11
190.3073202166708
 21
254.73514094948769
 31
0.0
  0
LINE
  5
C62E
  8
0
 10
189.92245675064649
 20
255.30742004513741
 30
0.0
 11
189.92289260961141
 21
254.7348494455218
 31
0.0
  0
LINE
  5
C62F
  8
0
 10
189.0061880741271
 20
255.3067243471742
 30
0.0
 11
189.92245675064649
 21
255.30742004513741
 31
0.0
  0
ARC
  5
C630
  8
0
 10
185.54602333944101
 20
255.79300539472121
 30
0.0
 40
3.4941677243450311
 50
320.07115526315408
 51
352.00021456259469
  0
ARC
  5
C631
  8
0
 10
190.19564973696379
 20
255.9430447125425
 30
0.0
 40
3.0994533356261438
 50
230.53217560829779
 51
272.09133621754643
  0
LINE
  5
C632
  8
0
 10
187.1904908958825
 20
255.99243108183151
 30
0.0
 11
188.2965239975604
 21
255.99327113479379
 31
0.0
  0
ARC
  5
C633
  8
0
 10
190.43804185637711
 20
255.36073722818969
 30
0.0
 40
3.0855140002407908
 50
50.810202446700821
 51
85.335888723172374
  0
LINE
  5
C634
  8
0
 10
190.6889389548453
 20
258.4360333904624
 30
0.0
 11
190.69079228676881
 21
255.99509000778201
 31
0.0
  0
LINE
  5
C635
  8
0
 10
190.69079228676881
 20
255.99509000778201
 30
0.0
 11
191.60706096328821
 21
255.99578570574519
 31
0.0
  0
ARC
  5
C636
  8
0
 10
190.61915272358871
 20
255.75124314334349
 30
0.0
 40
2.838104455194348
 50
329.729058316541
 51
351.05750239331621
  0
ARC
  5
C637
  8
0
 10
195.1078285745993
 20
255.72699145202179
 30
0.0
 40
2.8221936627701809
 50
188.51243141082071
 51
199.4991308438222
  0
ARC
  5
C638
  8
0
 10
190.57040978080519
 20
251.61776546216541
 30
0.0
 40
3.681658045772469
 50
47.233819826918257
 51
59.346264167636747
  0
ARC
  5
C639
  8
0
 10
190.60869290846969
 20
255.53461285417461
 30
0.0
 40
2.851313406453674
 50
9.3360185736938348
 51
37.583819085590498
  0
ARC
  5
C63A
  8
0
 10
190.0045567500801
 20
255.7678972267241
 30
0.0
 40
2.8513134064537389
 50
189.33601857369621
 51
217.58381908559051
  0
ARC
  5
C63B
  8
0
 10
185.4828025365718
 20
255.76446223334651
 30
0.0
 40
2.8513134064537091
 50
322.50323145985988
 51
350.75103197175412
  0
LINE
  5
C63C
  8
0
 10
193.42276000417789
 20
255.3100789710879
 30
0.0
 11
192.3167250398549
 21
255.3092389181256
 31
0.0
  0
ARC
  5
C63D
  8
0
 10
185.54624419782931
 20
255.50227198201179
 30
0.0
 40
3.4941677243450049
 50
8.0868359828576057
 51
40.01589528229362
  0
ARC
  5
C63E
  8
0
 10
190.17564934280509
 20
255.36053789923369
 30
0.0
 40
3.0855140002407722
 50
94.751161822269793
 51
129.27684809874489
  0
LINE
  5
C63F
  8
0
 10
189.00566653348531
 20
255.99380943924189
 30
0.0
 11
189.9219352100047
 21
255.9945060685277
 31
0.0
  0
ARC
  5
C640
  8
0
 10
195.02660662759149
 20
255.70478041699721
 30
0.0
 40
3.441888582363708
 50
186.6080300229217
 51
189.1650058665885
  0
ARC
  5
C641
  8
0
 10
185.48298010178681
 20
255.53071905793641
 30
0.0
 40
2.8513134064536869
 50
9.3360185736938348
 51
37.583819085590498
  0
ARC
  5
C642
  8
0
 10
190.00473431529511
 20
255.534154051314
 30
0.0
 40
2.8513134064537931
 50
142.5032314598605
 51
170.7510319717548
  0
ARC
  5
C643
  8
0
 10
195.06722631910841
 20
255.50950468617731
 30
0.0
 40
3.4941677243449298
 50
140.07115526315221
 51
172.0002145625923
  0
ARC
  5
C644
  8
0
 10
189.63537056389671
 20
267.2353942916597
 30
0.0
 40
2.223020947430236
 50
87.418080654135167
 51
215.39795309899901
  0
LINE
  5
C645
  8
0
 10
193.2861349824818
 20
269.45885585620999
 30
0.0
 11
189.7355123702439
 21
269.45615828037262
 31
0.0
  0
LINE
  5
C646
  8
0
 10
193.2874053064736
 20
267.78885617852211
 30
0.0
 11
193.2861349824818
 21
269.45885585620999
 31
0.0
  0
LINE
  5
C647
  8
0
 10
189.73678083159049
 20
267.78615906834602
 30
0.0
 11
193.2874053064736
 21
267.78885617852211
 31
0.0
  0
ARC
  5
C648
  8
0
 10
189.73716186218161
 20
267.28515913271889
 30
0.0
 40
0.5009999999950109
 50
90.043525272713381
 51
270.04352527272641
  0
LINE
  5
C649
  8
0
 10
193.28816526569449
 20
266.78685646504158
 30
0.0
 11
189.7375426534565
 21
266.78415935486561
 31
0.0
  0
LINE
  5
C64A
  8
0
 10
193.28943558968629
 20
265.1168570201844
 30
0.0
 11
193.28816526569449
 21
266.78685646504158
 31
0.0
  0
LINE
  5
C64B
  8
0
 10
189.73881111480321
 20
265.11415973538527
 30
0.0
 11
193.28943558968629
 21
265.1168570201844
 31
0.0
  0
ARC
  5
C64C
  8
0
 10
189.739191671681
 20
264.61315990372759
 30
0.0
 40
0.5009999999949824
 50
90.043525272713381
 51
270.0435252727134
  0
LINE
  5
C64D
  8
0
 10
193.2914658728989
 20
262.44485786184669
 30
0.0
 11
193.29019554890709
 21
264.11485730670393
 31
0.0
  0
LINE
  5
C64E
  8
0
 10
189.74084139801579
 20
262.44216051884001
 30
0.0
 11
193.2914658728989
 21
262.44485786184669
 31
0.0
  0
ARC
  5
C64F
  8
0
 10
189.6373248822585
 20
264.66277003399341
 30
0.0
 40
2.2230209474302729
 50
144.68909744645151
 51
272.66896989130709
  0
LINE
  5
C650
  8
0
 10
193.29019554890709
 20
264.11485730670393
 30
0.0
 11
189.73957293666919
 21
264.11216005100869
 31
0.0
  0
LINE
  5
C651
  8
0
 10
193.29323911108099
 20
260.10685868561268
 30
0.0
 11
193.29197251237949
 21
261.77685789763927
 31
0.0
  0
LINE
  5
C652
  8
0
 10
187.31324293650709
 20
260.1023156940937
 30
0.0
 11
193.29323911108099
 21
260.10685868561268
 31
0.0
  0
LINE
  5
C653
  8
0
 10
187.3119744751605
 20
261.772315138951
 30
0.0
 11
187.31324293650709
 21
260.1023156940937
 31
0.0
  0
LINE
  5
C654
  8
0
 10
193.29197251237949
 20
261.77685789763927
 30
0.0
 11
187.3119744751605
 21
261.772315138951
 31
0.0
  0
LINE
  5
C655
  8
0
 10
191.99586578644829
 20
252.27436598390341
 30
0.0
 11
192.71336414851271
 21
252.27491080760959
 31
0.0
  0
LINE
  5
C656
  8
0
 10
190.30779891647421
 20
254.10531263798481
 30
0.0
 11
189.9233713094147
 21
254.10502020269629
 31
0.0
  0
ARC
  5
C657
  8
0
 10
190.3992301225862
 20
251.81717428266469
 30
0.0
 40
1.6608022945178069
 50
15.978914379951711
 51
93.139325973021144
  0
LINE
  5
C658
  8
0
 10
189.92385000921811
 20
253.47519189119339
 30
0.0
 11
190.30827761627759
 21
253.47548432648179
 31
0.0
  0
LINE
  5
C659
  8
0
 10
189.9233713094147
 20
254.10502020269629
 30
0.0
 11
189.92385000921811
 21
253.47519189119339
 31
0.0
  0
ARC
  5
C65A
  8
0
 10
190.43741324324191
 20
251.7797247065923
 30
0.0
 40
2.3291970680757599
 50
12.274735762278359
 51
93.190015474874471
  0
ARC
  5
C65B
  8
0
 10
189.73335550057229
 20
272.29515768672189
 30
0.0
 40
0.5009999999952614
 50
90.04347165964468
 51
270.04357888580819
  0
LINE
  5
C65C
  8
0
 10
189.73373726941671
 20
271.79415792226791
 30
0.0
 11
190.4812372568997
 21
271.7947255633772
 31
0.0
  0
LINE
  5
C65D
  8
0
 10
190.4804754350337
 20
272.7967257425189
 30
0.0
 11
189.73297544755059
 21
272.79615763574839
 31
0.0
  0
LINE
  5
C65E
  8
0
 10
193.2835980597886
 20
272.79885474592447
 30
0.0
 11
193.2823314610871
 21
274.46885395795113
 31
0.0
  0
LINE
  5
C65F
  8
0
 10
190.4812372568997
 20
271.7947255633772
 30
0.0
 11
190.4804754350337
 21
272.7967257425189
 31
0.0
  0
LINE
  5
C660
  8
0
 10
193.28562834300121
 20
270.12685535475612
 30
0.0
 11
193.2843617442997
 21
271.796855032444
 31
0.0
  0
LINE
  5
C661
  8
0
 10
189.73500573076331
 20
270.12415824457997
 30
0.0
 11
193.28562834300121
 21
270.12685535475612
 31
0.0
  0
ARC
  5
C662
  8
0
 10
189.73335550057229
 20
272.29515768672189
 30
0.0
 40
2.170999999978366
 50
90.043512900469779
 51
270.04353764497
  0
LINE
  5
C663
  8
0
 10
193.2823314610871
 20
274.46885395795113
 30
0.0
 11
189.73170698620399
 21
274.46615684777498
 31
0.0
  0
LINE
  5
C664
  8
0
 10
191.9754735473546
 20
272.79786102473741
 30
0.0
 11
193.2835980597886
 21
272.79885474592447
 31
0.0
  0
LINE
  5
C665
  8
0
 10
191.9762372318657
 20
271.79586131125689
 30
0.0
 11
191.9754735473546
 21
272.79786102473741
 31
0.0
  0
LINE
  5
C666
  8
0
 10
193.2843617442997
 20
271.796855032444
 30
0.0
 11
191.9762372318657
 21
271.79586131125689
 31
0.0
  0
CIRCLE
  5
C667
  8
0
 10
190.48047516439709
 20
277.94528851929738
 30
0.0
 40
1.0019999999900051
  0
CIRCLE
  5
C668
  8
0
 10
190.48047516439709
 20
277.94528851929738
 30
0.0
 40
2.8499999999999939
  0
ARC
  5
C66D
  8
0
 10
246.77057663006281
 20
430.07591801061062
 30
0.0
 40
156.57615545318711
 50
272.53254605024438
 51
279.72476731155712
  0
ARC
  5
C66F
  8
0
 10
246.92461732905531
 20
422.9362108145944
 30
0.0
 40
151.4367014072462
 50
272.59366589507761
 51
279.95250186440109
  0
ARC
  5
C671
  8
0
 10
272.2772418686377
 20
271.00000589154661
 30
0.0
 40
1.5098786720877651
 50
57.085873015002193
 51
302.91412698499778
  0
ARC
  5
C673
  8
0
 10
267.02106079575969
 20
250.82174916017891
 30
0.0
 40
18.17825717561621
 50
70.471261235634373
 51
89.986044227356714
  0
LINE
  5
C674
  8
0
 10
253.77751433290561
 20
269.0000057965517
 30
0.0
 11
267.02548854984371
 21
269.0000057965517
 31
0.0
  0
ARC
  5
C677
  8
0
 10
267.33912555800163
 20
249.99381838271159
 30
0.0
 40
17.006187583826481
 50
70.905788939463974
 51
89.996476870868463
  0
POLYLINE
  5
C67A
  8
0
 66
     1
 10
0.0
 20
0.0
 30
0.0
 70
   128
  0
VERTEX
  5
14BB0
  8
0
 10
276.53129690326767
 20
273.0000064522028
 30
0.0
  0
VERTEX
  5
14BB1
  8
0
 10
276.58143186010437
 20
272.71640848368412
 30
0.0
  0
VERTEX
  5
14BB2
  8
0
 10
276.72897570766531
 20
272.46090013533831
 30
0.0
  0
VERTEX
  5
14BB3
  8
0
 10
276.95873671211331
 20
272.2659063339234
 30
0.0
  0
VERTEX
  5
14BB4
  8
0
 10
277.24219405092322
 20
272.15676696971059
 30
0.0
  0
VERTEX
  5
14BB5
  8
0
 10
277.54315280355542
 20
272.14605396613479
 30
0.0
  0
VERTEX
  5
14BB6
  8
0
 10
277.8252243343743
 20
272.23221248015761
 30
0.0
  0
VERTEX
  5
14BB7
  8
0
 10
278.05795812048041
 20
272.4019073694945
 30
0.0
  0
VERTEX
  5
14BB8
  8
0
 10
278.22041057981568
 20
272.6362095028162
 30
0.0
  0
VERTEX
  5
14BB9
  8
0
 10
278.29695039428788
 20
272.91174594312912
 30
0.0
  0
VERTEX
  5
14BBA
  8
0
 10
278.2964288536462
 20
273.09316664934158
 30
0.0
  0
VERTEX
  5
14BBB
  8
0
 10
278.21684175170981
 20
273.37130986154079
 30
0.0
  0
VERTEX
  5
14BBC
  8
0
 10
278.04557525552832
 20
273.6105303093791
 30
0.0
  0
VERTEX
  5
14BBD
  8
0
 10
277.80009352602087
 20
273.77987083047628
 30
0.0
  0
VERTEX
  5
14BBE
  8
0
 10
277.50974440015881
 20
273.85772101581102
 30
0.0
  0
VERTEX
  5
14BBF
  8
0
 10
277.210275763646
 20
273.83614785969257
 30
0.0
  0
VERTEX
  5
14BC0
  8
0
 10
276.93720453418808
 20
273.72094232589012
 30
0.0
  0
VERTEX
  5
14BC1
  8
0
 10
276.72007226385199
 20
273.52828055620188
 30
0.0
  0
VERTEX
  5
14BC2
  8
0
 10
276.58008330501639
 20
273.27986516058451
 30
0.0
  0
VERTEX
  5
14BC3
  8
0
 10
276.53129690326767
 20
273.0000064522028
 30
0.0
  0
SEQEND
  5
14BC4
  8
0
  0
CIRCLE
  5
C67B
  8
0
 10
277.37986349617631
 20
273.0023245522558
 30
0.0
 40
1.1327415593974921
  0
POLYLINE
  5
C67C
  8
0
 66
     1
 10
0.0
 20
0.0
 30
0.0
 70
   128
  0
VERTEX
  5
14BC5
  8
0
 10
276.53129690326767
 20
268.00000609830022
 30
0.0
  0
VERTEX
  5
14BC6
  8
0
 10
276.58143186010437
 20
267.71640812978148
 30
0.0
  0
VERTEX
  5
14BC7
  8
0
 10
276.72897570766531
 20
267.46090047992772
 30
0.0
  0
VERTEX
  5
14BC8
  8
0
 10
276.95873671211331
 20
267.26590644568211
 30
0.0
  0
VERTEX
  5
14BC9
  8
0
 10
277.24219405092322
 20
267.15676684863871
 30
0.0
  0
VERTEX
  5
14BCA
  8
0
 10
277.54315280355542
 20
267.1460543107242
 30
0.0
  0
VERTEX
  5
14BCB
  8
0
 10
277.8252243343743
 20
267.23221259191632
 30
0.0
  0
VERTEX
  5
14BCC
  8
0
 10
278.05795812048041
 20
267.4019074812532
 30
0.0
  0
VERTEX
  5
14BCD
  8
0
 10
278.22041057981568
 20
267.63620938174432
 30
0.0
  0
VERTEX
  5
14BCE
  8
0
 10
278.29695039428788
 20
267.91174582205713
 30
0.0
  0
VERTEX
  5
14BCF
  8
0
 10
278.2964288536462
 20
268.09316652826971
 30
0.0
  0
VERTEX
  5
14BD0
  8
0
 10
278.21684175170981
 20
268.3713099732995
 30
0.0
  0
VERTEX
  5
14BD1
  8
0
 10
278.04557525552832
 20
268.6105308867991
 30
0.0
  0
VERTEX
  5
14BD2
  8
0
 10
277.80009352602087
 20
268.77987094223499
 30
0.0
  0
VERTEX
  5
14BD3
  8
0
 10
277.50974440015881
 20
268.85772112756968
 30
0.0
  0
VERTEX
  5
14BD4
  8
0
 10
277.210275763646
 20
268.83614750579
 30
0.0
  0
VERTEX
  5
14BD5
  8
0
 10
276.93720453418808
 20
268.72094243764877
 30
0.0
  0
VERTEX
  5
14BD6
  8
0
 10
276.72007226385199
 20
268.52828020229941
 30
0.0
  0
VERTEX
  5
14BD7
  8
0
 10
276.58008330501639
 20
268.27986527234322
 30
0.0
  0
VERTEX
  5
14BD8
  8
0
 10
276.53129690326767
 20
268.00000609830022
 30
0.0
  0
SEQEND
  5
14BD9
  8
0
  0
CIRCLE
  5
C67D
  8
0
 10
277.37986356428502
 20
268.00232491287318
 30
0.0
 40
1.1327416289683381
  0
POLYLINE
  5
C680
  8
0
 66
     1
 10
0.0
 20
0.0
 30
0.0
 70
   128
  0
VERTEX
  5
14BDA
  8
0
 10
272.93706231750571
 20
270.8064777590335
 30
0.0
  0
VERTEX
  5
14BDB
  8
0
 10
272.95372926630102
 20
270.90403147041798
 30
0.0
  0
VERTEX
  5
14BDC
  8
0
 10
272.93706231750571
 20
271.19353402405977
 30
0.0
  0
SEQEND
  5
14BDD
  8
0
  0
POLYLINE
  5
C682
  8
0
 66
     1
 10
0.0
 20
0.0
 30
0.0
 70
   128
  0
VERTEX
  5
14BDE
  8
0
 10
273.23592000640951
 20
271.25464834272861
 30
0.0
  0
VERTEX
  5
14BDF
  8
0
 10
273.25720631517493
 20
270.87372343987232
 30
0.0
  0
VERTEX
  5
14BE0
  8
0
 10
273.23592000640951
 20
270.74536390602589
 30
0.0
  0
SEQEND
  5
14BE1
  8
0
  0
POLYLINE
  5
C685
  8
0
 66
     1
 10
0.0
 20
0.0
 30
0.0
 70
   128
  0
VERTEX
  5
14BE2
  8
0
 10
273.23592000640951
 20
270.74536390602589
 30
0.0
  0
VERTEX
  5
14BE3
  8
0
 10
273.09339039959042
 20
270.3937197849155
 30
0.0
  0
VERTEX
  5
14BE4
  8
0
 10
272.84544997848587
 20
270.1103681512177
 30
0.0
  0
VERTEX
  5
14BE5
  8
0
 10
272.52026938833319
 20
269.92772648110991
 30
0.0
  0
VERTEX
  5
14BE6
  8
0
 10
272.15503447689139
 20
269.86623264849192
 30
0.0
  0
VERTEX
  5
14BE7
  8
0
 10
271.79082029499142
 20
269.93217960000038
 30
0.0
  0
VERTEX
  5
14BE8
  8
0
 10
271.46818035282217
 20
270.11785179376602
 30
0.0
  0
VERTEX
  5
14BE9
  8
0
 10
271.22307115234457
 20
270.40266048163181
 30
0.0
  0
VERTEX
  5
14BEA
  8
0
 10
271.0832535568627
 20
270.7551334798336
 30
0.0
  0
VERTEX
  5
14BEB
  8
0
 10
271.06511884368979
 20
271.13586606457829
 30
0.0
  0
VERTEX
  5
14BEC
  8
0
 10
271.17128216661541
 20
271.50165837258101
 30
0.0
  0
VERTEX
  5
14BED
  8
0
 10
271.3897704426202
 20
271.8106427974999
 30
0.0
  0
VERTEX
  5
14BEE
  8
0
 10
271.69533365406119
 20
272.02758926898241
 30
0.0
  0
VERTEX
  5
14BEF
  8
0
 10
272.05281251110159
 20
272.12825126945972
 30
0.0
  0
VERTEX
  5
14BF0
  8
0
 10
272.42168330587469
 20
272.10190741345292
 30
0.0
  0
VERTEX
  5
14BF1
  8
0
 10
272.76084863580792
 20
271.95197518914938
 30
0.0
  0
VERTEX
  5
14BF2
  8
0
 10
273.0327575746926
 20
271.69520070776338
 30
0.0
  0
VERTEX
  5
14BF3
  8
0
 10
273.20710116066061
 20
271.35992364957929
 30
0.0
  0
VERTEX
  5
14BF4
  8
0
 10
273.23592000640951
 20
271.25464834272861
 30
0.0
  0
SEQEND
  5
14BF5
  8
0
  0
POLYLINE
  5
C686
  8
0
 66
     1
 10
0.0
 20
0.0
 30
0.0
 70
   128
  0
VERTEX
  5
14BF6
  8
0
 10
272.93706231750571
 20
271.19353402405977
 30
0.0
  0
VERTEX
  5
14BF7
  8
0
 10
272.91523956693732
 20
271.2735434807837
 30
0.0
  0
VERTEX
  5
14BF8
  8
0
 10
272.78321527875983
 20
271.52835380285978
 30
0.0
  0
VERTEX
  5
14BF9
  8
0
 10
272.57730358280259
 20
271.72350266948342
 30
0.0
  0
VERTEX
  5
14BFA
  8
0
 10
272.32045971788489
 20
271.8374509178102
 30
0.0
  0
VERTEX
  5
14BFB
  8
0
 10
272.04112255014502
 20
271.85747249051929
 30
0.0
  0
VERTEX
  5
14BFC
  8
0
 10
271.77041315473639
 20
271.78096946328878
 30
0.0
  0
VERTEX
  5
14BFD
  8
0
 10
271.53901302255713
 20
271.61608997732401
 30
0.0
  0
VERTEX
  5
14BFE
  8
0
 10
271.37355797924118
 20
271.38126164674759
 30
0.0
  0
VERTEX
  5
14BFF
  8
0
 10
271.29316621460038
 20
271.10325952991838
 30
0.0
  0
VERTEX
  5
14C00
  8
0
 10
271.3069348875436
 20
270.81372857093811
 30
0.0
  0
VERTEX
  5
14C01
  8
0
 10
271.4127778355035
 20
270.54602362215519
 30
0.0
  0
VERTEX
  5
14C02
  8
0
 10
271.59839414991461
 20
270.32956888899213
 30
0.0
  0
VERTEX
  5
14C03
  8
0
 10
271.84272103942948
 20
270.18845768645411
 30
0.0
  0
VERTEX
  5
14C04
  8
0
 10
272.11853408254711
 20
270.1383380964399
 30
0.0
  0
VERTEX
  5
14C05
  8
0
 10
272.39511453546612
 20
270.18507372587919
 30
0.0
  0
VERTEX
  5
14C06
  8
0
 10
272.64137112535559
 20
270.32388130202889
 30
0.0
  0
VERTEX
  5
14C07
  8
0
 10
272.82913320697872
 20
270.53922822698951
 30
0.0
  0
VERTEX
  5
14C08
  8
0
 10
272.93706231750571
 20
270.8064777590335
 30
0.0
  0
SEQEND
  5
14C09
  8
0
  0
ARC
  5
C689
  8
0
 10
277.26660514917648
 20
272.90652652051767
 30
0.0
 40
1.575963779899539
 50
55.374658887385657
 51
123.49884156560751
  0
POLYLINE
  5
C68A
  8
0
 66
     1
 10
0.0
 20
0.0
 30
0.0
 70
   128
  0
VERTEX
  5
14C0A
  8
0
 10
278.16207998432242
 20
274.20336369425058
 30
0.0
  0
VERTEX
  5
14C0B
  8
0
 10
278.16386067308508
 20
274.20189592987299
 30
0.0
  0
VERTEX
  5
14C0C
  8
0
 10
278.48831855691992
 20
273.82253564894199
 30
0.0
  0
VERTEX
  5
14C0D
  8
0
 10
278.6738976184281
 20
273.35126966238022
 30
0.0
  0
VERTEX
  5
14C0E
  8
0
 10
278.71179872192471
 20
273.0000064522028
 30
0.0
  0
VERTEX
  5
14C0F
  8
0
 10
278.70460891164862
 20
272.846141718328
 30
0.0
  0
VERTEX
  5
14C10
  8
0
 10
278.58266525901882
 20
272.36293524503708
 30
0.0
  0
VERTEX
  5
14C11
  8
0
 10
278.32072519697272
 20
271.94908110424882
 30
0.0
  0
VERTEX
  5
14C12
  8
0
 10
277.94047736562811
 20
271.64723107591271
 30
0.0
  0
VERTEX
  5
14C13
  8
0
 10
277.47834020294272
 20
271.49376727640629
 30
0.0
  0
VERTEX
  5
14C14
  8
0
 10
276.98575996793829
 20
271.50963189080358
 30
0.0
  0
VERTEX
  5
14C15
  8
0
 10
276.52038925327378
 20
271.69486729428172
 30
0.0
  0
VERTEX
  5
14C16
  8
0
 10
276.13791369833081
 20
272.0296367816627
 30
0.0
  0
VERTEX
  5
14C17
  8
0
 10
275.88585310615622
 20
272.4746054783464
 30
0.0
  0
VERTEX
  5
14C18
  8
0
 10
275.80323361791687
 20
272.82743889838463
 30
0.0
  0
VERTEX
  5
14C19
  8
0
 10
275.82913183607178
 20
273.3293435350061
 30
0.0
  0
VERTEX
  5
14C1A
  8
0
 10
276.01399564184271
 20
273.79409212619072
 30
0.0
  0
VERTEX
  5
14C1B
  8
0
 10
276.33703046478348
 20
274.17291130870581
 30
0.0
  0
VERTEX
  5
14C1C
  8
0
 10
276.39679902233212
 20
274.22071795910603
 30
0.0
  0
SEQEND
  5
14C1D
  8
0
  0
POLYLINE
  5
C68B
  8
0
 66
     1
 10
0.0
 20
0.0
 30
0.0
 70
   128
  0
VERTEX
  5
14C1E
  8
0
 10
276.28264122642599
 20
266.87519473955041
 30
0.0
  0
VERTEX
  5
14C1F
  8
0
 10
276.77640610374527
 20
266.58228098414838
 30
0.0
  0
VERTEX
  5
14C20
  8
0
 10
277.1971925441178
 20
266.48160221986473
 30
0.0
  0
SEQEND
  5
14C21
  8
0
  0
POLYLINE
  5
C68C
  8
0
 66
     1
 10
0.0
 20
0.0
 30
0.0
 70
   128
  0
VERTEX
  5
14C22
  8
0
 10
276.28264122642599
 20
266.87519473955041
 30
0.0
  0
VERTEX
  5
14C23
  8
0
 10
276.13791369833081
 20
267.02963666059082
 30
0.0
  0
VERTEX
  5
14C24
  8
0
 10
275.88585310615622
 20
267.47460535727441
 30
0.0
  0
VERTEX
  5
14C25
  8
0
 10
275.80323361791687
 20
267.82743854448199
 30
0.0
  0
VERTEX
  5
14C26
  8
0
 10
275.82913183607178
 20
268.32934364676481
 30
0.0
  0
VERTEX
  5
14C27
  8
0
 10
276.01399564184271
 20
268.79409177228808
 30
0.0
  0
VERTEX
  5
14C28
  8
0
 10
276.33703046478348
 20
269.1729118861258
 30
0.0
  0
VERTEX
  5
14C29
  8
0
 10
276.76549100317078
 20
269.42570542916661
 30
0.0
  0
VERTEX
  5
14C2A
  8
0
 10
277.25085907615738
 20
269.5204446837306
 30
0.0
  0
VERTEX
  5
14C2B
  8
0
 10
277.73550444282608
 20
269.44343967363238
 30
0.0
  0
VERTEX
  5
14C2C
  8
0
 10
278.16386067308508
 20
269.2018960416317
 30
0.0
  0
VERTEX
  5
14C2D
  8
0
 10
278.48831855691992
 20
268.8225357607007
 30
0.0
  0
VERTEX
  5
14C2E
  8
0
 10
278.6738976184281
 20
268.35126977413893
 30
0.0
  0
VERTEX
  5
14C2F
  8
0
 10
278.71179872192471
 20
268.00000609830022
 30
0.0
  0
VERTEX
  5
14C30
  8
0
 10
278.70460891164862
 20
267.84614159725612
 30
0.0
  0
VERTEX
  5
14C31
  8
0
 10
278.58266525901882
 20
267.3629348911345
 30
0.0
  0
VERTEX
  5
14C32
  8
0
 10
278.32072519697272
 20
266.94908121600753
 30
0.0
  0
VERTEX
  5
14C33
  8
0
 10
277.94047736562811
 20
266.64723095484078
 30
0.0
  0
VERTEX
  5
14C34
  8
0
 10
277.47834020294272
 20
266.493767388165
 30
0.0
  0
VERTEX
  5
14C35
  8
0
 10
277.1971925441178
 20
266.48160221986473
 30
0.0
  0
SEQEND
  5
14C36
  8
0
  0
ARC
  5
C68E
  8
0
 10
272.19373603137819
 20
271.00000589154661
 30
0.0
 40
1.556833291795638
 50
305.49494653278492
 51
54.505053467215077
  0
LINE
  5
C690
  8
0
 10
275.79801076091849
 20
264.74669744959101
 30
0.0
 11
275.15199326910101
 21
265.09885915322229
 31
0.0
  0
POLYLINE
  5
C694
  8
0
 66
     1
 10
0.0
 20
0.0
 30
0.0
 70
   128
  0
VERTEX
  5
14C37
  8
0
 10
275.97151243127911
 20
276.21170587837702
 30
0.0
  0
VERTEX
  5
14C38
  8
0
 10
276.88271098770218
 20
276.24935459345579
 30
0.0
  0
VERTEX
  5
14C39
  8
0
 10
277.7939691487702
 20
276.18901140987867
 30
0.0
  0
SEQEND
  5
14C3A
  8
0
  0
LINE
  5
C696
  8
0
 10
276.39679902233212
 20
274.22071795910603
 30
0.0
 11
275.6806417647752
 21
274.14168033748871
 31
0.0
  0
LINE
  5
C698
  8
0
 10
275.23216151632391
 20
276.10834863036871
 30
0.0
 11
275.97151243127911
 21
276.21170587837702
 31
0.0
  0
LINE
  5
C699
  8
0
 10
277.1971925441178
 20
266.48160221986473
 30
0.0
 11
278.5268902126702
 21
265.83333930931991
 31
0.0
  0
ARC
  5
C69A
  8
0
 10
265.77788560101089
 20
241.10990157069199
 30
0.0
 40
27.824453684248908
 50
67.818809465911173
 51
74.747659702775209
  0
POLYLINE
  5
C69B
  8
0
 66
     1
 10
0.0
 20
0.0
 30
0.0
 70
   128
  0
VERTEX
  5
14C3B
  8
0
 10
275.6806417647752
 20
274.14168033748871
 30
0.0
  0
VERTEX
  5
14C3C
  8
0
 10
274.39339005388342
 20
273.9572104811669
 30
0.0
  0
VERTEX
  5
14C3D
  8
0
 10
273.09768193401419
 20
273.77842448651791
 30
0.0
  0
SEQEND
  5
14C3E
  8
0
  0
ARC
  5
C69C
  8
0
 10
267.3402052134299
 20
250.0000926057786
 30
0.0
 40
16.999905407999471
 50
62.64389385221893
 51
70.902310108632165
  0
POLYLINE
  5
C69D
  8
0
 66
     1
 10
0.0
 20
0.0
 30
0.0
 70
   128
  0
VERTEX
  5
14C3F
  8
0
 10
284.53751199878781
 20
265.99745324812829
 30
0.0
  0
VERTEX
  5
14C40
  8
0
 10
284.4906329456719
 20
265.91514132916927
 30
0.0
  0
VERTEX
  5
14C41
  8
0
 10
284.46370654739462
 20
265.8708411082626
 30
0.0
  0
VERTEX
  5
14C42
  8
0
 10
284.33463268913351
 20
265.67061851266772
 30
0.0
  0
VERTEX
  5
14C43
  8
0
 10
284.10969966091238
 20
265.3614747151733
 30
0.0
  0
VERTEX
  5
14C44
  8
0
 10
283.97244506515591
 20
265.19296440994373
 30
0.0
  0
VERTEX
  5
14C45
  8
0
 10
283.42400782741629
 20
264.63259444164578
 30
0.0
  0
VERTEX
  5
14C46
  8
0
 10
282.70676278509222
 20
264.09495634026831
 30
0.0
  0
VERTEX
  5
14C47
  8
0
 10
282.05776506103598
 20
263.74496397795161
 30
0.0
  0
VERTEX
  5
14C48
  8
0
 10
281.20509826578223
 20
263.4385102475062
 30
0.0
  0
VERTEX
  5
14C49
  8
0
 10
280.24005436338513
 20
263.26949021779001
 30
0.0
  0
VERTEX
  5
14C4A
  8
0
 10
279.3816208187493
 20
263.26427283231169
 30
0.0
  0
VERTEX
  5
14C4B
  8
0
 10
278.48102443851548
 20
263.40499695390457
 30
0.0
  0
VERTEX
  5
14C4C
  8
0
 10
277.59911411441891
 20
263.6997979762964
 30
0.0
  0
VERTEX
  5
14C4D
  8
0
 10
276.73726820386969
 20
264.16667266050348
 30
0.0
  0
SEQEND
  5
14C4E
  8
0
  0
POLYLINE
  5
C69F
  8
0
 66
     1
 10
0.0
 20
0.0
 30
0.0
 70
   128
  0
VERTEX
  5
14C4F
  8
0
 10
277.7939691487702
 20
276.18901140987867
 30
0.0
  0
VERTEX
  5
14C50
  8
0
 10
278.7235408369454
 20
276.02424088865519
 30
0.0
  0
VERTEX
  5
14C51
  8
0
 10
279.62287806905829
 20
275.75961768627172
 30
0.0
  0
VERTEX
  5
14C52
  8
0
 10
280.8199479524049
 20
275.22721968591208
 30
0.0
  0
VERTEX
  5
14C53
  8
0
 10
281.9005205575379
 20
274.53269053250551
 30
0.0
  0
VERTEX
  5
14C54
  8
0
 10
283.01742964424221
 20
273.52178737521172
 30
0.0
  0
VERTEX
  5
14C55
  8
0
 10
283.8926344458016
 20
272.40027569234371
 30
0.0
  0
VERTEX
  5
14C56
  8
0
 10
284.19795923866349
 20
271.8957144580782
 30
0.0
  0
VERTEX
  5
14C57
  8
0
 10
284.43666839040839
 20
271.43609791994101
 30
0.0
  0
VERTEX
  5
14C58
  8
0
 10
284.5478012505921
 20
271.19567653164268
 30
0.0
  0
VERTEX
  5
14C59
  8
0
 10
284.61328440345852
 20
271.04403486475348
 30
0.0
  0
VERTEX
  5
14C5A
  8
0
 10
284.64863740839093
 20
270.95618693158031
 30
0.0
  0
SEQEND
  5
14C5B
  8
0
  0
POLYLINE
  5
C6A0
  8
0
 66
     1
 10
0.0
 20
0.0
 30
0.0
 70
   128
  0
VERTEX
  5
14C5C
  8
0
 10
273.21870916523062
 20
275.74967674911022
 30
0.0
  0
VERTEX
  5
14C5D
  8
0
 10
274.20999401249009
 20
275.92287015169859
 30
0.0
  0
VERTEX
  5
14C5E
  8
0
 10
275.23216151632391
 20
276.10834863036871
 30
0.0
  0
SEQEND
  5
14C5F
  8
0
  0
LINE
  5
C6A1
  8
0
 10
276.73726820386969
 20
264.16667266050348
 30
0.0
 11
275.79801076091849
 21
264.74669744959101
 31
0.0
  0
LINE
  5
C6A2
  8
0
 10
267.34017127193528
 20
267.0000059343875
 30
0.0
 11
253.77751433290561
 21
267.0000059343875
 31
0.0
  0
POLYLINE
  5
C6A4
  8
0
 66
     1
 10
0.0
 20
0.0
 30
0.0
 70
   128
  0
VERTEX
  5
14C60
  8
0
 10
232.91090422309961
 20
260.71540324948728
 30
0.0
  0
VERTEX
  5
14C61
  8
0
 10
232.0480450335892
 20
258.98999150842428
 30
0.0
  0
VERTEX
  5
14C62
  8
0
 10
230.875368351117
 20
257.38856371492147
 30
0.0
  0
VERTEX
  5
14C63
  8
0
 10
229.48775731958469
 20
256.0456794500351
 30
0.0
  0
VERTEX
  5
14C64
  8
0
 10
227.8422593418511
 20
254.9278409034014
 30
0.0
  0
VERTEX
  5
14C65
  8
0
 10
226.11394071020209
 20
254.14475973695519
 30
0.0
  0
VERTEX
  5
14C66
  8
0
 10
224.221150511876
 20
253.65611899644139
 30
0.0
  0
VERTEX
  5
14C67
  8
0
 10
222.36590751446809
 20
253.50524846464401
 30
0.0
  0
VERTEX
  5
14C68
  8
0
 10
220.456416839734
 20
253.6803110316396
 30
0.0
  0
VERTEX
  5
14C69
  8
0
 10
218.69340830482571
 20
254.15572885423899
 30
0.0
  0
VERTEX
  5
14C6A
  8
0
 10
216.98816039599501
 20
254.94932930916551
 30
0.0
  0
VERTEX
  5
14C6B
  8
0
 10
215.51817202009281
 20
255.97281184047461
 30
0.0
  0
VERTEX
  5
14C6C
  8
0
 10
214.20667984522899
 20
257.27048877626657
 30
0.0
  0
VERTEX
  5
14C6D
  8
0
 10
213.1894744280728
 20
258.70290061458951
 30
0.0
  0
VERTEX
  5
14C6E
  8
0
 10
212.4095774535092
 20
260.33603481948381
 30
0.0
  0
VERTEX
  5
14C6F
  8
0
 10
211.946669155732
 20
261.9950146228075
 30
0.0
  0
VERTEX
  5
14C70
  8
0
 10
211.77011274732669
 20
263.76087381970137
 30
0.0
  0
VERTEX
  5
14C71
  8
0
 10
211.89377003349389
 20
265.44102892978123
 30
0.0
  0
VERTEX
  5
14C72
  8
0
 10
212.31711202301111
 20
267.12465670891112
 30
0.0
  0
VERTEX
  5
14C73
  8
0
 10
212.9870607797059
 20
268.62936222925782
 30
0.0
  0
VERTEX
  5
14C74
  8
0
 10
213.93445798195921
 20
270.03772173076868
 30
0.0
  0
VERTEX
  5
14C75
  8
0
 10
215.0488077942284
 20
271.20006818324327
 30
0.0
  0
VERTEX
  5
14C76
  8
0
 10
216.38665639795391
 20
272.18165377154952
 30
0.0
  0
VERTEX
  5
14C77
  8
0
 10
217.79651858843889
 20
272.88154408335691
 30
0.0
  0
VERTEX
  5
14C78
  8
0
 10
219.35185709036909
 20
273.34137622267008
 30
0.0
  0
VERTEX
  5
14C79
  8
0
 10
220.13137408532231
 20
273.46383210271603
 30
0.0
  0
VERTEX
  5
14C7A
  8
0
 10
221.7775128129872
 20
273.50000560283661
 30
0.0
  0
SEQEND
  5
14C7B
  8
0
  0
POLYLINE
  5
C6A6
  8
0
 66
     1
 10
0.0
 20
0.0
 30
0.0
 70
   128
  0
VERTEX
  5
14C7C
  8
0
 10
221.76005237735831
 20
273.0000064522028
 30
0.0
  0
VERTEX
  5
14C7D
  8
0
 10
220.6003397051247
 20
273.00293173640972
 30
0.0
  0
VERTEX
  5
14C7E
  8
0
 10
219.45061453618129
 20
272.8512267395854
 30
0.0
  0
VERTEX
  5
14C7F
  8
0
 10
218.00111153163039
 20
272.4233827367425
 30
0.0
  0
VERTEX
  5
14C80
  8
0
 10
216.6457838658246
 20
271.75404073670512
 30
0.0
  0
VERTEX
  5
14C81
  8
0
 10
215.39720066823091
 20
270.83865309134131
 30
0.0
  0
VERTEX
  5
14C82
  8
0
 10
214.3232181016358
 20
269.72329465672368
 30
0.0
  0
VERTEX
  5
14C83
  8
0
 10
213.43751543201529
 20
268.40798452496529
 30
0.0
  0
VERTEX
  5
14C84
  8
0
 10
212.78944530524339
 20
266.96063799783587
 30
0.0
  0
VERTEX
  5
14C85
  8
0
 10
212.3923889640721
 20
265.38600808009511
 30
0.0
  0
VERTEX
  5
14C86
  8
0
 10
212.270080232993
 20
263.76666728639981
 30
0.0
  0
VERTEX
  5
14C87
  8
0
 10
212.43407123722159
 20
262.1126623172313
 30
0.0
  0
VERTEX
  5
14C88
  8
0
 10
212.87801408208929
 20
260.51087573170662
 30
0.0
  0
VERTEX
  5
14C89
  8
0
 10
213.60804804600801
 20
258.97884637117392
 30
0.0
  0
VERTEX
  5
14C8A
  8
0
 10
214.5884364191445
 20
257.5933843664825
 30
0.0
  0
VERTEX
  5
14C8B
  8
0
 10
215.8185160998257
 20
256.37431059032679
 30
0.0
  0
VERTEX
  5
14C8C
  8
0
 10
217.2383881453427
 20
255.3822099044919
 30
0.0
  0
VERTEX
  5
14C8D
  8
0
 10
218.84004318155371
 20
254.6355639398098
 30
0.0
  0
VERTEX
  5
14C8E
  8
0
 10
220.5457269493493
 20
254.1722700744867
 30
0.0
  0
VERTEX
  5
14C8F
  8
0
 10
222.34126844443401
 20
254.00682527571919
 30
0.0
  0
VERTEX
  5
14C90
  8
0
 10
224.13906746543969
 20
254.14933439344171
 30
0.0
  0
VERTEX
  5
14C91
  8
0
 10
225.92071735300149
 20
254.60858259350061
 30
0.0
  0
VERTEX
  5
14C92
  8
0
 10
227.59842419065561
 20
255.3643545880914
 30
0.0
  0
VERTEX
  5
14C93
  8
0
 10
229.14915078319629
 20
256.41675375401968
 30
0.0
  0
VERTEX
  5
14C94
  8
0
 10
230.4986371938142
 20
257.7173108048737
 30
0.0
  0
VERTEX
  5
14C95
  8
0
 10
231.11132078804101
 20
258.48549406975508
 30
0.0
  0
VERTEX
  5
14C96
  8
0
 10
231.85384565033041
 20
259.65197093784809
 30
0.0
  0
VERTEX
  5
14C97
  8
0
 10
232.44669579900821
 20
260.90117299929261
 30
0.0
  0
SEQEND
  5
14C98
  8
0
  0
POLYLINE
  5
C6A9
  8
0
 66
     1
 10
0.0
 20
0.0
 30
0.0
 70
   128
  0
VERTEX
  5
14C99
  8
0
 10
242.19507270492639
 20
268.00000609830022
 30
0.0
  0
VERTEX
  5
14C9A
  8
0
 10
244.3571268860253
 20
268.09153066016728
 30
0.0
  0
VERTEX
  5
14C9B
  8
0
 10
246.51918106712421
 20
268.31407065503299
 30
0.0
  0
VERTEX
  5
14C9C
  8
0
 10
248.6812352482232
 20
268.58957380056381
 30
0.0
  0
VERTEX
  5
14C9D
  8
0
 10
251.22937106527411
 20
268.87610217556357
 30
0.0
  0
VERTEX
  5
14C9E
  8
0
 10
253.77751433290561
 20
269.0000057965517
 30
0.0
  0
SEQEND
  5
14C9F
  8
0
  0
ARC
  5
C6AA
  8
0
 10
242.55948723230219
 20
257.25674858922952
 30
0.0
 40
10.74943625749594
 50
91.942745210963295
 51
160.18196872069589
  0
POLYLINE
  5
C6AB
  8
0
 66
     1
 10
0.0
 20
0.0
 30
0.0
 70
   128
  0
VERTEX
  5
14CA0
  8
0
 10
246.77750759758081
 20
272.00000582262868
 30
0.0
  0
VERTEX
  5
14CA1
  8
0
 10
242.10758798755731
 20
272.09164936095482
 30
0.0
  0
VERTEX
  5
14CA2
  8
0
 10
237.43766092695321
 20
272.31443662196398
 30
0.0
  0
VERTEX
  5
14CA3
  8
0
 10
232.76773386634909
 20
272.59015187621122
 30
0.0
  0
VERTEX
  5
14CA4
  8
0
 10
227.2638931218537
 20
272.87666209042072
 30
0.0
  0
VERTEX
  5
14CA5
  8
0
 10
221.76005237735831
 20
273.0000064522028
 30
0.0
  0
SEQEND
  5
14CA6
  8
0
  0
ARC
  5
C6AC
  8
0
 10
255.54968851101151
 20
378.68720087661927
 30
0.0
 40
107.0472267107662
 50
265.29952159882441
 51
269.05142110864898
  0
CIRCLE
  5
C6AD
  8
0
 10
221.77751111425479
 20
264.5000059902668
 30
0.0
 40
6.5
  0
ARC
  5
C6AF
  8
0
 10
246.77746071975139
 20
430.01337487257177
 30
0.0
 40
156.51336926974221
 50
270.00001716084239
 51
272.53104009433719
  0
ARC
  5
C6B0
  8
0
 10
242.19507167446019
 20
257.00001051113207
 30
0.0
 40
9.9999954232553954
 50
89.999994095861339
 51
158.18940985825159
  0
LINE
  5
C6B2
  8
0
 10
221.7775128129872
 20
273.50000560283661
 30
0.0
 11
246.77750759758081
 21
273.50000560283661
 31
0.0
  0
LINE
  5
C6B3
  8
0
 10
253.77751433290561
 20
267.0000059343875
 30
0.0
 11
242.19507270492639
 21
267.0000059343875
 31
0.0
  0
CIRCLE
  5
C6B4
  8
0
 10
221.77751111425479
 20
264.5000059902668
 30
0.0
 40
6.0
  0
ARC
  5
C6B5
  8
0
 10
267.36551845316808
 20
250.0612635883532
 30
0.0
 40
16.233791817881219
 50
64.593765777231567
 51
70.478248941603738
  0
ARC
  5
C6B6
  8
0
 10
246.77253702089979
 20
430.03937016640702
 30
0.0
 40
155.83980216963019
 50
279.64080443053439
 51
280.27062322714312
  0
POLYLINE
  5
C6B7
  8
0
 66
     1
 10
0.0
 20
0.0
 30
0.0
 70
   128
  0
VERTEX
  5
14CA7
  8
0
 10
267.88451651699711
 20
275.63625712089038
 30
0.0
  0
VERTEX
  5
14CA8
  8
0
 10
267.88922690786438
 20
275.63690103590488
 30
0.0
  0
VERTEX
  5
14CA9
  8
0
 10
267.96654158271872
 20
275.64749389886862
 30
0.0
  0
VERTEX
  5
14CAA
  8
0
 10
268.13035004772269
 20
275.6700691580773
 30
0.0
  0
VERTEX
  5
14CAB
  8
0
 10
268.36207800544821
 20
275.70230502635241
 30
0.0
  0
VERTEX
  5
14CAC
  8
0
 10
268.63571547903138
 20
275.7408282533288
 30
0.0
  0
VERTEX
  5
14CAD
  8
0
 10
268.92065548338019
 20
275.78146930783993
 30
0.0
  0
VERTEX
  5
14CAE
  8
0
 10
269.18489032425009
 20
275.81963676959282
 30
0.0
  0
VERTEX
  5
14CAF
  8
0
 10
269.3984984699639
 20
275.85082955658442
 30
0.0
  0
VERTEX
  5
14CB0
  8
0
 10
269.53719102777558
 20
275.87124414741987
 30
0.0
  0
VERTEX
  5
14CB1
  8
0
 10
269.58517763321089
 20
275.8783381663568
 30
0.0
  0
SEQEND
  5
14CB2
  8
0
  0
ARC
  5
C6B8
  8
0
 10
276.7774940315673
 20
267.74993207411683
 30
0.0
 40
9.2000755598496848
 50
70.351529369247999
 51
81.67861535623112
  0
ARC
  5
C6BA
  8
0
 10
267.34764653823032
 20
250.06508381489979
 30
0.0
 40
16.234675104793808
 50
82.014282102049563
 51
87.869221151354395
  0
ARC
  5
C6BB
  8
0
 10
279.77750496014551
 20
268.74995800135991
 30
0.0
 40
6.1999517864958422
 50
251.49515854936021
 51
268.79582845931361
  0
LINE
  5
C6BD
  8
0
 10
267.88451651699711
 20
275.63625712089038
 30
0.0
 11
267.88922690786438
 21
275.63690103590488
 31
0.0
  0
LINE
  5
C6BE
  8
0
 10
267.88451651699711
 20
275.63625712089038
 30
0.0
 11
267.88922690786438
 21
275.63690103590488
 31
0.0
  0
LINE
  5
C6C3
  8
0
 10
157.50000149011609
 20
244.0000054240227
 30
0.0
 11
159.50000158511119
 21
242.0000050961971
 31
0.0
  0
LINE
  5
C6C4
  8
0
 10
158.500001537614
 20
286.00000672042393
 30
0.0
 11
158.5000015376138
 21
243.0000052601099
 31
0.0
  0
LINE
  5
C6C7
  8
0
 10
159.50000158511119
 20
287.00000688433653
 30
0.0
 11
157.50000149011609
 21
285.00000655651093
 31
0.0
  0
LINE
  5
C6C9
  8
0
 10
158.5000015376138
 20
271.00000612437731
 30
0.0
 11
157.50000149011629
 21
272.00000582262868
 31
0.0
  0
LINE
  5
C6CA
  8
0
 10
157.50000149011629
 20
272.00000582262868
 30
0.0
 11
157.50000149011629
 21
285.00000655651093
 31
0.0
  0
LINE
  5
C6CC
  8
0
 10
157.50000149011629
 20
244.0000054240227
 30
0.0
 11
157.50000149011629
 21
257.00000615790492
 31
0.0
  0
LINE
  5
C6CE
  8
0
 10
157.50000149011629
 20
257.00000615790492
 30
0.0
 11
158.5000015376138
 21
258.00000585615641
 31
0.0
  0
LINE
  5
C6CF
  8
0
 10
210.1874939445409
 20
256.50000561028719
 30
0.0
 11
210.1874939445409
 21
272.50000637024641
 31
0.0
  0
LINE
  5
C6D0
  8
0
 10
210.68749495781981
 20
272.00000582262868
 30
0.0
 11
210.68749495781981
 21
257.00000615790492
 31
0.0
  0
LINE
  5
C6D1
  8
0
 10
169.40157872624721
 20
284.6339800208807
 30
0.0
 11
199.14353557862361
 21
284.6339800208807
 31
0.0
  0
LINE
  5
C6D6
  8
0
 10
199.14353557862361
 20
284.6339800208807
 30
0.0
 11
199.14353557862361
 21
244.3660319596529
 31
0.0
  0
LINE
  5
C6D7
  8
0
 10
199.14353557862361
 20
244.3660319596529
 30
0.0
 11
169.40157872624721
 21
244.3660319596529
 31
0.0
  0
LINE
  5
C6D8
  8
0
 10
169.40157872624741
 20
284.6339800208807
 30
0.0
 11
169.40157872624721
 21
244.3660319596529
 31
0.0
  0
ARC
  5
C6DB
  8
0
 10
190.27751111425459
 20
277.0000059902668
 30
0.0
 40
6.250000000000056
 50
0.0
 51
180.0
  0
LINE
  5
C6DC
  8
0
 10
184.0275108162316
 20
277.00000617653131
 30
0.0
 11
184.0275108162316
 21
252.00000580400231
 31
0.0
  0
ARC
  5
C6DD
  8
0
 10
190.27751111425459
 20
252.0000059902668
 30
0.0
 40
6.250000000000056
 50
180.0
 51
0.0
  0
LINE
  5
C6DE
  8
0
 10
196.52751007117351
 20
252.00000580400231
 30
0.0
 11
196.52751007117351
 21
277.00000617653131
 31
0.0
  0
POLYLINE
  5
C6DF
  8
0
 10
199.1435365180391
 20
284.63398058648249
 30
0.0
 66
     1
 70
     8
  0
VERTEX
  8
0
  5
15362
 10
199.144
 20
284.634
 30
0.000000
  70
    32
  0
VERTEX
  8
0
  5
15363
 10
199.160
 20
284.634
 30
0.000000
  70
    32
  0
VERTEX
  8
0
  5
15364
 10
199.176
 20
284.634
 30
0.000000
  70
    32
  0
VERTEX
  8
0
  5
15365
 10
199.193
 20
284.635
 30
0.000000
  70
    32
  0
VERTEX
  8
0
  5
15366
 10
199.209
 20
284.635
 30
0.000000
  70
    32
  0
VERTEX
  8
0
  5
15367
 10
199.225
 20
284.635
 30
0.000000
  70
    32
  0
VERTEX
  8
0
  5
15368
 10
199.242
 20
284.636
 30
0.000000
  70
    32
  0
VERTEX
  8
0
  5
15369
 10
199.258
 20
284.637
 30
0.000000
  70
    32
  0
VERTEX
  8
0
  5
1536A
 10
199.274
 20
284.638
 30
0.000000
  70
    32
  0
VERTEX
  8
0
  5
1536B
 10
199.291
 20
284.639
 30
0.000000
  70
    32
  0
VERTEX
  8
0
  5
1536C
 10
199.307
 20
284.640
 30
0.000000
  70
    32
  0
VERTEX
  8
0
  5
1536D
 10
199.323
 20
284.641
 30
0.000000
  70
    32
  0
VERTEX
  8
0
  5
1536E
 10
199.340
 20
284.642
 30
0.000000
  70
    32
  0
VERTEX
  8
0
  5
1536F
 10
199.356
 20
284.644
 30
0.000000
  70
    32
  0
VERTEX
  8
0
  5
15370
 10
199.372
 20
284.645
 30
0.000000
  70
    32
  0
VERTEX
  8
0
  5
15371
 10
199.389
 20
284.647
 30
0.000000
  70
    32
  0
VERTEX
  8
0
  5
15372
 10
199.405
 20
284.649
 30
0.000000
  70
    32
  0
VERTEX
  8
0
  5
15373
 10
199.421
 20
284.651
 30
0.000000
  70
    32
  0
VERTEX
  8
0
  5
15374
 10
199.438
 20
284.653
 30
0.000000
  70
    32
  0
VERTEX
  8
0
  5
15375
 10
199.454
 20
284.655
 30
0.000000
  70
    32
  0
VERTEX
  8
0
  5
15376
 10
199.470
 20
284.657
 30
0.000000
  70
    32
  0
VERTEX
  8
0
  5
15377
 10
199.487
 20
284.660
 30
0.000000
  70
    32
  0
VERTEX
  8
0
  5
15378
 10
199.503
 20
284.662
 30
0.000000
  70
    32
  0
VERTEX
  8
0
  5
15379
 10
199.519
 20
284.665
 30
0.000000
  70
    32
  0
VERTEX
  8
0
  5
1537A
 10
199.536
 20
284.667
 30
0.000000
  70
    32
  0
VERTEX
  8
0
  5
1537B
 10
199.552
 20
284.670
 30
0.000000
  70
    32
  0
VERTEX
  8
0
  5
1537C
 10
199.568
 20
284.673
 30
0.000000
  70
    32
  0
VERTEX
  8
0
  5
1537D
 10
199.584
 20
284.676
 30
0.000000
  70
    32
  0
VERTEX
  8
0
  5
1537E
 10
199.601
 20
284.679
 30
0.000000
  70
    32
  0
VERTEX
  8
0
  5
1537F
 10
199.617
 20
284.683
 30
0.000000
  70
    32
  0
VERTEX
  8
0
  5
15380
 10
199.633
 20
284.686
 30
0.000000
  70
    32
  0
VERTEX
  8
0
  5
15381
 10
199.649
 20
284.690
 30
0.000000
  70
    32
  0
VERTEX
  8
0
  5
15382
 10
199.666
 20
284.693
 30
0.000000
  70
    32
  0
VERTEX
  8
0
  5
15383
 10
199.682
 20
284.697
 30
0.000000
  70
    32
  0
VERTEX
  8
0
  5
15384
 10
199.698
 20
284.701
 30
0.000000
  70
    32
  0
VERTEX
  8
0
  5
15385
 10
199.714
 20
284.705
 30
0.000000
  70
    32
  0
VERTEX
  8
0
  5
15386
 10
199.730
 20
284.709
 30
0.000000
  70
    32
  0
VERTEX
  8
0
  5
15387
 10
199.747
 20
284.713
 30
0.000000
  70
    32
  0
VERTEX
  8
0
  5
15388
 10
199.763
 20
284.718
 30
0.000000
  70
    32
  0
VERTEX
  8
0
  5
15389
 10
199.779
 20
284.722
 30
0.000000
  70
    32
  0
VERTEX
  8
0
  5
1538A
 10
199.795
 20
284.727
 30
0.000000
  70
    32
  0
VERTEX
  8
0
  5
1538B
 10
199.811
 20
284.731
 30
0.000000
  70
    32
  0
VERTEX
  8
0
  5
1538C
 10
199.827
 20
284.736
 30
0.000000
  70
    32
  0
VERTEX
  8
0
  5
1538D
 10
199.843
 20
284.741
 30
0.000000
  70
    32
  0
VERTEX
  8
0
  5
1538E
 10
199.860
 20
284.746
 30
0.000000
  70
    32
  0
VERTEX
  8
0
  5
1538F
 10
199.876
 20
284.751
 30
0.000000
  70
    32
  0
VERTEX
  8
0
  5
15390
 10
199.892
 20
284.756
 30
0.000000
  70
    32
  0
VERTEX
  8
0
  5
15391
 10
199.908
 20
284.762
 30
0.000000
  70
    32
  0
VERTEX
  8
0
  5
15392
 10
199.924
 20
284.767
 30
0.000000
  70
    32
  0
VERTEX
  8
0
  5
15393
 10
199.940
 20
284.773
 30
0.000000
  70
    32
  0
VERTEX
  8
0
  5
15394
 10
199.956
 20
284.778
 30
0.000000
  70
    32
  0
VERTEX
  8
0
  5
15395
 10
199.972
 20
284.784
 30
0.000000
  70
    32
  0
VERTEX
  8
0
  5
15396
 10
199.988
 20
284.790
 30
0.000000
  70
    32
  0
VERTEX
  8
0
  5
15397
 10
200.004
 20
284.796
 30
0.000000
  70
    32
  0
VERTEX
  8
0
  5
15398
 10
200.020
 20
284.802
 30
0.000000
  70
    32
  0
VERTEX
  8
0
  5
15399
 10
200.036
 20
284.809
 30
0.000000
  70
    32
  0
VERTEX
  8
0
  5
1539A
 10
200.052
 20
284.815
 30
0.000000
  70
    32
  0
VERTEX
  8
0
  5
1539B
 10
200.068
 20
284.821
 30
0.000000
  70
    32
  0
VERTEX
  8
0
  5
1539C
 10
200.084
 20
284.828
 30
0.000000
  70
    32
  0
VERTEX
  8
0
  5
1539D
 10
200.100
 20
284.835
 30
0.000000
  70
    32
  0
VERTEX
  8
0
  5
1539E
 10
200.115
 20
284.842
 30
0.000000
  70
    32
  0
VERTEX
  8
0
  5
1539F
 10
200.131
 20
284.849
 30
0.000000
  70
    32
  0
VERTEX
  8
0
  5
153A0
 10
200.147
 20
284.856
 30
0.000000
  70
    32
  0
VERTEX
  8
0
  5
153A1
 10
200.163
 20
284.863
 30
0.000000
  70
    32
  0
VERTEX
  8
0
  5
153A2
 10
200.179
 20
284.870
 30
0.000000
  70
    32
  0
VERTEX
  8
0
  5
153A3
 10
200.195
 20
284.877
 30
0.000000
  70
    32
  0
VERTEX
  8
0
  5
153A4
 10
200.210
 20
284.885
 30
0.000000
  70
    32
  0
VERTEX
  8
0
  5
153A5
 10
200.226
 20
284.893
 30
0.000000
  70
    32
  0
VERTEX
  8
0
  5
153A6
 10
200.242
 20
284.900
 30
0.000000
  70
    32
  0
VERTEX
  8
0
  5
153A7
 10
200.258
 20
284.908
 30
0.000000
  70
    32
  0
VERTEX
  8
0
  5
153A8
 10
200.273
 20
284.916
 30
0.000000
  70
    32
  0
VERTEX
  8
0
  5
153A9
 10
200.289
 20
284.924
 30
0.000000
  70
    32
  0
VERTEX
  8
0
  5
153AA
 10
200.305
 20
284.932
 30
0.000000
  70
    32
  0
VERTEX
  8
0
  5
153AB
 10
200.320
 20
284.941
 30
0.000000
  70
    32
  0
VERTEX
  8
0
  5
153AC
 10
200.336
 20
284.949
 30
0.000000
  70
    32
  0
VERTEX
  8
0
  5
153AD
 10
200.352
 20
284.957
 30
0.000000
  70
    32
  0
VERTEX
  8
0
  5
153AE
 10
200.367
 20
284.966
 30
0.000000
  70
    32
  0
VERTEX
  8
0
  5
153AF
 10
200.383
 20
284.975
 30
0.000000
  70
    32
  0
VERTEX
  8
0
  5
153B0
 10
200.398
 20
284.984
 30
0.000000
  70
    32
  0
VERTEX
  8
0
  5
153B1
 10
200.414
 20
284.993
 30
0.000000
  70
    32
  0
VERTEX
  8
0
  5
153B2
 10
200.429
 20
285.002
 30
0.000000
  70
    32
  0
VERTEX
  8
0
  5
153B3
 10
200.445
 20
285.011
 30
0.000000
  70
    32
  0
VERTEX
  8
0
  5
153B4
 10
200.460
 20
285.020
 30
0.000000
  70
    32
  0
VERTEX
  8
0
  5
153B5
 10
200.476
 20
285.029
 30
0.000000
  70
    32
  0
VERTEX
  8
0
  5
153B6
 10
200.491
 20
285.039
 30
0.000000
  70
    32
  0
VERTEX
  8
0
  5
153B7
 10
200.506
 20
285.049
 30
0.000000
  70
    32
  0
VERTEX
  8
0
  5
153B8
 10
200.522
 20
285.058
 30
0.000000
  70
    32
  0
VERTEX
  8
0
  5
153B9
 10
200.537
 20
285.068
 30
0.000000
  70
    32
  0
VERTEX
  8
0
  5
153BA
 10
200.553
 20
285.078
 30
0.000000
  70
    32
  0
VERTEX
  8
0
  5
153BB
 10
200.568
 20
285.088
 30
0.000000
  70
    32
  0
VERTEX
  8
0
  5
153BC
 10
200.583
 20
285.098
 30
0.000000
  70
    32
  0
VERTEX
  8
0
  5
153BD
 10
200.598
 20
285.108
 30
0.000000
  70
    32
  0
VERTEX
  8
0
  5
153BE
 10
200.614
 20
285.119
 30
0.000000
  70
    32
  0
VERTEX
  8
0
  5
153BF
 10
200.629
 20
285.129
 30
0.000000
  70
    32
  0
VERTEX
  8
0
  5
153C0
 10
200.644
 20
285.140
 30
0.000000
  70
    32
  0
VERTEX
  8
0
  5
153C1
 10
200.659
 20
285.151
 30
0.000000
  70
    32
  0
VERTEX
  8
0
  5
153C2
 10
200.674
 20
285.161
 30
0.000000
  70
    32
  0
VERTEX
  8
0
  5
153C3
 10
200.689
 20
285.172
 30
0.000000
  70
    32
  0
VERTEX
  8
0
  5
153C4
 10
200.704
 20
285.183
 30
0.000000
  70
    32
  0
VERTEX
  8
0
  5
153C5
 10
200.720
 20
285.194
 30
0.000000
  70
    32
  0
VERTEX
  8
0
  5
153C6
 10
200.735
 20
285.206
 30
0.000000
  70
    32
  0
VERTEX
  8
0
  5
153C7
 10
200.750
 20
285.217
 30
0.000000
  70
    32
  0
VERTEX
  8
0
  5
153C8
 10
200.765
 20
285.228
 30
0.000000
  70
    32
  0
VERTEX
  8
0
  5
153C9
 10
200.779
 20
285.240
 30
0.000000
  70
    32
  0
VERTEX
  8
0
  5
153CA
 10
200.794
 20
285.252
 30
0.000000
  70
    32
  0
VERTEX
  8
0
  5
153CB
 10
200.809
 20
285.263
 30
0.000000
  70
    32
  0
VERTEX
  8
0
  5
153CC
 10
200.824
 20
285.275
 30
0.000000
  70
    32
  0
VERTEX
  8
0
  5
153CD
 10
200.839
 20
285.287
 30
0.000000
  70
    32
  0
VERTEX
  8
0
  5
153CE
 10
200.854
 20
285.299
 30
0.000000
  70
    32
  0
VERTEX
  8
0
  5
153CF
 10
200.869
 20
285.311
 30
0.000000
  70
    32
  0
VERTEX
  8
0
  5
153D0
 10
200.883
 20
285.324
 30
0.000000
  70
    32
  0
VERTEX
  8
0
  5
153D1
 10
200.898
 20
285.336
 30
0.000000
  70
    32
  0
VERTEX
  8
0
  5
153D2
 10
200.913
 20
285.348
 30
0.000000
  70
    32
  0
VERTEX
  8
0
  5
153D3
 10
200.927
 20
285.361
 30
0.000000
  70
    32
  0
VERTEX
  8
0
  5
153D4
 10
200.942
 20
285.374
 30
0.000000
  70
    32
  0
VERTEX
  8
0
  5
153D5
 10
200.957
 20
285.387
 30
0.000000
  70
    32
  0
VERTEX
  8
0
  5
153D6
 10
200.971
 20
285.399
 30
0.000000
  70
    32
  0
VERTEX
  8
0
  5
153D7
 10
200.986
 20
285.412
 30
0.000000
  70
    32
  0
VERTEX
  8
0
  5
153D8
 10
201.000
 20
285.426
 30
0.000000
  70
    32
  0
VERTEX
  8
0
  5
153D9
 10
201.015
 20
285.439
 30
0.000000
  70
    32
  0
VERTEX
  8
0
  5
153DA
 10
201.029
 20
285.452
 30
0.000000
  70
    32
  0
VERTEX
  8
0
  5
153DB
 10
201.044
 20
285.465
 30
0.000000
  70
    32
  0
VERTEX
  8
0
  5
153DC
 10
201.058
 20
285.479
 30
0.000000
  70
    32
  0
VERTEX
  8
0
  5
153DD
 10
201.072
 20
285.493
 30
0.000000
  70
    32
  0
VERTEX
  8
0
  5
153DE
 10
201.087
 20
285.506
 30
0.000000
  70
    32
  0
VERTEX
  8
0
  5
153DF
 10
201.101
 20
285.520
 30
0.000000
  70
    32
  0
VERTEX
  8
0
  5
153E0
 10
201.115
 20
285.534
 30
0.000000
  70
    32
  0
VERTEX
  8
0
  5
153E1
 10
201.129
 20
285.548
 30
0.000000
  70
    32
  0
VERTEX
  8
0
  5
153E2
 10
201.144
 20
285.562
 30
0.000000
  70
    32
  0
SEQEND
  8
0
  5
153E3
  0
POLYLINE
  5
C6E4
  8
0
 10
201.14353651803904
 20
243.43782816377583
 30
0.0
 66
     1
 70
     8
  0
VERTEX
  8
0
  5
153E4
 10
201.144
 20
243.438
 30
0.000000
  70
    32
  0
VERTEX
  8
0
  5
153E5
 10
201.129
 20
243.452
 30
0.000000
  70
    32
  0
VERTEX
  8
0
  5
153E6
 10
201.115
 20
243.466
 30
0.000000
  70
    32
  0
VERTEX
  8
0
  5
153E7
 10
201.101
 20
243.480
 30
0.000000
  70
    32
  0
VERTEX
  8
0
  5
153E8
 10
201.087
 20
243.494
 30
0.000000
  70
    32
  0
VERTEX
  8
0
  5
153E9
 10
201.072
 20
243.507
 30
0.000000
  70
    32
  0
VERTEX
  8
0
  5
153EA
 10
201.058
 20
243.521
 30
0.000000
  70
    32
  0
VERTEX
  8
0
  5
153EB
 10
201.044
 20
243.535
 30
0.000000
  70
    32
  0
VERTEX
  8
0
  5
153EC
 10
201.029
 20
243.548
 30
0.000000
  70
    32
  0
VERTEX
  8
0
  5
153ED
 10
201.015
 20
243.561
 30
0.000000
  70
    32
  0
VERTEX
  8
0
  5
153EE
 10
201.000
 20
243.574
 30
0.000000
  70
    32
  0
VERTEX
  8
0
  5
153EF
 10
200.986
 20
243.588
 30
0.000000
  70
    32
  0
VERTEX
  8
0
  5
153F0
 10
200.971
 20
243.601
 30
0.000000
  70
    32
  0
VERTEX
  8
0
  5
153F1
 10
200.957
 20
243.613
 30
0.000000
  70
    32
  0
VERTEX
  8
0
  5
153F2
 10
200.942
 20
243.626
 30
0.000000
  70
    32
  0
VERTEX
  8
0
  5
153F3
 10
200.927
 20
243.639
 30
0.000000
  70
    32
  0
VERTEX
  8
0
  5
153F4
 10
200.913
 20
243.652
 30
0.000000
  70
    32
  0
VERTEX
  8
0
  5
153F5
 10
200.898
 20
243.664
 30
0.000000
  70
    32
  0
VERTEX
  8
0
  5
153F6
 10
200.883
 20
243.676
 30
0.000000
  70
    32
  0
VERTEX
  8
0
  5
153F7
 10
200.869
 20
243.689
 30
0.000000
  70
    32
  0
VERTEX
  8
0
  5
153F8
 10
200.854
 20
243.701
 30
0.000000
  70
    32
  0
VERTEX
  8
0
  5
153F9
 10
200.839
 20
243.713
 30
0.000000
  70
    32
  0
VERTEX
  8
0
  5
153FA
 10
200.824
 20
243.725
 30
0.000000
  70
    32
  0
VERTEX
  8
0
  5
153FB
 10
200.809
 20
243.737
 30
0.000000
  70
    32
  0
VERTEX
  8
0
  5
153FC
 10
200.794
 20
243.748
 30
0.000000
  70
    32
  0
VERTEX
  8
0
  5
153FD
 10
200.779
 20
243.760
 30
0.000000
  70
    32
  0
VERTEX
  8
0
  5
153FE
 10
200.765
 20
243.772
 30
0.000000
  70
    32
  0
VERTEX
  8
0
  5
153FF
 10
200.750
 20
243.783
 30
0.000000
  70
    32
  0
VERTEX
  8
0
  5
15400
 10
200.735
 20
243.794
 30
0.000000
  70
    32
  0
VERTEX
  8
0
  5
15401
 10
200.720
 20
243.806
 30
0.000000
  70
    32
  0
VERTEX
  8
0
  5
15402
 10
200.704
 20
243.817
 30
0.000000
  70
    32
  0
VERTEX
  8
0
  5
15403
 10
200.689
 20
243.828
 30
0.000000
  70
    32
  0
VERTEX
  8
0
  5
15404
 10
200.674
 20
243.839
 30
0.000000
  70
    32
  0
VERTEX
  8
0
  5
15405
 10
200.659
 20
243.849
 30
0.000000
  70
    32
  0
VERTEX
  8
0
  5
15406
 10
200.644
 20
243.860
 30
0.000000
  70
    32
  0
VERTEX
  8
0
  5
15407
 10
200.629
 20
243.871
 30
0.000000
  70
    32
  0
VERTEX
  8
0
  5
15408
 10
200.614
 20
243.881
 30
0.000000
  70
    32
  0
VERTEX
  8
0
  5
15409
 10
200.598
 20
243.892
 30
0.000000
  70
    32
  0
VERTEX
  8
0
  5
1540A
 10
200.583
 20
243.902
 30
0.000000
  70
    32
  0
VERTEX
  8
0
  5
1540B
 10
200.568
 20
243.912
 30
0.000000
  70
    32
  0
VERTEX
  8
0
  5
1540C
 10
200.553
 20
243.922
 30
0.000000
  70
    32
  0
VERTEX
  8
0
  5
1540D
 10
200.537
 20
243.932
 30
0.000000
  70
    32
  0
VERTEX
  8
0
  5
1540E
 10
200.522
 20
243.942
 30
0.000000
  70
    32
  0
VERTEX
  8
0
  5
1540F
 10
200.506
 20
243.951
 30
0.000000
  70
    32
  0
VERTEX
  8
0
  5
15410
 10
200.491
 20
243.961
 30
0.000000
  70
    32
  0
VERTEX
  8
0
  5
15411
 10
200.476
 20
243.971
 30
0.000000
  70
    32
  0
VERTEX
  8
0
  5
15412
 10
200.460
 20
243.980
 30
0.000000
  70
    32
  0
VERTEX
  8
0
  5
15413
 10
200.445
 20
243.989
 30
0.000000
  70
    32
  0
VERTEX
  8
0
  5
15414
 10
200.429
 20
243.998
 30
0.000000
  70
    32
  0
VERTEX
  8
0
  5
15415
 10
200.414
 20
244.007
 30
0.000000
  70
    32
  0
VERTEX
  8
0
  5
15416
 10
200.398
 20
244.016
 30
0.000000
  70
    32
  0
VERTEX
  8
0
  5
15417
 10
200.383
 20
244.025
 30
0.000000
  70
    32
  0
VERTEX
  8
0
  5
15418
 10
200.367
 20
244.034
 30
0.000000
  70
    32
  0
VERTEX
  8
0
  5
15419
 10
200.352
 20
244.043
 30
0.000000
  70
    32
  0
VERTEX
  8
0
  5
1541A
 10
200.336
 20
244.051
 30
0.000000
  70
    32
  0
VERTEX
  8
0
  5
1541B
 10
200.320
 20
244.059
 30
0.000000
  70
    32
  0
VERTEX
  8
0
  5
1541C
 10
200.305
 20
244.068
 30
0.000000
  70
    32
  0
VERTEX
  8
0
  5
1541D
 10
200.289
 20
244.076
 30
0.000000
  70
    32
  0
VERTEX
  8
0
  5
1541E
 10
200.273
 20
244.084
 30
0.000000
  70
    32
  0
VERTEX
  8
0
  5
1541F
 10
200.258
 20
244.092
 30
0.000000
  70
    32
  0
VERTEX
  8
0
  5
15420
 10
200.242
 20
244.100
 30
0.000000
  70
    32
  0
VERTEX
  8
0
  5
15421
 10
200.226
 20
244.107
 30
0.000000
  70
    32
  0
VERTEX
  8
0
  5
15422
 10
200.210
 20
244.115
 30
0.000000
  70
    32
  0
VERTEX
  8
0
  5
15423
 10
200.195
 20
244.123
 30
0.000000
  70
    32
  0
VERTEX
  8
0
  5
15424
 10
200.179
 20
244.130
 30
0.000000
  70
    32
  0
VERTEX
  8
0
  5
15425
 10
200.163
 20
244.137
 30
0.000000
  70
    32
  0
VERTEX
  8
0
  5
15426
 10
200.147
 20
244.144
 30
0.000000
  70
    32
  0
VERTEX
  8
0
  5
15427
 10
200.131
 20
244.151
 30
0.000000
  70
    32
  0
VERTEX
  8
0
  5
15428
 10
200.115
 20
244.158
 30
0.000000
  70
    32
  0
VERTEX
  8
0
  5
15429
 10
200.100
 20
244.165
 30
0.000000
  70
    32
  0
VERTEX
  8
0
  5
1542A
 10
200.084
 20
244.172
 30
0.000000
  70
    32
  0
VERTEX
  8
0
  5
1542B
 10
200.068
 20
244.179
 30
0.000000
  70
    32
  0
VERTEX
  8
0
  5
1542C
 10
200.052
 20
244.185
 30
0.000000
  70
    32
  0
VERTEX
  8
0
  5
1542D
 10
200.036
 20
244.191
 30
0.000000
  70
    32
  0
VERTEX
  8
0
  5
1542E
 10
200.020
 20
244.198
 30
0.000000
  70
    32
  0
VERTEX
  8
0
  5
1542F
 10
200.004
 20
244.204
 30
0.000000
  70
    32
  0
VERTEX
  8
0
  5
15430
 10
199.988
 20
244.210
 30
0.000000
  70
    32
  0
VERTEX
  8
0
  5
15431
 10
199.972
 20
244.216
 30
0.000000
  70
    32
  0
VERTEX
  8
0
  5
15432
 10
199.956
 20
244.222
 30
0.000000
  70
    32
  0
VERTEX
  8
0
  5
15433
 10
199.940
 20
244.227
 30
0.000000
  70
    32
  0
VERTEX
  8
0
  5
15434
 10
199.924
 20
244.233
 30
0.000000
  70
    32
  0
VERTEX
  8
0
  5
15435
 10
199.908
 20
244.238
 30
0.000000
  70
    32
  0
VERTEX
  8
0
  5
15436
 10
199.892
 20
244.244
 30
0.000000
  70
    32
  0
VERTEX
  8
0
  5
15437
 10
199.876
 20
244.249
 30
0.000000
  70
    32
  0
VERTEX
  8
0
  5
15438
 10
199.860
 20
244.254
 30
0.000000
  70
    32
  0
VERTEX
  8
0
  5
15439
 10
199.843
 20
244.259
 30
0.000000
  70
    32
  0
VERTEX
  8
0
  5
1543A
 10
199.827
 20
244.264
 30
0.000000
  70
    32
  0
VERTEX
  8
0
  5
1543B
 10
199.811
 20
244.269
 30
0.000000
  70
    32
  0
VERTEX
  8
0
  5
1543C
 10
199.795
 20
244.273
 30
0.000000
  70
    32
  0
VERTEX
  8
0
  5
1543D
 10
199.779
 20
244.278
 30
0.000000
  70
    32
  0
VERTEX
  8
0
  5
1543E
 10
199.763
 20
244.282
 30
0.000000
  70
    32
  0
VERTEX
  8
0
  5
1543F
 10
199.747
 20
244.287
 30
0.000000
  70
    32
  0
VERTEX
  8
0
  5
15440
 10
199.730
 20
244.291
 30
0.000000
  70
    32
  0
VERTEX
  8
0
  5
15441
 10
199.714
 20
244.295
 30
0.000000
  70
    32
  0
VERTEX
  8
0
  5
15442
 10
199.698
 20
244.299
 30
0.000000
  70
    32
  0
VERTEX
  8
0
  5
15443
 10
199.682
 20
244.303
 30
0.000000
  70
    32
  0
VERTEX
  8
0
  5
15444
 10
199.666
 20
244.307
 30
0.000000
  70
    32
  0
VERTEX
  8
0
  5
15445
 10
199.649
 20
244.310
 30
0.000000
  70
    32
  0
VERTEX
  8
0
  5
15446
 10
199.633
 20
244.314
 30
0.000000
  70
    32
  0
VERTEX
  8
0
  5
15447
 10
199.617
 20
244.317
 30
0.000000
  70
    32
  0
VERTEX
  8
0
  5
15448
 10
199.601
 20
244.321
 30
0.000000
  70
    32
  0
VERTEX
  8
0
  5
15449
 10
199.584
 20
244.324
 30
0.000000
  70
    32
  0
VERTEX
  8
0
  5
1544A
 10
199.568
 20
244.327
 30
0.000000
  70
    32
  0
VERTEX
  8
0
  5
1544B
 10
199.552
 20
244.330
 30
0.000000
  70
    32
  0
VERTEX
  8
0
  5
1544C
 10
199.536
 20
244.333
 30
0.000000
  70
    32
  0
VERTEX
  8
0
  5
1544D
 10
199.519
 20
244.335
 30
0.000000
  70
    32
  0
VERTEX
  8
0
  5
1544E
 10
199.503
 20
244.338
 30
0.000000
  70
    32
  0
VERTEX
  8
0
  5
1544F
 10
199.487
 20
244.340
 30
0.000000
  70
    32
  0
VERTEX
  8
0
  5
15450
 10
199.470
 20
244.343
 30
0.000000
  70
    32
  0
VERTEX
  8
0
  5
15451
 10
199.454
 20
244.345
 30
0.000000
  70
    32
  0
VERTEX
  8
0
  5
15452
 10
199.438
 20
244.347
 30
0.000000
  70
    32
  0
VERTEX
  8
0
  5
15453
 10
199.421
 20
244.349
 30
0.000000
  70
    32
  0
VERTEX
  8
0
  5
15454
 10
199.405
 20
244.351
 30
0.000000
  70
    32
  0
VERTEX
  8
0
  5
15455
 10
199.389
 20
244.353
 30
0.000000
  70
    32
  0
VERTEX
  8
0
  5
15456
 10
199.372
 20
244.355
 30
0.000000
  70
    32
  0
VERTEX
  8
0
  5
15457
 10
199.356
 20
244.356
 30
0.000000
  70
    32
  0
VERTEX
  8
0
  5
15458
 10
199.340
 20
244.358
 30
0.000000
  70
    32
  0
VERTEX
  8
0
  5
15459
 10
199.323
 20
244.359
 30
0.000000
  70
    32
  0
VERTEX
  8
0
  5
1545A
 10
199.307
 20
244.360
 30
0.000000
  70
    32
  0
VERTEX
  8
0
  5
1545B
 10
199.291
 20
244.361
 30
0.000000
  70
    32
  0
VERTEX
  8
0
  5
1545C
 10
199.274
 20
244.362
 30
0.000000
  70
    32
  0
VERTEX
  8
0
  5
1545D
 10
199.258
 20
244.363
 30
0.000000
  70
    32
  0
VERTEX
  8
0
  5
1545E
 10
199.242
 20
244.364
 30
0.000000
  70
    32
  0
VERTEX
  8
0
  5
1545F
 10
199.225
 20
244.365
 30
0.000000
  70
    32
  0
VERTEX
  8
0
  5
15460
 10
199.209
 20
244.365
 30
0.000000
  70
    32
  0
VERTEX
  8
0
  5
15461
 10
199.193
 20
244.366
 30
0.000000
  70
    32
  0
VERTEX
  8
0
  5
15462
 10
199.176
 20
244.366
 30
0.000000
  70
    32
  0
VERTEX
  8
0
  5
15463
 10
199.160
 20
244.366
 30
0.000000
  70
    32
  0
VERTEX
  8
0
  5
15464
 10
199.144
 20
244.366
 30
0.000000
  70
    32
  0
SEQEND
  8
0
  5
15465
  0
POLYLINE
  5
C6E6
  8
0
 10
169.40157827616119
 20
244.36603139405128
 30
0.0
 66
     1
 70
     8
  0
VERTEX
  8
0
  5
15466
 10
169.402
 20
244.366
 30
0.000000
  70
    32
  0
VERTEX
  8
0
  5
15467
 10
169.391
 20
244.366
 30
0.000000
  70
    32
  0
VERTEX
  8
0
  5
15468
 10
169.380
 20
244.366
 30
0.000000
  70
    32
  0
VERTEX
  8
0
  5
15469
 10
169.369
 20
244.366
 30
0.000000
  70
    32
  0
VERTEX
  8
0
  5
1546A
 10
169.358
 20
244.366
 30
0.000000
  70
    32
  0
VERTEX
  8
0
  5
1546B
 10
169.347
 20
244.365
 30
0.000000
  70
    32
  0
VERTEX
  8
0
  5
1546C
 10
169.336
 20
244.365
 30
0.000000
  70
    32
  0
VERTEX
  8
0
  5
1546D
 10
169.325
 20
244.365
 30
0.000000
  70
    32
  0
VERTEX
  8
0
  5
1546E
 10
169.314
 20
244.364
 30
0.000000
  70
    32
  0
VERTEX
  8
0
  5
1546F
 10
169.303
 20
244.364
 30
0.000000
  70
    32
  0
VERTEX
  8
0
  5
15470
 10
169.293
 20
244.363
 30
0.000000
  70
    32
  0
VERTEX
  8
0
  5
15471
 10
169.282
 20
244.363
 30
0.000000
  70
    32
  0
VERTEX
  8
0
  5
15472
 10
169.271
 20
244.362
 30
0.000000
  70
    32
  0
VERTEX
  8
0
  5
15473
 10
169.260
 20
244.362
 30
0.000000
  70
    32
  0
VERTEX
  8
0
  5
15474
 10
169.249
 20
244.361
 30
0.000000
  70
    32
  0
VERTEX
  8
0
  5
15475
 10
169.238
 20
244.360
 30
0.000000
  70
    32
  0
VERTEX
  8
0
  5
15476
 10
169.227
 20
244.359
 30
0.000000
  70
    32
  0
VERTEX
  8
0
  5
15477
 10
169.216
 20
244.359
 30
0.000000
  70
    32
  0
VERTEX
  8
0
  5
15478
 10
169.205
 20
244.358
 30
0.000000
  70
    32
  0
VERTEX
  8
0
  5
15479
 10
169.194
 20
244.357
 30
0.000000
  70
    32
  0
VERTEX
  8
0
  5
1547A
 10
169.184
 20
244.356
 30
0.000000
  70
    32
  0
VERTEX
  8
0
  5
1547B
 10
169.173
 20
244.355
 30
0.000000
  70
    32
  0
VERTEX
  8
0
  5
1547C
 10
169.162
 20
244.354
 30
0.000000
  70
    32
  0
VERTEX
  8
0
  5
1547D
 10
169.151
 20
244.352
 30
0.000000
  70
    32
  0
VERTEX
  8
0
  5
1547E
 10
169.140
 20
244.351
 30
0.000000
  70
    32
  0
VERTEX
  8
0
  5
1547F
 10
169.129
 20
244.350
 30
0.000000
  70
    32
  0
VERTEX
  8
0
  5
15480
 10
169.118
 20
244.349
 30
0.000000
  70
    32
  0
VERTEX
  8
0
  5
15481
 10
169.107
 20
244.347
 30
0.000000
  70
    32
  0
VERTEX
  8
0
  5
15482
 10
169.096
 20
244.346
 30
0.000000
  70
    32
  0
VERTEX
  8
0
  5
15483
 10
169.086
 20
244.344
 30
0.000000
  70
    32
  0
VERTEX
  8
0
  5
15484
 10
169.075
 20
244.343
 30
0.000000
  70
    32
  0
VERTEX
  8
0
  5
15485
 10
169.064
 20
244.341
 30
0.000000
  70
    32
  0
VERTEX
  8
0
  5
15486
 10
169.053
 20
244.340
 30
0.000000
  70
    32
  0
VERTEX
  8
0
  5
15487
 10
169.042
 20
244.338
 30
0.000000
  70
    32
  0
VERTEX
  8
0
  5
15488
 10
169.031
 20
244.336
 30
0.000000
  70
    32
  0
VERTEX
  8
0
  5
15489
 10
169.020
 20
244.334
 30
0.000000
  70
    32
  0
VERTEX
  8
0
  5
1548A
 10
169.010
 20
244.333
 30
0.000000
  70
    32
  0
VERTEX
  8
0
  5
1548B
 10
168.999
 20
244.331
 30
0.000000
  70
    32
  0
VERTEX
  8
0
  5
1548C
 10
168.988
 20
244.329
 30
0.000000
  70
    32
  0
VERTEX
  8
0
  5
1548D
 10
168.977
 20
244.327
 30
0.000000
  70
    32
  0
VERTEX
  8
0
  5
1548E
 10
168.966
 20
244.325
 30
0.000000
  70
    32
  0
VERTEX
  8
0
  5
1548F
 10
168.955
 20
244.323
 30
0.000000
  70
    32
  0
VERTEX
  8
0
  5
15490
 10
168.944
 20
244.321
 30
0.000000
  70
    32
  0
VERTEX
  8
0
  5
15491
 10
168.934
 20
244.318
 30
0.000000
  70
    32
  0
VERTEX
  8
0
  5
15492
 10
168.923
 20
244.316
 30
0.000000
  70
    32
  0
VERTEX
  8
0
  5
15493
 10
168.912
 20
244.314
 30
0.000000
  70
    32
  0
VERTEX
  8
0
  5
15494
 10
168.901
 20
244.312
 30
0.000000
  70
    32
  0
VERTEX
  8
0
  5
15495
 10
168.890
 20
244.309
 30
0.000000
  70
    32
  0
VERTEX
  8
0
  5
15496
 10
168.879
 20
244.307
 30
0.000000
  70
    32
  0
VERTEX
  8
0
  5
15497
 10
168.869
 20
244.304
 30
0.000000
  70
    32
  0
VERTEX
  8
0
  5
15498
 10
168.858
 20
244.302
 30
0.000000
  70
    32
  0
VERTEX
  8
0
  5
15499
 10
168.847
 20
244.299
 30
0.000000
  70
    32
  0
VERTEX
  8
0
  5
1549A
 10
168.836
 20
244.296
 30
0.000000
  70
    32
  0
VERTEX
  8
0
  5
1549B
 10
168.825
 20
244.294
 30
0.000000
  70
    32
  0
VERTEX
  8
0
  5
1549C
 10
168.815
 20
244.291
 30
0.000000
  70
    32
  0
VERTEX
  8
0
  5
1549D
 10
168.804
 20
244.288
 30
0.000000
  70
    32
  0
VERTEX
  8
0
  5
1549E
 10
168.793
 20
244.285
 30
0.000000
  70
    32
  0
VERTEX
  8
0
  5
1549F
 10
168.782
 20
244.282
 30
0.000000
  70
    32
  0
VERTEX
  8
0
  5
154A0
 10
168.772
 20
244.280
 30
0.000000
  70
    32
  0
VERTEX
  8
0
  5
154A1
 10
168.761
 20
244.277
 30
0.000000
  70
    32
  0
VERTEX
  8
0
  5
154A2
 10
168.750
 20
244.273
 30
0.000000
  70
    32
  0
VERTEX
  8
0
  5
154A3
 10
168.739
 20
244.270
 30
0.000000
  70
    32
  0
VERTEX
  8
0
  5
154A4
 10
168.728
 20
244.267
 30
0.000000
  70
    32
  0
VERTEX
  8
0
  5
154A5
 10
168.718
 20
244.264
 30
0.000000
  70
    32
  0
VERTEX
  8
0
  5
154A6
 10
168.707
 20
244.261
 30
0.000000
  70
    32
  0
VERTEX
  8
0
  5
154A7
 10
168.696
 20
244.257
 30
0.000000
  70
    32
  0
VERTEX
  8
0
  5
154A8
 10
168.686
 20
244.254
 30
0.000000
  70
    32
  0
VERTEX
  8
0
  5
154A9
 10
168.675
 20
244.251
 30
0.000000
  70
    32
  0
VERTEX
  8
0
  5
154AA
 10
168.664
 20
244.247
 30
0.000000
  70
    32
  0
VERTEX
  8
0
  5
154AB
 10
168.653
 20
244.244
 30
0.000000
  70
    32
  0
VERTEX
  8
0
  5
154AC
 10
168.643
 20
244.240
 30
0.000000
  70
    32
  0
VERTEX
  8
0
  5
154AD
 10
168.632
 20
244.237
 30
0.000000
  70
    32
  0
VERTEX
  8
0
  5
154AE
 10
168.621
 20
244.233
 30
0.000000
  70
    32
  0
VERTEX
  8
0
  5
154AF
 10
168.611
 20
244.229
 30
0.000000
  70
    32
  0
VERTEX
  8
0
  5
154B0
 10
168.600
 20
244.225
 30
0.000000
  70
    32
  0
VERTEX
  8
0
  5
154B1
 10
168.589
 20
244.222
 30
0.000000
  70
    32
  0
VERTEX
  8
0
  5
154B2
 10
168.578
 20
244.218
 30
0.000000
  70
    32
  0
VERTEX
  8
0
  5
154B3
 10
168.568
 20
244.214
 30
0.000000
  70
    32
  0
VERTEX
  8
0
  5
154B4
 10
168.557
 20
244.210
 30
0.000000
  70
    32
  0
VERTEX
  8
0
  5
154B5
 10
168.546
 20
244.206
 30
0.000000
  70
    32
  0
VERTEX
  8
0
  5
154B6
 10
168.536
 20
244.202
 30
0.000000
  70
    32
  0
VERTEX
  8
0
  5
154B7
 10
168.525
 20
244.198
 30
0.000000
  70
    32
  0
VERTEX
  8
0
  5
154B8
 10
168.515
 20
244.194
 30
0.000000
  70
    32
  0
VERTEX
  8
0
  5
154B9
 10
168.504
 20
244.189
 30
0.000000
  70
    32
  0
VERTEX
  8
0
  5
154BA
 10
168.493
 20
244.185
 30
0.000000
  70
    32
  0
VERTEX
  8
0
  5
154BB
 10
168.483
 20
244.181
 30
0.000000
  70
    32
  0
VERTEX
  8
0
  5
154BC
 10
168.472
 20
244.176
 30
0.000000
  70
    32
  0
VERTEX
  8
0
  5
154BD
 10
168.461
 20
244.172
 30
0.000000
  70
    32
  0
VERTEX
  8
0
  5
154BE
 10
168.451
 20
244.167
 30
0.000000
  70
    32
  0
VERTEX
  8
0
  5
154BF
 10
168.440
 20
244.163
 30
0.000000
  70
    32
  0
VERTEX
  8
0
  5
154C0
 10
168.430
 20
244.158
 30
0.000000
  70
    32
  0
VERTEX
  8
0
  5
154C1
 10
168.419
 20
244.154
 30
0.000000
  70
    32
  0
VERTEX
  8
0
  5
154C2
 10
168.409
 20
244.149
 30
0.000000
  70
    32
  0
VERTEX
  8
0
  5
154C3
 10
168.398
 20
244.144
 30
0.000000
  70
    32
  0
VERTEX
  8
0
  5
154C4
 10
168.387
 20
244.140
 30
0.000000
  70
    32
  0
VERTEX
  8
0
  5
154C5
 10
168.377
 20
244.135
 30
0.000000
  70
    32
  0
VERTEX
  8
0
  5
154C6
 10
168.366
 20
244.130
 30
0.000000
  70
    32
  0
VERTEX
  8
0
  5
154C7
 10
168.356
 20
244.125
 30
0.000000
  70
    32
  0
VERTEX
  8
0
  5
154C8
 10
168.345
 20
244.120
 30
0.000000
  70
    32
  0
VERTEX
  8
0
  5
154C9
 10
168.335
 20
244.115
 30
0.000000
  70
    32
  0
VERTEX
  8
0
  5
154CA
 10
168.324
 20
244.110
 30
0.000000
  70
    32
  0
VERTEX
  8
0
  5
154CB
 10
168.314
 20
244.105
 30
0.000000
  70
    32
  0
VERTEX
  8
0
  5
154CC
 10
168.303
 20
244.100
 30
0.000000
  70
    32
  0
VERTEX
  8
0
  5
154CD
 10
168.293
 20
244.095
 30
0.000000
  70
    32
  0
VERTEX
  8
0
  5
154CE
 10
168.282
 20
244.089
 30
0.000000
  70
    32
  0
VERTEX
  8
0
  5
154CF
 10
168.272
 20
244.084
 30
0.000000
  70
    32
  0
VERTEX
  8
0
  5
154D0
 10
168.261
 20
244.079
 30
0.000000
  70
    32
  0
VERTEX
  8
0
  5
154D1
 10
168.251
 20
244.073
 30
0.000000
  70
    32
  0
VERTEX
  8
0
  5
154D2
 10
168.240
 20
244.068
 30
0.000000
  70
    32
  0
VERTEX
  8
0
  5
154D3
 10
168.230
 20
244.062
 30
0.000000
  70
    32
  0
VERTEX
  8
0
  5
154D4
 10
168.220
 20
244.057
 30
0.000000
  70
    32
  0
VERTEX
  8
0
  5
154D5
 10
168.209
 20
244.051
 30
0.000000
  70
    32
  0
VERTEX
  8
0
  5
154D6
 10
168.199
 20
244.045
 30
0.000000
  70
    32
  0
VERTEX
  8
0
  5
154D7
 10
168.188
 20
244.040
 30
0.000000
  70
    32
  0
VERTEX
  8
0
  5
154D8
 10
168.178
 20
244.034
 30
0.000000
  70
    32
  0
VERTEX
  8
0
  5
154D9
 10
168.168
 20
244.028
 30
0.000000
  70
    32
  0
VERTEX
  8
0
  5
154DA
 10
168.157
 20
244.022
 30
0.000000
  70
    32
  0
VERTEX
  8
0
  5
154DB
 10
168.147
 20
244.016
 30
0.000000
  70
    32
  0
VERTEX
  8
0
  5
154DC
 10
168.136
 20
244.010
 30
0.000000
  70
    32
  0
VERTEX
  8
0
  5
154DD
 10
168.126
 20
244.004
 30
0.000000
  70
    32
  0
VERTEX
  8
0
  5
154DE
 10
168.116
 20
243.998
 30
0.000000
  70
    32
  0
VERTEX
  8
0
  5
154DF
 10
168.105
 20
243.992
 30
0.000000
  70
    32
  0
VERTEX
  8
0
  5
154E0
 10
168.095
 20
243.986
 30
0.000000
  70
    32
  0
VERTEX
  8
0
  5
154E1
 10
168.085
 20
243.980
 30
0.000000
  70
    32
  0
VERTEX
  8
0
  5
154E2
 10
168.075
 20
243.974
 30
0.000000
  70
    32
  0
VERTEX
  8
0
  5
154E3
 10
168.064
 20
243.967
 30
0.000000
  70
    32
  0
VERTEX
  8
0
  5
154E4
 10
168.054
 20
243.961
 30
0.000000
  70
    32
  0
VERTEX
  8
0
  5
154E5
 10
168.044
 20
243.955
 30
0.000000
  70
    32
  0
VERTEX
  8
0
  5
154E6
 10
168.033
 20
243.948
 30
0.000000
  70
    32
  0
SEQEND
  8
0
  5
154E7
  0
POLYLINE
  5
C6EB
  8
0
 10
168.03349770285848
 20
285.051802365963
 30
0.0
 66
     1
 70
     8
  0
VERTEX
  8
0
  5
154E8
 10
168.033
 20
285.052
 30
0.000000
  70
    32
  0
VERTEX
  8
0
  5
154E9
 10
168.044
 20
285.045
 30
0.000000
  70
    32
  0
VERTEX
  8
0
  5
154EA
 10
168.054
 20
285.039
 30
0.000000
  70
    32
  0
VERTEX
  8
0
  5
154EB
 10
168.064
 20
285.033
 30
0.000000
  70
    32
  0
VERTEX
  8
0
  5
154EC
 10
168.075
 20
285.026
 30
0.000000
  70
    32
  0
VERTEX
  8
0
  5
154ED
 10
168.085
 20
285.020
 30
0.000000
  70
    32
  0
VERTEX
  8
0
  5
154EE
 10
168.095
 20
285.014
 30
0.000000
  70
    32
  0
VERTEX
  8
0
  5
154EF
 10
168.105
 20
285.008
 30
0.000000
  70
    32
  0
VERTEX
  8
0
  5
154F0
 10
168.116
 20
285.002
 30
0.000000
  70
    32
  0
VERTEX
  8
0
  5
154F1
 10
168.126
 20
284.996
 30
0.000000
  70
    32
  0
VERTEX
  8
0
  5
154F2
 10
168.136
 20
284.990
 30
0.000000
  70
    32
  0
VERTEX
  8
0
  5
154F3
 10
168.147
 20
284.984
 30
0.000000
  70
    32
  0
VERTEX
  8
0
  5
154F4
 10
168.157
 20
284.978
 30
0.000000
  70
    32
  0
VERTEX
  8
0
  5
154F5
 10
168.168
 20
284.972
 30
0.000000
  70
    32
  0
VERTEX
  8
0
  5
154F6
 10
168.178
 20
284.966
 30
0.000000
  70
    32
  0
VERTEX
  8
0
  5
154F7
 10
168.188
 20
284.960
 30
0.000000
  70
    32
  0
VERTEX
  8
0
  5
154F8
 10
168.199
 20
284.955
 30
0.000000
  70
    32
  0
VERTEX
  8
0
  5
154F9
 10
168.209
 20
284.949
 30
0.000000
  70
    32
  0
VERTEX
  8
0
  5
154FA
 10
168.220
 20
284.943
 30
0.000000
  70
    32
  0
VERTEX
  8
0
  5
154FB
 10
168.230
 20
284.938
 30
0.000000
  70
    32
  0
VERTEX
  8
0
  5
154FC
 10
168.240
 20
284.932
 30
0.000000
  70
    32
  0
VERTEX
  8
0
  5
154FD
 10
168.251
 20
284.927
 30
0.000000
  70
    32
  0
VERTEX
  8
0
  5
154FE
 10
168.261
 20
284.921
 30
0.000000
  70
    32
  0
VERTEX
  8
0
  5
154FF
 10
168.272
 20
284.916
 30
0.000000
  70
    32
  0
VERTEX
  8
0
  5
15500
 10
168.282
 20
284.911
 30
0.000000
  70
    32
  0
VERTEX
  8
0
  5
15501
 10
168.293
 20
284.906
 30
0.000000
  70
    32
  0
VERTEX
  8
0
  5
15502
 10
168.303
 20
284.900
 30
0.000000
  70
    32
  0
VERTEX
  8
0
  5
15503
 10
168.314
 20
284.895
 30
0.000000
  70
    32
  0
VERTEX
  8
0
  5
15504
 10
168.324
 20
284.890
 30
0.000000
  70
    32
  0
VERTEX
  8
0
  5
15505
 10
168.335
 20
284.885
 30
0.000000
  70
    32
  0
VERTEX
  8
0
  5
15506
 10
168.345
 20
284.880
 30
0.000000
  70
    32
  0
VERTEX
  8
0
  5
15507
 10
168.356
 20
284.875
 30
0.000000
  70
    32
  0
VERTEX
  8
0
  5
15508
 10
168.366
 20
284.870
 30
0.000000
  70
    32
  0
VERTEX
  8
0
  5
15509
 10
168.377
 20
284.865
 30
0.000000
  70
    32
  0
VERTEX
  8
0
  5
1550A
 10
168.387
 20
284.860
 30
0.000000
  70
    32
  0
VERTEX
  8
0
  5
1550B
 10
168.398
 20
284.856
 30
0.000000
  70
    32
  0
VERTEX
  8
0
  5
1550C
 10
168.409
 20
284.851
 30
0.000000
  70
    32
  0
VERTEX
  8
0
  5
1550D
 10
168.419
 20
284.846
 30
0.000000
  70
    32
  0
VERTEX
  8
0
  5
1550E
 10
168.430
 20
284.842
 30
0.000000
  70
    32
  0
VERTEX
  8
0
  5
1550F
 10
168.440
 20
284.837
 30
0.000000
  70
    32
  0
VERTEX
  8
0
  5
15510
 10
168.451
 20
284.833
 30
0.000000
  70
    32
  0
VERTEX
  8
0
  5
15511
 10
168.461
 20
284.828
 30
0.000000
  70
    32
  0
VERTEX
  8
0
  5
15512
 10
168.472
 20
284.824
 30
0.000000
  70
    32
  0
VERTEX
  8
0
  5
15513
 10
168.483
 20
284.819
 30
0.000000
  70
    32
  0
VERTEX
  8
0
  5
15514
 10
168.493
 20
284.815
 30
0.000000
  70
    32
  0
VERTEX
  8
0
  5
15515
 10
168.504
 20
284.811
 30
0.000000
  70
    32
  0
VERTEX
  8
0
  5
15516
 10
168.515
 20
284.806
 30
0.000000
  70
    32
  0
VERTEX
  8
0
  5
15517
 10
168.525
 20
284.802
 30
0.000000
  70
    32
  0
VERTEX
  8
0
  5
15518
 10
168.536
 20
284.798
 30
0.000000
  70
    32
  0
VERTEX
  8
0
  5
15519
 10
168.546
 20
284.794
 30
0.000000
  70
    32
  0
VERTEX
  8
0
  5
1551A
 10
168.557
 20
284.790
 30
0.000000
  70
    32
  0
VERTEX
  8
0
  5
1551B
 10
168.568
 20
284.786
 30
0.000000
  70
    32
  0
VERTEX
  8
0
  5
1551C
 10
168.578
 20
284.782
 30
0.000000
  70
    32
  0
VERTEX
  8
0
  5
1551D
 10
168.589
 20
284.778
 30
0.000000
  70
    32
  0
VERTEX
  8
0
  5
1551E
 10
168.600
 20
284.775
 30
0.000000
  70
    32
  0
VERTEX
  8
0
  5
1551F
 10
168.611
 20
284.771
 30
0.000000
  70
    32
  0
VERTEX
  8
0
  5
15520
 10
168.621
 20
284.767
 30
0.000000
  70
    32
  0
VERTEX
  8
0
  5
15521
 10
168.632
 20
284.763
 30
0.000000
  70
    32
  0
VERTEX
  8
0
  5
15522
 10
168.643
 20
284.760
 30
0.000000
  70
    32
  0
VERTEX
  8
0
  5
15523
 10
168.653
 20
284.756
 30
0.000000
  70
    32
  0
VERTEX
  8
0
  5
15524
 10
168.664
 20
284.753
 30
0.000000
  70
    32
  0
VERTEX
  8
0
  5
15525
 10
168.675
 20
284.749
 30
0.000000
  70
    32
  0
VERTEX
  8
0
  5
15526
 10
168.686
 20
284.746
 30
0.000000
  70
    32
  0
VERTEX
  8
0
  5
15527
 10
168.696
 20
284.743
 30
0.000000
  70
    32
  0
VERTEX
  8
0
  5
15528
 10
168.707
 20
284.739
 30
0.000000
  70
    32
  0
VERTEX
  8
0
  5
15529
 10
168.718
 20
284.736
 30
0.000000
  70
    32
  0
VERTEX
  8
0
  5
1552A
 10
168.728
 20
284.733
 30
0.000000
  70
    32
  0
VERTEX
  8
0
  5
1552B
 10
168.739
 20
284.730
 30
0.000000
  70
    32
  0
VERTEX
  8
0
  5
1552C
 10
168.750
 20
284.727
 30
0.000000
  70
    32
  0
VERTEX
  8
0
  5
1552D
 10
168.761
 20
284.723
 30
0.000000
  70
    32
  0
VERTEX
  8
0
  5
1552E
 10
168.772
 20
284.720
 30
0.000000
  70
    32
  0
VERTEX
  8
0
  5
1552F
 10
168.782
 20
284.718
 30
0.000000
  70
    32
  0
VERTEX
  8
0
  5
15530
 10
168.793
 20
284.715
 30
0.000000
  70
    32
  0
VERTEX
  8
0
  5
15531
 10
168.804
 20
284.712
 30
0.000000
  70
    32
  0
VERTEX
  8
0
  5
15532
 10
168.815
 20
284.709
 30
0.000000
  70
    32
  0
VERTEX
  8
0
  5
15533
 10
168.825
 20
284.706
 30
0.000000
  70
    32
  0
VERTEX
  8
0
  5
15534
 10
168.836
 20
284.704
 30
0.000000
  70
    32
  0
VERTEX
  8
0
  5
15535
 10
168.847
 20
284.701
 30
0.000000
  70
    32
  0
VERTEX
  8
0
  5
15536
 10
168.858
 20
284.698
 30
0.000000
  70
    32
  0
VERTEX
  8
0
  5
15537
 10
168.869
 20
284.696
 30
0.000000
  70
    32
  0
VERTEX
  8
0
  5
15538
 10
168.879
 20
284.693
 30
0.000000
  70
    32
  0
VERTEX
  8
0
  5
15539
 10
168.890
 20
284.691
 30
0.000000
  70
    32
  0
VERTEX
  8
0
  5
1553A
 10
168.901
 20
284.688
 30
0.000000
  70
    32
  0
VERTEX
  8
0
  5
1553B
 10
168.912
 20
284.686
 30
0.000000
  70
    32
  0
VERTEX
  8
0
  5
1553C
 10
168.923
 20
284.684
 30
0.000000
  70
    32
  0
VERTEX
  8
0
  5
1553D
 10
168.934
 20
284.682
 30
0.000000
  70
    32
  0
VERTEX
  8
0
  5
1553E
 10
168.944
 20
284.679
 30
0.000000
  70
    32
  0
VERTEX
  8
0
  5
1553F
 10
168.955
 20
284.677
 30
0.000000
  70
    32
  0
VERTEX
  8
0
  5
15540
 10
168.966
 20
284.675
 30
0.000000
  70
    32
  0
VERTEX
  8
0
  5
15541
 10
168.977
 20
284.673
 30
0.000000
  70
    32
  0
VERTEX
  8
0
  5
15542
 10
168.988
 20
284.671
 30
0.000000
  70
    32
  0
VERTEX
  8
0
  5
15543
 10
168.999
 20
284.669
 30
0.000000
  70
    32
  0
VERTEX
  8
0
  5
15544
 10
169.010
 20
284.667
 30
0.000000
  70
    32
  0
VERTEX
  8
0
  5
15545
 10
169.020
 20
284.666
 30
0.000000
  70
    32
  0
VERTEX
  8
0
  5
15546
 10
169.031
 20
284.664
 30
0.000000
  70
    32
  0
VERTEX
  8
0
  5
15547
 10
169.042
 20
284.662
 30
0.000000
  70
    32
  0
VERTEX
  8
0
  5
15548
 10
169.053
 20
284.660
 30
0.000000
  70
    32
  0
VERTEX
  8
0
  5
15549
 10
169.064
 20
284.659
 30
0.000000
  70
    32
  0
VERTEX
  8
0
  5
1554A
 10
169.075
 20
284.657
 30
0.000000
  70
    32
  0
VERTEX
  8
0
  5
1554B
 10
169.086
 20
284.656
 30
0.000000
  70
    32
  0
VERTEX
  8
0
  5
1554C
 10
169.096
 20
284.654
 30
0.000000
  70
    32
  0
VERTEX
  8
0
  5
1554D
 10
169.107
 20
284.653
 30
0.000000
  70
    32
  0
VERTEX
  8
0
  5
1554E
 10
169.118
 20
284.651
 30
0.000000
  70
    32
  0
VERTEX
  8
0
  5
1554F
 10
169.129
 20
284.650
 30
0.000000
  70
    32
  0
VERTEX
  8
0
  5
15550
 10
169.140
 20
284.649
 30
0.000000
  70
    32
  0
VERTEX
  8
0
  5
15551
 10
169.151
 20
284.648
 30
0.000000
  70
    32
  0
VERTEX
  8
0
  5
15552
 10
169.162
 20
284.646
 30
0.000000
  70
    32
  0
VERTEX
  8
0
  5
15553
 10
169.173
 20
284.645
 30
0.000000
  70
    32
  0
VERTEX
  8
0
  5
15554
 10
169.184
 20
284.644
 30
0.000000
  70
    32
  0
VERTEX
  8
0
  5
15555
 10
169.194
 20
284.643
 30
0.000000
  70
    32
  0
VERTEX
  8
0
  5
15556
 10
169.205
 20
284.642
 30
0.000000
  70
    32
  0
VERTEX
  8
0
  5
15557
 10
169.216
 20
284.641
 30
0.000000
  70
    32
  0
VERTEX
  8
0
  5
15558
 10
169.227
 20
284.641
 30
0.000000
  70
    32
  0
VERTEX
  8
0
  5
15559
 10
169.238
 20
284.640
 30
0.000000
  70
    32
  0
VERTEX
  8
0
  5
1555A
 10
169.249
 20
284.639
 30
0.000000
  70
    32
  0
VERTEX
  8
0
  5
1555B
 10
169.260
 20
284.638
 30
0.000000
  70
    32
  0
VERTEX
  8
0
  5
1555C
 10
169.271
 20
284.638
 30
0.000000
  70
    32
  0
VERTEX
  8
0
  5
1555D
 10
169.282
 20
284.637
 30
0.000000
  70
    32
  0
VERTEX
  8
0
  5
1555E
 10
169.293
 20
284.637
 30
0.000000
  70
    32
  0
VERTEX
  8
0
  5
1555F
 10
169.303
 20
284.636
 30
0.000000
  70
    32
  0
VERTEX
  8
0
  5
15560
 10
169.314
 20
284.636
 30
0.000000
  70
    32
  0
VERTEX
  8
0
  5
15561
 10
169.325
 20
284.635
 30
0.000000
  70
    32
  0
VERTEX
  8
0
  5
15562
 10
169.336
 20
284.635
 30
0.000000
  70
    32
  0
VERTEX
  8
0
  5
15563
 10
169.347
 20
284.635
 30
0.000000
  70
    32
  0
VERTEX
  8
0
  5
15564
 10
169.358
 20
284.634
 30
0.000000
  70
    32
  0
VERTEX
  8
0
  5
15565
 10
169.369
 20
284.634
 30
0.000000
  70
    32
  0
VERTEX
  8
0
  5
15566
 10
169.380
 20
284.634
 30
0.000000
  70
    32
  0
VERTEX
  8
0
  5
15567
 10
169.391
 20
284.634
 30
0.000000
  70
    32
  0
VERTEX
  8
0
  5
15568
 10
169.402
 20
284.634
 30
0.000000
  70
    32
  0
SEQEND
  8
0
  5
15569
  0
LINE
  5
C6ED
  8
0
 10
168.03349752910461
 20
243.94820898771289
 30
0.0
 11
165.73627491481619
 21
242.50000610947609
 31
0.0
  0
LINE
  5
C6EE
  8
0
 10
202.08135911263551
 20
242.50000610947609
 30
0.0
 11
201.14353590644919
 21
243.43782745301721
 31
0.0
  0
LINE
  5
C6F0
  8
0
 10
165.73627491481619
 20
286.50000587105751
 30
0.0
 11
168.03349752910461
 21
285.0518029928208
 31
0.0
  0
LINE
  5
C6F2
  8
0
 10
201.14353590644919
 20
285.56218452751642
 30
0.0
 11
202.08135911263551
 21
286.50000587105751
 31
0.0
  0
LINE
  5
C705
  8
0
 10
165.73627491481619
 20
287.00000688433653
 30
0.0
 11
165.73627491481619
 21
286.50000587105751
 31
0.0
  0
LINE
  5
C707
  8
0
 10
165.73627491481619
 20
242.50000610947609
 30
0.0
 11
165.73627491481619
 21
242.0000050961971
 31
0.0
  0
LINE
  5
C70E
  8
0
 10
202.08135911263551
 20
242.50000610947609
 30
0.0
 11
202.08135911263551
 21
242.0000050961971
 31
0.0
  0
LINE
  5
C710
  8
0
 10
202.08135911263551
 20
287.00000688433653
 30
0.0
 11
202.08135911263551
 21
286.50000587105751
 31
0.0
  0
LINE
  5
C712
  8
0
 10
206.27751120366179
 20
242.0000050961971
 30
0.0
 11
159.50000158511119
 21
242.00000509619721
 31
0.0
  0
LINE
  5
C713
  8
0
 10
159.50000158511151
 20
287.00000688433659
 30
0.0
 11
206.27751120366179
 21
287.00000688433653
 31
0.0
  0
ARC
  5
C717
  8
0
 10
163.6917246766279
 20
243.0000059902668
 30
0.0
 40
1.000000000000028
 50
224.9999999999948
 51
270.0
  0
LINE
  5
C719
  8
0
 10
162.9846178740265
 20
242.2928985953331
 30
0.0
 11
160.57040432235249
 21
244.70711208879951
 31
0.0
  0
LINE
  5
C71B
  8
0
 10
160.57040432235249
 20
284.29289989173412
 30
0.0
 11
162.9846178740265
 21
286.7071133852005
 31
0.0
  0
ARC
  5
C71E
  8
0
 10
163.6917246766279
 20
286.0000059902668
 30
0.0
 40
1.000000000000028
 50
90.0
 51
135.0000000000052
  0
ARC
  5
C720
  8
0
 10
161.27751111425479
 20
283.58579242789369
 30
0.0
 40
1.0000000000000071
 50
134.99999999999599
 51
179.9999999999992
  0
LINE
  5
C721
  8
0
 10
160.27751111425479
 20
245.41421875357631
 30
0.0
 11
160.27751111425479
 21
283.58579322695732
 31
0.0
  0
ARC
  5
C723
  8
0
 10
161.27751111425479
 20
245.41421955263999
 30
0.0
 40
1.0000000000000071
 50
180.0
 51
225.00000000000401
  0
ARC
  5
C724
  8
0
 10
206.27751111425459
 20
285.0000059902668
 30
0.0
 40
2.0
 50
0.0
 51
90.0
  0
ARC
  5
C727
  8
0
 10
206.27751111425459
 20
244.0000059902668
 30
0.0
 40
2.0
 50
270.0
 51
0.0
  0
LINE
  5
C728
  8
0
 10
208.27751153148731
 20
285.00000655651093
 30
0.0
 11
208.27751153148731
 21
244.0000054240227
 31
0.0
  0
ARC
  5
C72B
  8
0
 10
187.3485789261201
 20
292.0000059902668
 30
0.0
 40
5.0
 50
225.00000000000401
 51
270.0
  0
ARC
  5
C72C
  8
0
 10
187.3485789261201
 20
237.0000059902668
 30
0.0
 40
5.0
 50
90.0
 51
135.0000000000052
  0
ARC
  5
C72F
  8
0
 10
172.27751111425459
 20
234.20000599026679
 30
0.0
 40
3.0
 50
270.0
 51
0.0
  0
ARC
  5
C733
  8
0
 10
165.27751111425479
 20
297.0000059902668
 30
0.0
 40
5.0
 50
90.0
 51
180.0
  0
ARC
  5
C739
  8
0
 10
168.27751111425479
 20
294.20000599026679
 30
0.0
 40
3.0
 50
180.0
 51
270.0
  0
LINE
  5
C73B
  8
0
 10
181.74197630025469
 20
290.53554020822048
 30
0.0
 11
183.81304585374909
 21
288.46447251737118
 31
0.0
  0
LINE
  5
C73E
  8
0
 10
168.2775114942344
 20
231.2000048160553
 30
0.0
 11
172.27751121856289
 21
231.2000048160553
 31
0.0
  0
ARC
  5
C743
  8
0
 10
168.27751111425479
 20
234.80000599026681
 30
0.0
 40
3.0
 50
90.0
 51
180.0
  0
ARC
  5
C745
  8
0
 10
185.27751111425459
 20
234.9289381784013
 30
0.0
 40
5.0
 50
135.0000000000052
 51
180.0
  0
LINE
  5
C749
  8
0
 10
180.27751066722001
 20
234.92893844842911
 30
0.0
 11
180.27751066722001
 21
232.0000071823597
 31
0.0
  0
LINE
  5
C74C
  8
0
 10
175.27751077897869
 20
234.20000530779359
 30
0.0
 11
175.27751077897869
 21
234.8000061511994
 31
0.0
  0
LINE
  5
C751
  8
0
 10
172.27751121856289
 20
237.80000664293769
 30
0.0
 11
168.2775114942344
 21
237.80000664293769
 31
0.0
  0
LINE
  5
C753
  8
0
 10
165.27751100249611
 20
234.8000061511994
 30
0.0
 11
165.27751100249611
 21
234.20000530779359
 31
0.0
  0
ARC
  5
C755
  8
0
 10
185.27751111425459
 20
294.07107380213222
 30
0.0
 40
5.0
 50
180.0
 51
225.00000000000401
  0
LINE
  5
C763
  8
0
 10
165.27751100249611
 20
302.00000748038292
 30
0.0
 11
175.27751077897869
 21
302.00000748038292
 31
0.0
  0
ARC
  5
C765
  8
0
 10
168.27751111425479
 20
234.20000599026679
 30
0.0
 40
3.0
 50
180.0
 51
270.0
  0
LINE
  5
C767
  8
0
 10
183.81304585374909
 20
240.53553946316239
 30
0.0
 11
181.74197630025469
 21
238.46447177231309
 31
0.0
  0
ARC
  5
C76A
  8
0
 10
172.27751111425459
 20
294.80000599026681
 30
0.0
 40
3.0
 50
0.0
 51
90.0
  0
LINE
  5
C76C
  8
0
 10
160.27751111425479
 20
287.00000688433653
 30
0.0
 11
160.27751111425479
 21
297.0000047981739
 31
0.0
  0
ARC
  5
C76D
  8
0
 10
175.27751111425459
 20
232.0000059902668
 30
0.0
 40
5.0000000000000284
 50
270.0
 51
0.0
  0
LINE
  5
C771
  8
0
 10
165.27751100249611
 20
294.80000667273998
 30
0.0
 11
165.27751100249611
 21
294.20000582933432
 31
0.0
  0
LINE
  5
C772
  8
0
 10
168.2775114942344
 20
291.200005337596
 30
0.0
 11
172.27751121856289
 21
291.200005337596
 31
0.0
  0
ARC
  5
C775
  8
0
 10
168.27751111425479
 20
294.80000599026681
 30
0.0
 40
3.0
 50
90.0
 51
180.0
  0
LINE
  5
C778
  8
0
 10
160.27751111425479
 20
232.0000071823597
 30
0.0
 11
160.27751111425479
 21
242.0000050961971
 31
0.0
  0
ARC
  5
C779
  8
0
 10
172.27751111425459
 20
234.80000599026681
 30
0.0
 40
3.0
 50
0.0
 51
90.0
  0
LINE
  5
C77B
  8
0
 10
172.27751121856289
 20
297.8000071644783
 30
0.0
 11
168.2775114942344
 21
297.8000071644783
 31
0.0
  0
LINE
  5
C77C
  8
0
 10
175.27751077897869
 20
294.20000582933432
 30
0.0
 11
175.27751077897869
 21
294.80000667273998
 31
0.0
  0
LINE
  5
C77E
  8
0
 10
180.27751066722001
 20
297.0000047981739
 30
0.0
 11
180.27751066722001
 21
294.07107353210449
 31
0.0
  0
ARC
  5
C782
  8
0
 10
175.27751111425459
 20
297.0000059902668
 30
0.0
 40
5.0
 50
0.0
 51
90.0
  0
ARC
  5
C783
  8
0
 10
172.27751111425459
 20
294.20000599026679
 30
0.0
 40
3.0
 50
270.0
 51
0.0
  0
ARC
  5
C784
  8
0
 10
165.27751111425479
 20
232.0000059902668
 30
0.0
 40
5.0000000000000284
 50
180.0
 51
270.0
  0
LINE
  5
C786
  8
0
 10
175.27751077897869
 20
227.00000450015071
 30
0.0
 11
165.27751100249611
 21
227.00000450015071
 31
0.0
  0
ARC
  5
C789
  8
0
 10
280.97218427123221
 20
270.20936370364723
 30
0.0
 40
5.0128886415506928
 50
240.80382437838051
 51
319.24966503666451
  0
ARC
  5
C78A
  8
0
 10
277.84664056020353
 20
266.16232985821063
 30
0.0
 40
8.0472185991577874
 50
30.64178026064814
 51
87.753512093599625
  0
ARC
  5
C78B
  8
0
 10
268.59767671175018
 20
253.04235682949309
 30
0.0
 40
13.466074322131171
 50
62.370206970158627
 51
72.652702157802153
  0
ARC
  5
C78C
  8
0
 10
252.0068353940969
 20
400.2170817526428
 30
0.0
 40
126.0197093627138
 50
279.39776222860462
 51
280.4747701820823
  0
ARC
  5
C78D
  8
0
 10
265.28748904760141
 20
245.03367752633659
 30
0.0
 40
21.847494362647389
 50
64.605043617588365
 51
70.464748388819061
  0
POLYLINE
  5
C78E
  8
0
 66
     1
 10
0.0
 20
0.0
 30
0.0
 70
   128
  0
VERTEX
  5
14CB3
  8
0
 10
274.91753839887701
 20
276.29748348146683
 30
0.0
  0
VERTEX
  5
14CB4
  8
0
 10
274.94102262891852
 20
276.30178526043892
 30
0.0
  0
VERTEX
  5
14CB5
  8
0
 10
274.9921634141358
 20
276.31085075438023
 30
0.0
  0
SEQEND
  5
14CB6
  8
0
  0
POLYLINE
  5
C78F
  8
0
 66
     1
 10
0.0
 20
0.0
 30
0.0
 70
   128
  0
VERTEX
  5
14CB7
  8
0
 10
274.85761337913601
 20
276.57359268516302
 30
0.0
  0
VERTEX
  5
14CB8
  8
0
 10
274.84871738590323
 20
276.57198056578642
 30
0.0
  0
VERTEX
  5
14CB9
  8
0
 10
274.73964833654492
 20
276.55225329101091
 30
0.0
  0
VERTEX
  5
14CBA
  8
0
 10
274.51791160739981
 20
276.5123330801726
 30
0.0
  0
VERTEX
  5
14CBB
  8
0
 10
274.20870506204687
 20
276.4570851624012
 30
0.0
  0
VERTEX
  5
14CBC
  8
0
 10
273.84715818800061
 20
276.39310330152512
 30
0.0
  0
VERTEX
  5
14CBD
  8
0
 10
273.47407036460959
 20
276.32777661085129
 30
0.0
  0
VERTEX
  5
14CBE
  8
0
 10
273.13126170076453
 20
276.26837778836489
 30
0.0
  0
VERTEX
  5
14CBF
  8
0
 10
272.85710268653952
 20
276.22130315750837
 30
0.0
  0
VERTEX
  5
14CC0
  8
0
 10
272.68245362676703
 20
276.1915148049593
 30
0.0
  0
VERTEX
  5
14CC1
  8
0
 10
272.63327234424668
 20
276.1831533908844
 30
0.0
  0
VERTEX
  5
14CC2
  8
0
 10
272.63327234424668
 20
276.1831533908844
 30
0.0
  0
SEQEND
  5
14CC3
  8
0
  0
ARC
  5
C790
  8
0
 10
251.0494643183406
 20
400.00017057178093
 30
0.0
 40
125.95570810413651
 50
277.54404036626022
 51
278.6519389568349
  0
POLYLINE
  5
C791
  8
0
 66
     1
 10
0.0
 20
0.0
 30
0.0
 70
   128
  0
VERTEX
  5
14CC4
  8
0
 10
277.6681660953912
 20
276.42595291137701
 30
0.0
  0
VERTEX
  5
14CC5
  8
0
 10
277.6681660953912
 20
276.42595291137701
 30
0.0
  0
VERTEX
  5
14CC6
  8
0
 10
277.74079435505001
 20
276.42052423208952
 30
0.0
  0
VERTEX
  5
14CC7
  8
0
 10
277.9542013350877
 20
276.40022326260811
 30
0.0
  0
VERTEX
  5
14CC8
  8
0
 10
278.2746359054002
 20
276.35744202882051
 30
0.0
  0
VERTEX
  5
14CC9
  8
0
 10
278.66160416044318
 20
276.2857329845429
 30
0.0
  0
VERTEX
  5
14CCA
  8
0
 10
279.06870388425909
 20
276.1858924105764
 30
0.0
  0
VERTEX
  5
14CCB
  8
0
 10
279.44823645986639
 20
276.06931317597628
 30
0.0
  0
VERTEX
  5
14CCC
  8
0
 10
279.75811355747311
 20
275.95647040754562
 30
0.0
  0
VERTEX
  5
14CCD
  8
0
 10
279.9696802441033
 20
275.86985927075148
 30
0.0
  0
VERTEX
  5
14CCE
  8
0
 10
280.06671660579758
 20
275.82743659615522
 30
0.0
  0
VERTEX
  5
14CCF
  8
0
 10
280.0719022098931
 20
275.8251203969121
 30
0.0
  0
SEQEND
  5
14CD0
  8
0
  0
POLYLINE
  5
C792
  8
0
 66
     1
 10
0.0
 20
0.0
 30
0.0
 70
   128
  0
VERTEX
  5
14CD1
  8
0
 10
269.88027171556217
 20
275.7456790800274
 30
0.0
  0
VERTEX
  5
14CD2
  8
0
 10
269.8170124832543
 20
275.73631972074509
 30
0.0
  0
VERTEX
  5
14CD3
  8
0
 10
269.63429444469529
 20
275.70942312479019
 30
0.0
  0
VERTEX
  5
14CD4
  8
0
 10
269.35274445451819
 20
275.66830895841122
 30
0.0
  0
VERTEX
  5
14CD5
  8
0
 10
269.00444471277319
 20
275.61799798160791
 30
0.0
  0
VERTEX
  5
14CD6
  8
0
 10
268.62880134023749
 20
275.56441992521292
 30
0.0
  0
VERTEX
  5
14CD7
  8
0
 10
268.26802932657318
 20
275.51362838596111
 30
0.0
  0
VERTEX
  5
14CD8
  8
0
 10
267.96248846687399
 20
275.47112282365561
 30
0.0
  0
VERTEX
  5
14CD9
  8
0
 10
267.74645143188559
 20
275.4413521662355
 30
0.0
  0
VERTEX
  5
14CDA
  8
0
 10
267.64443808235251
 20
275.4273739457131
 30
0.0
  0
VERTEX
  5
14CDB
  8
0
 10
267.64443808235251
 20
275.4273739457131
 30
0.0
  0
SEQEND
  5
14CDC
  8
0
  0
POLYLINE
  5
C793
  8
0
 66
     1
 10
0.0
 20
0.0
 30
0.0
 70
   128
  0
VERTEX
  5
14CDD
  8
0
 10
280.06545745767681
 20
276.1743076890707
 30
0.0
  0
VERTEX
  5
14CDE
  8
0
 10
280.06580018438422
 20
276.17418568581343
 30
0.0
  0
VERTEX
  5
14CDF
  8
0
 10
279.96922575868689
 20
276.20819013565779
 30
0.0
  0
VERTEX
  5
14CE0
  8
0
 10
279.76443910039978
 20
276.27718530595303
 30
0.0
  0
VERTEX
  5
14CE1
  8
0
 10
279.47052114643179
 20
276.36893641203642
 30
0.0
  0
VERTEX
  5
14CE2
  8
0
 10
279.11299758590781
 20
276.46926686167723
 30
0.0
  0
VERTEX
  5
14CE3
  8
0
 10
278.73017930425732
 20
276.56331460922962
 30
0.0
  0
VERTEX
  5
14CE4
  8
0
 10
278.36863988079148
 20
276.63972590118652
 30
0.0
  0
VERTEX
  5
14CE5
  8
0
 10
278.0751615110787
 20
276.69306181371212
 30
0.0
  0
VERTEX
  5
14CE6
  8
0
 10
277.88679593242728
 20
276.72324597835541
 30
0.0
  0
VERTEX
  5
14CE7
  8
0
 10
277.82295190729218
 20
276.73276502639061
 30
0.0
  0
SEQEND
  5
14CE8
  8
0
  0
ARC
  5
C794
  8
0
 10
267.6292725541125
 20
253.27769228827779
 30
0.0
 40
13.46765303413803
 50
79.786424890060701
 51
90.000016395551953
  0
POLYLINE
  5
C795
  8
0
 66
     1
 10
0.0
 20
0.0
 30
0.0
 70
   128
  0
VERTEX
  5
14CE9
  8
0
 10
280.03989451564871
 20
263.04507512133569
 30
0.0
  0
VERTEX
  5
14CEA
  8
0
 10
280.03989451564871
 20
263.04507512133569
 30
0.0
  0
VERTEX
  5
14CEB
  8
0
 10
279.93686043657391
 20
263.03637552075088
 30
0.0
  0
VERTEX
  5
14CEC
  8
0
 10
279.69621413387381
 20
263.02495424635708
 30
0.0
  0
VERTEX
  5
14CED
  8
0
 10
279.35515635646902
 20
263.03000259678811
 30
0.0
  0
VERTEX
  5
14CEE
  8
0
 10
278.95596169866639
 20
263.06769636459649
 30
0.0
  0
VERTEX
  5
14CEF
  8
0
 10
278.54352735914313
 20
263.14354176167399
 30
0.0
  0
VERTEX
  5
14CF0
  8
0
 10
278.16663228906708
 20
263.24724418111151
 30
0.0
  0
VERTEX
  5
14CF1
  8
0
 10
277.86863141693198
 20
263.35405011661351
 30
0.0
  0
VERTEX
  5
14CF2
  8
0
 10
277.6740818563851
 20
263.43643805477768
 30
0.0
  0
VERTEX
  5
14CF3
  8
0
 10
277.5936826411637
 20
263.47356674261391
 30
0.0
  0
VERTEX
  5
14CF4
  8
0
 10
277.59202861227118
 20
263.47435068339109
 30
0.0
  0
SEQEND
  5
14CF5
  8
0
  0
POLYLINE
  5
C796
  8
0
 66
     1
 10
0.0
 20
0.0
 30
0.0
 70
   128
  0
VERTEX
  5
14CF6
  8
0
 10
277.61201852001273
 20
263.09917506761849
 30
0.0
  0
VERTEX
  5
14CF7
  8
0
 10
277.61160873807989
 20
263.09931162279099
 30
0.0
  0
VERTEX
  5
14CF8
  8
0
 10
277.71058970131003
 20
263.0669201072306
 30
0.0
  0
VERTEX
  5
14CF9
  8
0
 10
277.91782015003292
 20
263.00381485372782
 30
0.0
  0
VERTEX
  5
14CFA
  8
0
 10
278.21576886810391
 20
262.92398584075272
 30
0.0
  0
VERTEX
  5
14CFB
  8
0
 10
278.58171158470242
 20
262.84301013685757
 30
0.0
  0
VERTEX
  5
14CFC
  8
0
 10
278.97648804821102
 20
262.77612243313342
 30
0.0
  0
VERTEX
  5
14CFD
  8
0
 10
279.35076796449738
 20
262.73183839395642
 30
0.0
  0
VERTEX
  5
14CFE
  8
0
 10
279.65452813543402
 20
262.70935766398912
 30
0.0
  0
VERTEX
  5
14CFF
  8
0
 10
279.84799736179428
 20
262.70126912742847
 30
0.0
  0
VERTEX
  5
14D00
  8
0
 10
279.91235547699063
 20
262.69964920822531
 30
0.0
  0
SEQEND
  5
14D01
  8
0
  0
LINE
  5
C797
  8
0
 10
267.62926870025723
 20
266.74534532241518
 30
0.0
 11
267.5982072297486
 21
266.74534532241518
 31
0.0
  0
ARC
  5
C798
  8
0
 10
266.86863940757189
 20
244.65384552977781
 30
0.0
 40
21.840599451576079
 50
82.019884907876033
 51
87.861376414468282
  0
LINE
  5
C8EE
  8
0
 10
51.000001356005662
 20
172.00000368058679
 30
0.0
 11
50.000001657754183
 21
171.0000035166741
 31
0.0
  0
LINE
  5
C8EF
  8
0
 10
51.000001356005662
 20
154.0000025928021
 30
0.0
 11
51.000001356005662
 21
172.00000368058679
 31
0.0
  0
LINE
  5
C8F0
  8
0
 10
50.000001657754183
 20
155.00000275671479
 30
0.0
 11
51.000001356005662
 21
154.0000025928021
 31
0.0
  0
LINE
  5
C8F1
  8
0
 10
50.000001657754183
 20
155.00000275671479
 30
0.0
 11
50.000001657754183
 21
171.0000035166741
 31
0.0
  0
LINE
  5
C8F2
  8
0
 10
37.000000923871987
 20
155.00000275671479
 30
0.0
 11
50.000001657754183
 21
155.00000275671479
 31
0.0
  0
LINE
  5
C8F4
  8
0
 10
36.000000759959221
 20
154.0000025928021
 30
0.0
 11
37.000000923871987
 21
155.00000275671479
 31
0.0
  0
LINE
  5
C8F5
  8
0
 10
65.000001322478056
 20
155.00000275671479
 30
0.0
 11
78.000002056360245
 21
155.00000275671479
 31
0.0
  0
LINE
  5
C8F6
  8
0
 10
78.000002056360245
 20
155.00000275671479
 30
0.0
 11
79.000002220273004
 21
154.0000025928021
 31
0.0
  0
LINE
  5
C8F8
  8
0
 10
64.00000162422657
 20
154.0000025928021
 30
0.0
 11
65.000001322478056
 21
155.00000275671479
 31
0.0
  0
LINE
  5
C8F9
  8
0
 10
79.000002220273004
 20
172.00000368058679
 30
0.0
 11
78.000002056360245
 21
171.0000035166741
 31
0.0
  0
LINE
  5
C8FA
  8
0
 10
35.00000059604622
 20
172.0000036805869
 30
0.0
 11
80.000002384185791
 21
172.00000368058679
 31
0.0
  0
LINE
  5
C8FD
  8
0
 10
78.000002056360245
 20
155.00000275671479
 30
0.0
 11
78.000002056360245
 21
171.0000035166741
 31
0.0
  0
LINE
  5
C8FE
  8
0
 10
65.000001322478056
 20
171.0000035166741
 30
0.0
 11
64.00000162422657
 21
172.00000368058679
 31
0.0
  0
LINE
  5
C8FF
  8
0
 10
65.000001322478056
 20
155.00000275671479
 30
0.0
 11
65.000001322478056
 21
171.0000035166741
 31
0.0
  0
LINE
  5
C900
  8
0
 10
64.00000162422657
 20
154.0000025928021
 30
0.0
 11
64.00000162422657
 21
172.00000368058679
 31
0.0
  0
LINE
  5
C903
  8
0
 10
37.000000923871987
 20
171.0000035166741
 30
0.0
 11
36.000000759959221
 21
172.00000368058679
 31
0.0
  0
LINE
  5
C904
  8
0
 10
37.000000923871987
 20
171.0000035166741
 30
0.0
 11
37.000000923871987
 21
155.00000275671479
 31
0.0
  0
LINE
  5
C905
  8
0
 10
80.000002384185791
 20
154.00000259280199
 30
0.0
 11
35.000000596046448
 21
154.0000025928021
 31
0.0
  0
LINE
  5
C906
  8
0
 10
50.000001657754183
 20
171.0000035166741
 30
0.0
 11
37.000000923871987
 21
171.0000035166741
 31
0.0
  0
LINE
  5
C908
  8
0
 10
78.000002056360245
 20
171.0000035166741
 30
0.0
 11
65.000001322478056
 21
171.0000035166741
 31
0.0
  0
LINE
  5
C910
  8
0
 10
49.500001110136502
 20
145.0000029802323
 30
0.0
 11
20.500001013278961
 21
145.0000029802323
 31
0.0
  0
LINE
  5
C913
  8
0
 10
50.000001657754183
 20
145.50000300398099
 30
0.0
 11
49.500001110136502
 21
145.0000029802323
 31
0.0
  0
LINE
  5
C916
  8
0
 10
94.500001966953263
 20
145.0000029802323
 30
0.0
 11
65.500001870095716
 21
145.0000029802323
 31
0.0
  0
LINE
  5
C917
  8
0
 10
65.500001870095716
 20
145.0000029802323
 30
0.0
 11
65.000001322478056
 21
145.50000300398099
 31
0.0
  0
LINE
  5
C91A
  8
0
 10
94.500001966953263
 20
145.0000029802323
 30
0.0
 11
95.000002980232225
 21
145.50000300398099
 31
0.0
  0
LINE
  5
C91C
  8
0
 10
20.500001013278961
 20
145.0000029802323
 30
0.0
 11
20.0
 21
145.50000300398099
 31
0.0
  0
LINE
  5
C922
  8
0
 10
65.000001322478056
 20
145.50000300398099
 30
0.0
 11
50.000001657754183
 21
145.50000300398099
 31
0.0
  0
LINE
  5
C926
  8
0
 10
95.000002980232225
 20
152.0000031962991
 30
0.0
 11
95.000002980232225
 21
145.50000300398099
 31
0.0
  0
LINE
  5
C928
  8
0
 10
20.0
 20
145.50000300398099
 30
0.0
 11
20.0
 21
152.0000031962991
 31
0.0
  0
LINE
  5
C92A
  8
0
 10
80.000002384185791
 20
153.00000336021191
 30
0.0
 11
94.000000953674316
 21
153.00000336021191
 31
0.0
  0
ARC
  5
C92B
  8
0
 10
94.000001490116119
 20
152.00000298023221
 30
0.0
 40
1.0
 50
0.0
 51
90.0
  0
LINE
  5
C92D
  8
0
 10
21.000001490116119
 20
153.00000336021191
 30
0.0
 11
35.000000596046448
 21
153.00000336021191
 31
0.0
  0
ARC
  5
C92E
  8
0
 10
21.000001490116119
 20
152.00000298023221
 30
0.0
 40
1.0
 50
90.0
 51
180.0
  0
LINE
  5
C951
  8
0
 10
35.000000596046448
 20
153.00000336021191
 30
0.0
 11
35.000000596046448
 21
174.9226522445679
 31
0.0
  0
LINE
  5
C953
  8
0
 10
80.000002384185791
 20
174.9226522445679
 30
0.0
 11
80.000002384185791
 21
153.00000336021191
 31
0.0
  0
ARC
  5
C954
  8
0
 10
36.000001490116119
 20
174.9226527110425
 30
0.0
 40
1.000000000000008
 50
120.0000000000001
 51
180.0
  0
ARC
  5
C956
  8
0
 10
79.000001490116119
 20
174.9226527110425
 30
0.0
 40
1.000000000000008
 50
0.0
 51
59.999999999999858
  0
LINE
  5
C958
  8
0
 10
35.500001609325409
 20
175.78867793083191
 30
0.0
 11
37.366026805899772
 21
176.86602833320941
 31
0.0
  0
LINE
  5
C95A
  8
0
 10
77.633976086331813
 20
176.86602838401669
 30
0.0
 11
79.500001370906816
 21
175.78867793083191
 31
0.0
  0
ARC
  5
C95C
  8
0
 10
37.866026893900653
 20
176.00000298023221
 30
0.0
 40
1.000000000000008
 50
90.0
 51
120.0000000000001
  0
ARC
  5
C960
  8
0
 10
77.133976086331813
 20
176.00000298023221
 30
0.0
 40
1.000000000000008
 50
59.999999999999858
 51
90.0
  0
LINE
  5
C962
  8
0
 10
37.866026610136032
 20
177.00000450015071
 30
0.0
 11
77.133976370096207
 21
177.00000450015071
 31
0.0
  0
LINE
  5
C966
  8
0
 10
380.02662357874237
 20
155.6549115851526
 30
0.0
 11
380.02751112915598
 21
157.3664533719425
 31
0.0
  0
LINE
  5
C967
  8
0
 10
380.02751112915598
 20
159.83047585934449
 30
0.0
 11
380.02751112915598
 21
161.76645427942319
 31
0.0
  0
LINE
  5
C968
  8
0
 10
380.02751112915598
 20
164.23047490418
 30
0.0
 11
380.02751112915581
 21
166.17576817513191
 31
0.0
  0
LINE
  5
C969
  8
0
 10
380.02751112915598
 20
168.63047674298329
 30
0.0
 11
380.02751112915598
 21
170.3594975918536
 31
0.0
  0
ARC
  5
C96A
  8
0
 10
370.11511769644062
 20
156.90849461376141
 30
0.0
 40
3.0890911774567971
 50
178.22332166186439
 51
241.62536592486919
  0
ARC
  5
C96B
  8
0
 10
370.1381272352358
 20
169.07732376728421
 30
0.0
 40
3.1118320469081771
 50
118.6275907952943
 51
181.6020525215784
  0
LINE
  5
C96C
  8
0
 10
367.02751155942701
 20
158.3389348164205
 30
0.0
 11
367.02751155942701
 21
157.00426854193259
 31
0.0
  0
LINE
  5
C96D
  8
0
 10
367.02751155942701
 20
165.3389350324874
 30
0.0
 11
367.02751155942701
 21
160.64556099474481
 31
0.0
  0
LINE
  5
C96E
  8
0
 10
367.02751155942701
 20
168.99032488465349
 30
0.0
 11
367.02751155942701
 21
167.64556027948899
 31
0.0
  0
LINE
  5
C96F
  8
0
 10
375.53781035356252
 20
172.50000283122111
 30
0.0
 11
373.0225451011213
 21
172.50000283122111
 31
0.0
  0
LINE
  5
C970
  8
0
 10
373.01009346396359
 20
153.50000344216869
 30
0.0
 11
375.53247760050021
 21
153.50000344216869
 31
0.0
  0
POLYLINE
  5
C971
  8
0
 66
     1
 10
0.0
 20
0.0
 30
0.0
 70
   128
  0
VERTEX
  5
14D02
  8
0
 10
367.02751155942701
 20
160.84223380627239
 30
0.0
  0
VERTEX
  5
14D03
  8
0
 10
367.00975519605009
 20
160.81308916211171
 30
0.0
  0
VERTEX
  5
14D04
  8
0
 10
366.91693621221953
 20
160.74245207011751
 30
0.0
  0
VERTEX
  5
14D05
  8
0
 10
366.8646601696214
 20
160.72587547621711
 30
0.0
  0
SEQEND
  5
14D06
  8
0
  0
POLYLINE
  5
C972
  8
0
 66
     1
 10
0.0
 20
0.0
 30
0.0
 70
   128
  0
VERTEX
  5
14D07
  8
0
 10
366.86244429554807
 20
158.2704742252831
 30
0.0
  0
VERTEX
  5
14D08
  8
0
 10
366.97009691968577
 20
158.2259020581846
 30
0.0
  0
VERTEX
  5
14D09
  8
0
 10
367.02593145426391
 20
158.1638992577796
 30
0.0
  0
VERTEX
  5
14D0A
  8
0
 10
367.02751155942701
 20
158.1606047167372
 30
0.0
  0
SEQEND
  5
14D0B
  8
0
  0
POLYLINE
  5
C973
  8
0
 66
     1
 10
0.0
 20
0.0
 30
0.0
 70
   128
  0
VERTEX
  5
14D0C
  8
0
 10
367.02751155942701
 20
167.84223372278731
 30
0.0
  0
VERTEX
  5
14D0D
  8
0
 10
367.00975519605009
 20
167.81309030950121
 30
0.0
  0
VERTEX
  5
14D0E
  8
0
 10
366.91693621221953
 20
167.74245135486171
 30
0.0
  0
VERTEX
  5
14D0F
  8
0
 10
366.8646601696214
 20
167.7258754762172
 30
0.0
  0
SEQEND
  5
14D10
  8
0
  0
POLYLINE
  5
C974
  8
0
 66
     1
 10
0.0
 20
0.0
 30
0.0
 70
   128
  0
VERTEX
  5
14D11
  8
0
 10
366.86244429554807
 20
165.27047537267251
 30
0.0
  0
VERTEX
  5
14D12
  8
0
 10
366.97009691968577
 20
165.22590227425141
 30
0.0
  0
VERTEX
  5
14D13
  8
0
 10
367.02593145426391
 20
165.16389854252381
 30
0.0
  0
VERTEX
  5
14D14
  8
0
 10
367.02751155942701
 20
165.16060400148149
 30
0.0
  0
SEQEND
  5
14D15
  8
0
  0
POLYLINE
  5
C975
  8
0
 66
     1
 10
0.0
 20
0.0
 30
0.0
 70
   128
  0
VERTEX
  5
14D16
  8
0
 10
379.91315123625122
 20
157.3115295544271
 30
0.0
  0
VERTEX
  5
14D17
  8
0
 10
379.91162666119658
 20
157.3076720163231
 30
0.0
  0
VERTEX
  5
14D18
  8
0
 10
379.94975873269169
 20
157.34418265521569
 30
0.0
  0
VERTEX
  5
14D19
  8
0
 10
380.02889879979222
 20
157.36685104668189
 30
0.0
  0
SEQEND
  5
14D1A
  8
0
  0
POLYLINE
  5
C976
  8
0
 66
     1
 10
0.0
 20
0.0
 30
0.0
 70
   128
  0
VERTEX
  5
14D1B
  8
0
 10
380.02803546376549
 20
159.83027469366829
 30
0.0
  0
VERTEX
  5
14D1C
  8
0
 10
379.93785643018811
 20
159.864825829864
 30
0.0
  0
VERTEX
  5
14D1D
  8
0
 10
379.91071023978321
 20
159.89370521158031
 30
0.0
  0
VERTEX
  5
14D1E
  8
0
 10
379.910914199427
 20
159.89321067929311
 30
0.0
  0
SEQEND
  5
14D1F
  8
0
  0
POLYLINE
  5
C977
  8
0
 66
     1
 10
0.0
 20
0.0
 30
0.0
 70
   128
  0
VERTEX
  5
14D20
  8
0
 10
379.91315123625122
 20
161.71153046190781
 30
0.0
  0
VERTEX
  5
14D21
  8
0
 10
379.91162666119658
 20
161.70767106115861
 30
0.0
  0
VERTEX
  5
14D22
  8
0
 10
379.94975873269169
 20
161.74418263137389
 30
0.0
  0
VERTEX
  5
14D23
  8
0
 10
380.02889879979222
 20
161.76685102284
 30
0.0
  0
SEQEND
  5
14D24
  8
0
  0
POLYLINE
  5
C978
  8
0
 66
     1
 10
0.0
 20
0.0
 30
0.0
 70
   128
  0
VERTEX
  5
14D25
  8
0
 10
380.02803546376549
 20
164.23027560114909
 30
0.0
  0
VERTEX
  5
14D26
  8
0
 10
379.93785643018811
 20
164.26482580602209
 30
0.0
  0
VERTEX
  5
14D27
  8
0
 10
379.91071023978321
 20
164.29370425641579
 30
0.0
  0
VERTEX
  5
14D28
  8
0
 10
379.910914199427
 20
164.2932106554513
 30
0.0
  0
SEQEND
  5
14D29
  8
0
  0
POLYLINE
  5
C979
  8
0
 66
     1
 10
0.0
 20
0.0
 30
0.0
 70
   128
  0
VERTEX
  5
14D2A
  8
0
 10
379.91162666119658
 20
166.10767103731681
 30
0.0
  0
VERTEX
  5
14D2B
  8
0
 10
379.91162666119658
 20
166.10767103731681
 30
0.0
  0
VERTEX
  5
14D2C
  8
0
 10
379.94975873269169
 20
166.144182607532
 30
0.0
  0
VERTEX
  5
14D2D
  8
0
 10
380.02751112915581
 20
166.16685099899809
 30
0.0
  0
SEQEND
  5
14D2E
  8
0
  0
POLYLINE
  5
C97A
  8
0
 66
     1
 10
0.0
 20
0.0
 30
0.0
 70
   128
  0
VERTEX
  5
14D2F
  8
0
 10
380.02803546376549
 20
168.6302755773072
 30
0.0
  0
VERTEX
  5
14D30
  8
0
 10
379.93785643018811
 20
168.66482578218029
 30
0.0
  0
VERTEX
  5
14D31
  8
0
 10
379.91071023978321
 20
168.69370423257399
 30
0.0
  0
VERTEX
  5
14D32
  8
0
 10
379.910914199427
 20
168.69321063160939
 30
0.0
  0
SEQEND
  5
14D33
  8
0
  0
ARC
  5
C97B
  8
0
 10
367.234140828514
 20
159.8101782344236
 30
0.0
 40
1.583933946975598
 50
245.2351897006105
 51
256.42802402071442
  0
ARC
  5
C97C
  8
0
 10
367.04578103775111
 20
159.7385748747308
 30
0.0
 40
1.0037764923365169
 50
100.39535697962749
 51
118.03442187563719
  0
ARC
  5
C97D
  8
0
 10
367.23409692920359
 20
166.81006936345591
 30
0.0
 40
1.58381669916669
 50
245.2349819309263
 51
256.42863379281772
  0
ARC
  5
C97E
  8
0
 10
367.04578313678621
 20
166.73856696239889
 30
0.0
 40
1.003784653545148
 50
100.3953933328675
 51
118.03430956452389
  0
ARC
  5
C97F
  8
0
 10
379.57251535314839
 20
158.9775533094666
 30
0.0
 40
1.6741109968309389
 50
285.81978025487672
 51
296.65797097467868
  0
ARC
  5
C980
  8
0
 10
379.55990832099292
 20
158.07581348387851
 30
0.0
 40
1.8158406203347699
 50
65.206337870037984
 51
75.060326081313221
  0
POLYLINE
  5
C981
  8
0
 66
     1
 10
0.0
 20
0.0
 30
0.0
 70
   128
  0
VERTEX
  5
14D34
  8
0
 10
380.3236279357227
 20
157.48139906674669
 30
0.0
  0
VERTEX
  5
14D35
  8
0
 10
380.41268845088803
 20
157.54004258662511
 30
0.0
  0
VERTEX
  5
14D36
  8
0
 10
380.48998543061339
 20
157.63872180134101
 30
0.0
  0
VERTEX
  5
14D37
  8
0
 10
380.54862988181441
 20
157.7736061811452
 30
0.0
  0
VERTEX
  5
14D38
  8
0
 10
380.59811663813912
 20
158.00075948238421
 30
0.0
  0
VERTEX
  5
14D39
  8
0
 10
380.62358458526461
 20
158.25680706650061
 30
0.0
  0
VERTEX
  5
14D3A
  8
0
 10
380.63342028297512
 20
158.53116631507919
 30
0.0
  0
VERTEX
  5
14D3B
  8
0
 10
380.63381143845641
 20
158.59981596469919
 30
0.0
  0
SEQEND
  5
14D3C
  8
0
  0
ARC
  5
C982
  8
0
 10
379.29489807102658
 20
158.83343771080061
 30
0.0
 40
1.3591424229024369
 50
21.639151411440981
 51
40.953184784806943
  0
ARC
  5
C983
  8
0
 10
379.35265971871758
 20
164.0318199624829
 30
0.0
 40
2.3637647074782469
 50
286.62375196317169
 51
294.15490008811571
  0
ARC
  5
C984
  8
0
 10
379.70009539669968
 20
162.923089801298
 30
0.0
 40
1.3476941058412231
 50
62.548262687982273
 51
75.916588525227951
  0
ARC
  5
C985
  8
0
 10
379.77502520483381
 20
167.4000029802323
 30
0.0
 40
1.24999999999999
 50
281.51393276163651
 51
295.84378349076479
  0
ARC
  5
C986
  8
0
 10
379.55681045978741
 20
166.8682647211925
 30
0.0
 40
1.8239926947647289
 50
65.217435009031973
 51
75.044983272015784
  0
POLYLINE
  5
C987
  8
0
 66
     1
 10
0.0
 20
0.0
 30
0.0
 70
   128
  0
VERTEX
  5
14D3D
  8
0
 10
380.3199239114436
 20
161.875020580577
 30
0.0
  0
VERTEX
  5
14D3E
  8
0
 10
380.41268845088803
 20
161.94004349410579
 30
0.0
  0
VERTEX
  5
14D3F
  8
0
 10
380.48998543061339
 20
162.0387208461766
 30
0.0
  0
VERTEX
  5
14D40
  8
0
 10
380.54862988181441
 20
162.17360615730331
 30
0.0
  0
VERTEX
  5
14D41
  8
0
 10
380.59811663813912
 20
162.4007594585423
 30
0.0
  0
VERTEX
  5
14D42
  8
0
 10
380.62358458526461
 20
162.65680611133621
 30
0.0
  0
VERTEX
  5
14D43
  8
0
 10
380.63342028297512
 20
162.9311662912373
 30
0.0
  0
VERTEX
  5
14D44
  8
0
 10
380.63381143845641
 20
162.99981594085739
 30
0.0
  0
SEQEND
  5
14D45
  8
0
  0
ARC
  5
C988
  8
0
 10
379.31291506377761
 20
163.23430508188221
 30
0.0
 40
1.3415485044895501
 50
21.884952755229008
 51
41.226773470764527
  0
POLYLINE
  5
C989
  8
0
 66
     1
 10
0.0
 20
0.0
 30
0.0
 70
   128
  0
VERTEX
  5
14D46
  8
0
 10
380.3199239114436
 20
166.27502058057669
 30
0.0
  0
VERTEX
  5
14D47
  8
0
 10
380.41268845088803
 20
166.34004347026391
 30
0.0
  0
VERTEX
  5
14D48
  8
0
 10
380.48998543061339
 20
166.43872082233469
 30
0.0
  0
VERTEX
  5
14D49
  8
0
 10
380.54862988181441
 20
166.57360613346151
 30
0.0
  0
VERTEX
  5
14D4A
  8
0
 10
380.59811663813912
 20
166.8007594347005
 30
0.0
  0
VERTEX
  5
14D4B
  8
0
 10
380.62358458526461
 20
167.05680608749441
 30
0.0
  0
VERTEX
  5
14D4C
  8
0
 10
380.63342028297512
 20
167.3311662673955
 30
0.0
  0
VERTEX
  5
14D4D
  8
0
 10
380.63381143845641
 20
167.3998159170155
 30
0.0
  0
SEQEND
  5
14D4E
  8
0
  0
ARC
  5
C98A
  8
0
 10
379.29489708666262
 20
167.63343742739141
 30
0.0
 40
1.359143352097167
 50
21.67857145893095
 51
40.953166609316767
  0
ARC
  5
C98B
  8
0
 10
366.75290311061372
 20
160.2666843676466
 30
0.0
 40
0.4001119473576713
 50
116.55920119192569
 51
182.91465373426561
  0
POLYLINE
  5
C98C
  8
0
 66
     1
 10
0.0
 20
0.0
 30
0.0
 70
   128
  0
VERTEX
  5
14D4F
  8
0
 10
366.33064350578962
 20
159.21344392001669
 30
0.0
  0
VERTEX
  5
14D50
  8
0
 10
366.33200637996219
 20
159.08942993730349
 30
0.0
  0
VERTEX
  5
14D51
  8
0
 10
366.34207432623981
 20
158.85295130312491
 30
0.0
  0
VERTEX
  5
14D52
  8
0
 10
366.37230936437868
 20
158.641775771976
 30
0.0
  0
VERTEX
  5
14D53
  8
0
 10
366.42830234020971
 20
158.50339334458161
 30
0.0
  0
VERTEX
  5
14D54
  8
0
 10
366.51865238789492
 20
158.40384148061321
 30
0.0
  0
VERTEX
  5
14D55
  8
0
 10
366.57063966028431
 20
158.37191089204961
 30
0.0
  0
SEQEND
  5
14D56
  8
0
  0
ARC
  5
C98D
  8
0
 10
366.75290311061372
 20
167.26668458371341
 30
0.0
 40
0.4001119473576713
 50
116.55920119192569
 51
182.91465373426561
  0
POLYLINE
  5
C98E
  8
0
 66
     1
 10
0.0
 20
0.0
 30
0.0
 70
   128
  0
VERTEX
  5
14D57
  8
0
 10
366.3303516525778
 20
166.2134469300513
 30
0.0
  0
VERTEX
  5
14D58
  8
0
 10
366.33200637996219
 20
166.08943015337039
 30
0.0
  0
VERTEX
  5
14D59
  8
0
 10
366.34207432623981
 20
165.85295245051429
 30
0.0
  0
VERTEX
  5
14D5A
  8
0
 10
366.37230936437868
 20
165.64177505672021
 30
0.0
  0
VERTEX
  5
14D5B
  8
0
 10
366.42830234020971
 20
165.50339356064839
 30
0.0
  0
VERTEX
  5
14D5C
  8
0
 10
366.51865238789492
 20
165.4038407653575
 30
0.0
  0
VERTEX
  5
14D5D
  8
0
 10
366.57063966028431
 20
165.3719108920497
 30
0.0
  0
SEQEND
  5
14D5E
  8
0
  0
POLYLINE
  5
C98F
  8
0
 66
     1
 10
0.0
 20
0.0
 30
0.0
 70
   128
  0
VERTEX
  5
14D5F
  8
0
 10
370.4710434842857
 20
153.58847443014429
 30
0.0
  0
VERTEX
  5
14D60
  8
0
 10
370.4710434842857
 20
153.58847443014429
 30
0.0
  0
VERTEX
  5
14D61
  8
0
 10
370.51095275208382
 20
153.5577631369238
 30
0.0
  0
VERTEX
  5
14D62
  8
0
 10
370.54688783362531
 20
153.46133492887071
 30
0.0
  0
SEQEND
  5
14D63
  8
0
  0
ARC
  5
C990
  8
0
 10
373.14399296496367
 20
153.45376549515899
 30
0.0
 40
0.1416581240583891
 50
114.39657117922479
 51
175.10831909768359
  0
POLYLINE
  5
C991
  8
0
 66
     1
 10
0.0
 20
0.0
 30
0.0
 70
   128
  0
VERTEX
  5
14D64
  8
0
 10
378.08000479824869
 20
172.4054568260913
 30
0.0
  0
VERTEX
  5
14D65
  8
0
 10
378.08434755541413
 20
172.4039853364234
 30
0.0
  0
VERTEX
  5
14D66
  8
0
 10
378.04407064802967
 20
172.4422422051434
 30
0.0
  0
VERTEX
  5
14D67
  8
0
 10
378.00263492105518
 20
172.5352292205182
 30
0.0
  0
SEQEND
  5
14D68
  8
0
  0
ARC
  5
C992
  8
0
 10
375.41164541609419
 20
172.54584534515749
 30
0.0
 40
0.1410452936529777
 50
294.23516598101639
 51
355.36271076953932
  0
POLYLINE
  5
C993
  8
0
 66
     1
 10
0.0
 20
0.0
 30
0.0
 70
   128
  0
VERTEX
  5
14D69
  8
0
 10
375.47067550011002
 20
153.59602000564379
 30
0.0
  0
VERTEX
  5
14D6A
  8
0
 10
375.47067550011002
 20
153.59602000564379
 30
0.0
  0
VERTEX
  5
14D6B
  8
0
 10
375.5109528731557
 20
153.5577631369238
 30
0.0
  0
VERTEX
  5
14D6C
  8
0
 10
375.5468879546973
 20
153.46133492887071
 30
0.0
  0
SEQEND
  5
14D6D
  8
0
  0
ARC
  5
C994
  8
0
 10
378.19997759641069
 20
153.43299409945951
 30
0.0
 40
0.1998453255773476
 50
126.038132195934
 51
170.53868504147289
  0
POLYLINE
  5
C995
  8
0
 66
     1
 10
0.0
 20
0.0
 30
0.0
 70
   128
  0
VERTEX
  5
14D6E
  8
0
 10
373.08434766717278
 20
172.4039853364234
 30
0.0
  0
VERTEX
  5
14D6F
  8
0
 10
373.08434766717278
 20
172.4039853364234
 30
0.0
  0
VERTEX
  5
14D70
  8
0
 10
373.0440702941271
 20
172.4422422051434
 30
0.0
  0
VERTEX
  5
14D71
  8
0
 10
373.00263492105518
 20
172.5352292205182
 30
0.0
  0
SEQEND
  5
14D72
  8
0
  0
ARC
  5
C996
  8
0
 10
370.39144185573059
 20
172.5331318770277
 30
0.0
 40
0.1513344317007768
 50
302.43964031378022
 51
0.9048000051677336
  0
ARC
  5
C997
  8
0
 10
371.77751153148779
 20
153.71291516972909
 30
0.0
 40
1.2500000000000151
 50
334.28302181690538
 51
348.60007055476802
  0
ARC
  5
C998
  8
0
 10
371.7501839765871
 20
153.7563289842457
 30
0.0
 40
1.2389282063030591
 50
193.77467787013359
 51
208.1706987947679
  0
POLYLINE
  5
C999
  8
0
 66
     1
 10
0.0
 20
0.0
 30
0.0
 70
   128
  0
VERTEX
  5
14D73
  8
0
 10
370.65801301039778
 20
153.1714309751992
 30
0.0
  0
VERTEX
  5
14D74
  8
0
 10
370.68134217523061
 20
153.1208117306237
 30
0.0
  0
VERTEX
  5
14D75
  8
0
 10
370.76153812930011
 20
153.03921669721649
 30
0.0
  0
VERTEX
  5
14D76
  8
0
 10
370.8630539197477
 20
152.9809997230773
 30
0.0
  0
VERTEX
  5
14D77
  8
0
 10
371.00956143811368
 20
152.93471392244149
 30
0.0
  0
VERTEX
  5
14D78
  8
0
 10
371.24507661908888
 20
152.89824984967751
 30
0.0
  0
VERTEX
  5
14D79
  8
0
 10
371.50295425206451
 20
152.8805528581147
 30
0.0
  0
VERTEX
  5
14D7A
  8
0
 10
371.7774881236258
 20
152.87507854402111
 30
0.0
  0
SEQEND
  5
14D7B
  8
0
  0
ARC
  5
C99A
  8
0
 10
372.0145137018576
 20
154.26584294441099
 30
0.0
 40
1.4108177565260369
 50
295.45639857437732
 51
309.0693821393246
  0
ARC
  5
C99B
  8
0
 10
376.776822314431
 20
153.71309957663149
 30
0.0
 40
1.250712069730028
 50
334.04161241331713
 51
348.59803011552128
  0
ARC
  5
C99C
  8
0
 10
377.33478874391648
 20
153.93895828370731
 30
0.0
 40
1.8505980928273871
 50
194.95683952531769
 51
204.47377769126399
  0
POLYLINE
  5
C99D
  8
0
 66
     1
 10
0.0
 20
0.0
 30
0.0
 70
   128
  0
VERTEX
  5
14D7C
  8
0
 10
375.65046510128809
 20
153.17229853645341
 30
0.0
  0
VERTEX
  5
14D7D
  8
0
 10
375.6813420634719
 20
153.1208117306237
 30
0.0
  0
VERTEX
  5
14D7E
  8
0
 10
375.7615382503721
 20
153.03921669721649
 30
0.0
  0
VERTEX
  5
14D7F
  8
0
 10
375.86305380798899
 20
152.9809997230773
 30
0.0
  0
VERTEX
  5
14D80
  8
0
 10
376.00956155918561
 20
152.93471392244149
 30
0.0
  0
VERTEX
  5
14D81
  8
0
 10
376.24507674016081
 20
152.89824984967751
 30
0.0
  0
VERTEX
  5
14D82
  8
0
 10
376.50295437313639
 20
152.8805528581147
 30
0.0
  0
VERTEX
  5
14D83
  8
0
 10
376.77748777903639
 20
152.87507854402111
 30
0.0
  0
SEQEND
  5
14D84
  8
0
  0
ARC
  5
C99F
  8
0
 10
372.84931534551492
 20
171.85059710059099
 30
0.0
 40
2.406102877828038
 50
155.9813774759881
 51
163.46139264723689
  0
ARC
  5
C9A0
  8
0
 10
371.77751153148779
 20
172.2870907907359
 30
0.0
 40
1.2500000000000191
 50
11.44988488445348
 51
25.828741052051459
  0
POLYLINE
  5
C9A1
  8
0
 66
     1
 10
0.0
 20
0.0
 30
0.0
 70
   128
  0
VERTEX
  5
14D85
  8
0
 10
372.90279272503062
 20
172.83137218437241
 30
0.0
  0
VERTEX
  5
14D86
  8
0
 10
372.87368063814961
 20
172.8791945427661
 30
0.0
  0
VERTEX
  5
14D87
  8
0
 10
372.79348491691081
 20
172.96078957617331
 30
0.0
  0
VERTEX
  5
14D88
  8
0
 10
372.69196935929381
 20
173.0190065503125
 30
0.0
  0
VERTEX
  5
14D89
  8
0
 10
372.54546160809718
 20
173.06529141962571
 30
0.0
  0
VERTEX
  5
14D8A
  8
0
 10
372.30578574351989
 20
173.0974797904496
 30
0.0
  0
SEQEND
  5
14D8B
  8
0
  0
ARC
  5
C9A3
  8
0
 10
376.77751153148779
 20
172.2870907907359
 30
0.0
 40
1.249999999999972
 50
154.25944865502271
 51
168.58692111873231
  0
ARC
  5
C9A4
  8
0
 10
377.07658680902642
 20
172.36747733582331
 30
0.0
 40
0.9411194401408012
 50
10.26767952075803
 51
29.33705033231961
  0
POLYLINE
  5
C9A5
  8
0
 66
     1
 10
0.0
 20
0.0
 30
0.0
 70
   128
  0
VERTEX
  5
14D8C
  8
0
 10
377.89701015688502
 20
172.8285752981906
 30
0.0
  0
VERTEX
  5
14D8D
  8
0
 10
377.8736805263909
 20
172.8791945427661
 30
0.0
  0
VERTEX
  5
14D8E
  8
0
 10
377.79348527081339
 20
172.96078957617331
 30
0.0
  0
VERTEX
  5
14D8F
  8
0
 10
377.6919692475351
 20
173.0190065503125
 30
0.0
  0
VERTEX
  5
14D90
  8
0
 10
377.54546196199982
 20
173.06529141962571
 30
0.0
  0
VERTEX
  5
14D91
  8
0
 10
377.30994631536328
 20
173.1017564237122
 30
0.0
  0
VERTEX
  5
14D92
  8
0
 10
377.0520686823877
 20
173.1194534152751
 30
0.0
  0
VERTEX
  5
14D93
  8
0
 10
376.7775352764877
 20
173.12492772936869
 30
0.0
  0
SEQEND
  5
14D94
  8
0
  0
ARC
  5
C9A7
  8
0
 10
370.94429804166072
 20
167.93530050556359
 30
0.0
 40
4.5033534001654782
 50
107.467826656347
 51
120.6695203989284
  0
ARC
  5
C9A8
  8
0
 10
370.94591241557919
 20
158.08041742895119
 30
0.0
 40
4.5183938160438748
 50
239.41784586650931
 51
252.4506990953812
  0
ARC
  5
C9A9
  8
0
 10
377.92186869993748
 20
155.61694562923611
 30
0.0
 40
2.1000535081350291
 50
321.09749023230552
 51
0.6563268404356804
  0
ARC
  5
C9AA
  8
0
 10
377.92379312689218
 20
170.37471308023709
 30
0.0
 40
2.1037730258123282
 50
359.58560602432073
 51
39.080300204024176
  0
ARC
  5
C9AB
  8
0
 10
371.24737858373618
 20
167.6337979100191
 30
0.0
 40
4.8859661545891644
 50
101.819592311835
 51
109.79739600535341
  0
ARC
  5
C9AC
  8
0
 10
371.22072230358123
 20
158.2710382756413
 30
0.0
 40
4.787376746613937
 50
250.00197033518339
 51
258.22068742181079
  0
ARC
  5
C9AD
  8
0
 10
378.0126927708111
 20
170.5731604023913
 30
0.0
 40
1.895280642851856
 50
42.964436902286373
 51
79.119967774428005
  0
ARC
  5
C9AF
  8
0
 10
379.63388295716692
 20
157.50000298023269
 30
0.0
 40
1.2500000000000411
 50
288.35494960947489
 51
295.48485864289052
  0
ARC
  5
C9B0
  8
0
 10
379.63388295716692
 20
168.50000298023269
 30
0.0
 40
1.2500000000000251
 50
64.674421548359959
 51
71.6450503905251
  0
ARC
  5
C9B1
  8
0
 10
379.40916312870701
 20
157.13948356139801
 30
0.0
 40
1.0821732181904991
 50
314.80180992016687
 51
8.9572697769861982
  0
POLYLINE
  5
C9B2
  8
0
 66
     1
 10
0.0
 20
0.0
 30
0.0
 70
   128
  0
VERTEX
  5
14D95
  8
0
 10
380.47813900746428
 20
157.30798773467521
 30
0.0
  0
VERTEX
  5
14D96
  8
0
 10
380.47880676575028
 20
157.46154233813331
 30
0.0
  0
VERTEX
  5
14D97
  8
0
 10
380.47532455064379
 20
157.62000501155899
 30
0.0
  0
SEQEND
  5
14D98
  8
0
  0
POLYLINE
  5
C9B3
  8
0
 66
     1
 10
0.0
 20
0.0
 30
0.0
 70
   128
  0
VERTEX
  5
14D99
  8
0
 10
380.47525810837351
 20
168.30416402571771
 30
0.0
  0
VERTEX
  5
14D9A
  8
0
 10
380.47880676575028
 20
168.4615422785287
 30
0.0
  0
VERTEX
  5
14D9B
  8
0
 10
380.47224932350241
 20
168.75996410846761
 30
0.0
  0
VERTEX
  5
14D9C
  8
0
 10
380.44831712730252
 20
169.0365836769347
 30
0.0
  0
VERTEX
  5
14D9D
  8
0
 10
380.40625487454258
 20
169.27348047494931
 30
0.0
  0
VERTEX
  5
14D9E
  8
0
 10
380.32200184650742
 20
169.4895510375504
 30
0.0
  0
VERTEX
  5
14D9F
  8
0
 10
380.24066106416308
 20
169.5837561786179
 30
0.0
  0
VERTEX
  5
14DA0
  8
0
 10
380.16670380719029
 20
169.6250659227376
 30
0.0
  0
SEQEND
  5
14DA1
  8
0
  0
ARC
  5
C9B4
  8
0
 10
374.77751153148779
 20
153.94250111609381
 30
0.0
 40
1.249999999999988
 50
200.7320777768015
 51
205.7753478716815
  0
ARC
  5
C9B5
  8
0
 10
373.98095406006911
 20
172.37969658862471
 30
0.0
 40
0.3914458926498865
 50
145.61395397759421
 51
162.10109116237209
  0
ARC
  5
C9B6
  8
0
 10
375.05382665638791
 20
154.6639281790074
 30
0.0
 40
1.5939258207718361
 50
268.03445344068012
 51
291.77297331266521
  0
ARC
  5
C9B7
  8
0
 10
374.4712600610323
 20
154.204203425668
 30
0.0
 40
1.148835878634189
 50
224.50190251420719
 51
279.49587836369699
  0
ARC
  5
C9B8
  8
0
 10
374.37777744550999
 20
172.01051460499141
 30
0.0
 40
0.9309181759445422
 50
79.16457388775116
 51
140.64975048168751
  0
ARC
  5
C9B9
  8
0
 10
374.97880043805912
 20
171.03810180765089
 30
0.0
 40
1.8965919921091721
 50
69.465276675734046
 51
89.804345813170073
  0
LINE
  5
C9BA
  8
0
 10
357.28269905783259
 20
159.75000306963921
 30
0.0
 11
357.28269905783259
 21
156.50000300258401
 31
0.0
  0
ARC
  5
C9BB
  8
0
 10
357.7827135176658
 20
156.500003097291
 30
0.0
 40
0.5000003598684522
 50
180.10257039282999
 51
270.12097565943321
  0
LINE
  5
C9BC
  8
0
 10
357.28269905783259
 20
169.50000233948231
 30
0.0
 11
357.28269905783259
 21
166.25000320374971
 31
0.0
  0
ARC
  5
C9BD
  8
0
 10
357.7827129566636
 20
169.5000026691155
 30
0.0
 40
0.4999999367141427
 50
89.878959951903937
 51
180.01006961486351
  0
LINE
  5
C9BE
  8
0
 10
362.27751147933333
 20
166.25000320374971
 30
0.0
 11
362.27751147933333
 21
159.75000306963921
 31
0.0
  0
ARC
  5
C9C0
  8
0
 10
368.27751153148739
 20
163.00000298023221
 30
0.0
 40
6.5000000000000258
 50
157.38013505196511
 51
202.61986494803489
  0
CIRCLE
  5
C9C1
  8
0
 10
353.27751153148728
 20
163.00000298023221
 30
0.0
 40
4.0000000000000311
  0
ARC
  5
C9C9
  8
0
 10
383.27751153148728
 20
163.00000298023221
 30
0.0
 40
4.0000000000000178
 50
215.65908769615581
 51
144.3409123038571
  0
POLYLINE
  5
C9D1
  8
0
 66
     1
 10
0.0
 20
0.0
 30
0.0
 70
   128
  0
VERTEX
  5
14DA2
  8
0
 10
377.98086923547112
 20
153.9485237374906
 30
0.0
  0
VERTEX
  5
14DA3
  8
0
 10
377.94872649945341
 20
154.04733706265731
 30
0.0
  0
VERTEX
  5
14DA4
  8
0
 10
377.7469088975343
 20
154.52506829053209
 30
0.0
  0
VERTEX
  5
14DA5
  8
0
 10
377.44100389070832
 20
155.12783423066179
 30
0.0
  0
VERTEX
  5
14DA6
  8
0
 10
376.9248397741469
 20
156.05998475104619
 30
0.0
  0
VERTEX
  5
14DA7
  8
0
 10
376.31165326572977
 20
157.13527675718109
 30
0.0
  0
VERTEX
  5
14DA8
  8
0
 10
375.50185897387593
 20
158.5836957022552
 30
0.0
  0
VERTEX
  5
14DA9
  8
0
 10
374.71649467013799
 20
160.1881894096737
 30
0.0
  0
VERTEX
  5
14DAA
  8
0
 10
374.3801279645416
 20
161.0508353263144
 30
0.0
  0
VERTEX
  5
14DAB
  8
0
 10
374.13355239667021
 20
161.95753931999249
 30
0.0
  0
VERTEX
  5
14DAC
  8
0
 10
374.03807553462713
 20
162.69349277019549
 30
0.0
  0
VERTEX
  5
14DAD
  8
0
 10
374.04647513292753
 20
163.43693219125319
 30
0.0
  0
VERTEX
  5
14DAE
  8
0
 10
374.15689925663202
 20
164.15258839726491
 30
0.0
  0
VERTEX
  5
14DAF
  8
0
 10
374.3462878931316
 20
164.84624676406429
 30
0.0
  0
VERTEX
  5
14DB0
  8
0
 10
374.68722832389199
 20
165.74554860591931
 30
0.0
  0
VERTEX
  5
14DB1
  8
0
 10
375.08360014297091
 20
166.59894928336189
 30
0.0
  0
VERTEX
  5
14DB2
  8
0
 10
375.91594315134012
 20
168.1689430773263
 30
0.0
  0
VERTEX
  5
14DB3
  8
0
 10
376.71426960267149
 20
169.56955723464529
 30
0.0
  0
VERTEX
  5
14DB4
  8
0
 10
377.2363150212916
 20
170.4957333207135
 30
0.0
  0
VERTEX
  5
14DB5
  8
0
 10
377.6525091100487
 20
171.28074698150201
 30
0.0
  0
VERTEX
  5
14DB6
  8
0
 10
377.8527555707845
 20
171.70866176486061
 30
0.0
  0
VERTEX
  5
14DB7
  8
0
 10
377.98086923547112
 20
172.05148160457659
 30
0.0
  0
SEQEND
  5
14DB8
  8
0
  0
POLYLINE
  5
C9D3
  8
0
 66
     1
 10
0.0
 20
0.0
 30
0.0
 70
   128
  0
VERTEX
  5
14DB9
  8
0
 10
379.96651695109932
 20
170.14590807259131
 30
0.0
  0
VERTEX
  5
14DBA
  8
0
 10
379.79971242137282
 20
169.87631440162701
 30
0.0
  0
VERTEX
  5
14DBB
  8
0
 10
379.5371232274922
 20
169.53743219375659
 30
0.0
  0
VERTEX
  5
14DBC
  8
0
 10
378.9958916325125
 20
168.9210549741988
 30
0.0
  0
VERTEX
  5
14DBD
  8
0
 10
378.3101960737261
 20
168.1864929199223
 30
0.0
  0
VERTEX
  5
14DBE
  8
0
 10
377.2801048774275
 20
167.09684178233189
 30
0.0
  0
VERTEX
  5
14DBF
  8
0
 10
376.1777812335643
 20
165.84127552807379
 30
0.0
  0
VERTEX
  5
14DC0
  8
0
 10
375.66838410682999
 20
165.1812509447341
 30
0.0
  0
VERTEX
  5
14DC1
  8
0
 10
375.21360346116148
 20
164.457564875484
 30
0.0
  0
VERTEX
  5
14DC2
  8
0
 10
374.96976784430473
 20
163.9205903559928
 30
0.0
  0
VERTEX
  5
14DC3
  8
0
 10
374.82154040597402
 20
163.34494732320351
 30
0.0
  0
VERTEX
  5
14DC4
  8
0
 10
374.8409640695902
 20
162.53866411745591
 30
0.0
  0
VERTEX
  5
14DC5
  8
0
 10
374.93541088886582
 20
162.17700548470069
 30
0.0
  0
VERTEX
  5
14DC6
  8
0
 10
375.2665556687864
 20
161.44384413957641
 30
0.0
  0
VERTEX
  5
14DC7
  8
0
 10
375.69772030226909
 20
160.78015014529271
 30
0.0
  0
VERTEX
  5
14DC8
  8
0
 10
376.74286586232512
 20
159.49058968573851
 30
0.0
  0
VERTEX
  5
14DC9
  8
0
 10
377.78369707055413
 20
158.3699553087358
 30
0.0
  0
VERTEX
  5
14DCA
  8
0
 10
378.5898238141092
 20
157.51639910042331
 30
0.0
  0
VERTEX
  5
14DCB
  8
0
 10
379.26053998060547
 20
156.78513299673841
 30
0.0
  0
VERTEX
  5
14DCC
  8
0
 10
379.66191858984553
 20
156.30749117583079
 30
0.0
  0
VERTEX
  5
14DCD
  8
0
 10
379.92448543198429
 20
155.93210857361601
 30
0.0
  0
VERTEX
  5
14DCE
  8
0
 10
379.96651695109932
 20
155.85409820079849
 30
0.0
  0
SEQEND
  5
14DCF
  8
0
  0
POLYLINE
  5
C9D5
  8
0
 66
     1
 10
0.0
 20
0.0
 30
0.0
 70
   128
  0
VERTEX
  5
14DD0
  8
0
 10
369.61084485054039
 20
171.92701406776951
 30
0.0
  0
VERTEX
  5
14DD1
  8
0
 10
369.31542118079977
 20
171.64482891559649
 30
0.0
  0
VERTEX
  5
14DD2
  8
0
 10
369.12614214932569
 20
171.28139331936879
 30
0.0
  0
VERTEX
  5
14DD3
  8
0
 10
369.03682854725071
 20
170.8320357650523
 30
0.0
  0
VERTEX
  5
14DD4
  8
0
 10
369.03991052648081
 20
170.3055237233643
 30
0.0
  0
VERTEX
  5
14DD5
  8
0
 10
369.14625225588702
 20
169.5875913649802
 30
0.0
  0
VERTEX
  5
14DD6
  8
0
 10
369.3424848327416
 20
168.7817179411654
 30
0.0
  0
VERTEX
  5
14DD7
  8
0
 10
369.77233467157947
 20
167.37225249409721
 30
0.0
  0
VERTEX
  5
14DD8
  8
0
 10
370.26393969543301
 20
165.7890395075087
 30
0.0
  0
VERTEX
  5
14DD9
  8
0
 10
370.52593214437388
 20
164.75317783653779
 30
0.0
  0
VERTEX
  5
14DDA
  8
0
 10
370.6953157391402
 20
163.65553595125721
 30
0.0
  0
VERTEX
  5
14DDB
  8
0
 10
370.72124958038353
 20
162.7753280848269
 30
0.0
  0
VERTEX
  5
14DDC
  8
0
 10
370.6404037959876
 20
161.8798483908181
 30
0.0
  0
VERTEX
  5
14DDD
  8
0
 10
370.40237986482703
 20
160.7209105789666
 30
0.0
  0
VERTEX
  5
14DDE
  8
0
 10
370.07870452478551
 20
159.59160186350391
 30
0.0
  0
VERTEX
  5
14DDF
  8
0
 10
369.65265913866477
 20
158.25244288891599
 30
0.0
  0
VERTEX
  5
14DE0
  8
0
 10
369.28046782966732
 20
156.98692359030289
 30
0.0
  0
VERTEX
  5
14DE1
  8
0
 10
369.10568431019811
 20
156.1978074535732
 30
0.0
  0
VERTEX
  5
14DE2
  8
0
 10
369.02836020570271
 20
155.47420985996769
 30
0.0
  0
VERTEX
  5
14DE3
  8
0
 10
369.05130386119731
 20
155.0390577688818
 30
0.0
  0
VERTEX
  5
14DE4
  8
0
 10
369.15102732135011
 20
154.65103805065201
 30
0.0
  0
VERTEX
  5
14DE5
  8
0
 10
369.33080127462767
 20
154.3351064249878
 30
0.0
  0
VERTEX
  5
14DE6
  8
0
 10
369.61084485054039
 20
154.07299313694281
 30
0.0
  0
SEQEND
  5
14DE7
  8
0
  0
LINE
  5
C9D6
  8
0
 10
369.61084485054039
 20
154.07299313694281
 30
0.0
 11
370.25910776108532
 21
153.695981651545
 31
0.0
  0
LINE
  5
C9D7
  8
0
 10
370.25910776108532
 20
172.30402462184469
 30
0.0
 11
369.61084485054039
 21
171.92701406776951
 31
0.0
  0
POLYLINE
  5
C9D8
  8
0
 66
     1
 10
0.0
 20
0.0
 30
0.0
 70
   128
  0
VERTEX
  5
14DE8
  8
0
 10
380.63065332360588
 20
158.60000316053669
 30
0.0
  0
VERTEX
  5
14DE9
  8
0
 10
380.62317480333172
 20
158.88327237218661
 30
0.0
  0
VERTEX
  5
14DEA
  8
0
 10
380.59946146793692
 20
159.13907688111109
 30
0.0
  0
VERTEX
  5
14DEB
  8
0
 10
380.55825455327317
 20
159.33463480227141
 30
0.0
  0
VERTEX
  5
14DEC
  8
0
 10
380.4975300747904
 20
159.4434414803986
 30
0.0
  0
VERTEX
  5
14DED
  8
0
 10
380.4236445296558
 20
159.45378754288001
 30
0.0
  0
VERTEX
  5
14DEE
  8
0
 10
380.3448229748758
 20
159.36726115644021
 30
0.0
  0
VERTEX
  5
14DEF
  8
0
 10
380.27274140156828
 20
159.19760305434511
 30
0.0
  0
VERTEX
  5
14DF0
  8
0
 10
380.21853842772572
 20
158.96371908485941
 30
0.0
  0
VERTEX
  5
14DF1
  8
0
 10
380.19182343967282
 20
158.688582181931
 30
0.0
  0
VERTEX
  5
14DF2
  8
0
 10
380.19201994873612
 20
158.5062152519827
 30
0.0
  0
VERTEX
  5
14DF3
  8
0
 10
380.21987487562018
 20
158.22812605649281
 30
0.0
  0
VERTEX
  5
14DF4
  8
0
 10
380.27715493924939
 20
157.9887295886879
 30
0.0
  0
VERTEX
  5
14DF5
  8
0
 10
380.35298136062943
 20
157.81945798546121
 30
0.0
  0
VERTEX
  5
14DF6
  8
0
 10
380.43322504498087
 20
157.7420958131556
 30
0.0
  0
VERTEX
  5
14DF7
  8
0
 10
380.5054491106423
 20
157.7643926069145
 30
0.0
  0
VERTEX
  5
14DF8
  8
0
 10
380.56214802898489
 20
157.88014948368121
 30
0.0
  0
VERTEX
  5
14DF9
  8
0
 10
380.60110245831328
 20
158.07280100882099
 30
0.0
  0
VERTEX
  5
14DFA
  8
0
 10
380.62338900752388
 20
158.32063712179709
 30
0.0
  0
VERTEX
  5
14DFB
  8
0
 10
380.63065332360588
 20
158.60000316053669
 30
0.0
  0
SEQEND
  5
14DFC
  8
0
  0
POLYLINE
  5
C9D9
  8
0
 66
     1
 10
0.0
 20
0.0
 30
0.0
 70
   128
  0
VERTEX
  5
14DFD
  8
0
 10
380.63065332360588
 20
163.00000220537231
 30
0.0
  0
VERTEX
  5
14DFE
  8
0
 10
380.62317480333172
 20
163.28327141702221
 30
0.0
  0
VERTEX
  5
14DFF
  8
0
 10
380.59946146793692
 20
163.53907592594669
 30
0.0
  0
VERTEX
  5
14E00
  8
0
 10
380.55778377177489
 20
163.73435936868239
 30
0.0
  0
VERTEX
  5
14E01
  8
0
 10
380.4975300747904
 20
163.8434414565568
 30
0.0
  0
VERTEX
  5
14E02
  8
0
 10
380.4236445296558
 20
163.85378845036081
 30
0.0
  0
VERTEX
  5
14E03
  8
0
 10
380.3448229748758
 20
163.76726113259841
 30
0.0
  0
VERTEX
  5
14E04
  8
0
 10
380.27274140156828
 20
163.5976020991807
 30
0.0
  0
VERTEX
  5
14E05
  8
0
 10
380.21853842772572
 20
163.36371906101749
 30
0.0
  0
VERTEX
  5
14E06
  8
0
 10
380.19182343967282
 20
163.08858215808911
 30
0.0
  0
VERTEX
  5
14E07
  8
0
 10
380.19201994873612
 20
162.90621429681821
 30
0.0
  0
VERTEX
  5
14E08
  8
0
 10
380.21987487562018
 20
162.6281269639735
 30
0.0
  0
VERTEX
  5
14E09
  8
0
 10
380.27715493924939
 20
162.38872863352341
 30
0.0
  0
VERTEX
  5
14E0A
  8
0
 10
380.35298136062943
 20
162.21945703029681
 30
0.0
  0
VERTEX
  5
14E0B
  8
0
 10
380.43322504498087
 20
162.1420957893138
 30
0.0
  0
VERTEX
  5
14E0C
  8
0
 10
380.5054491106423
 20
162.16439165175009
 30
0.0
  0
VERTEX
  5
14E0D
  8
0
 10
380.56214802898489
 20
162.28014945983929
 30
0.0
  0
VERTEX
  5
14E0E
  8
0
 10
380.60110245831328
 20
162.4728009849791
 30
0.0
  0
VERTEX
  5
14E0F
  8
0
 10
380.62338900752388
 20
162.7206370979552
 30
0.0
  0
VERTEX
  5
14E10
  8
0
 10
380.63065332360588
 20
163.00000220537231
 30
0.0
  0
SEQEND
  5
14E11
  8
0
  0
POLYLINE
  5
C9DA
  8
0
 66
     1
 10
0.0
 20
0.0
 30
0.0
 70
   128
  0
VERTEX
  5
14E12
  8
0
 10
380.63065332360588
 20
167.40000218153051
 30
0.0
  0
VERTEX
  5
14E13
  8
0
 10
380.62317480333172
 20
167.68327139318029
 30
0.0
  0
VERTEX
  5
14E14
  8
0
 10
380.59946146793692
 20
167.9390759021048
 30
0.0
  0
VERTEX
  5
14E15
  8
0
 10
380.55790930497977
 20
168.13550394482851
 30
0.0
  0
VERTEX
  5
14E16
  8
0
 10
380.4975300747904
 20
168.24344143271489
 30
0.0
  0
VERTEX
  5
14E17
  8
0
 10
380.4236445296558
 20
168.25378842651889
 30
0.0
  0
VERTEX
  5
14E18
  8
0
 10
380.3448229748758
 20
168.16726110875649
 30
0.0
  0
VERTEX
  5
14E19
  8
0
 10
380.27274140156828
 20
167.99760207533879
 30
0.0
  0
VERTEX
  5
14E1A
  8
0
 10
380.21853842772572
 20
167.7637190371756
 30
0.0
  0
VERTEX
  5
14E1B
  8
0
 10
380.19182343967282
 20
167.48858213424731
 30
0.0
  0
VERTEX
  5
14E1C
  8
0
 10
380.19201994873612
 20
167.3062142729764
 30
0.0
  0
VERTEX
  5
14E1D
  8
0
 10
380.21987487562018
 20
167.02812694013161
 30
0.0
  0
VERTEX
  5
14E1E
  8
0
 10
380.27715493924939
 20
166.78872860968161
 30
0.0
  0
VERTEX
  5
14E1F
  8
0
 10
380.35298136062943
 20
166.61945700645489
 30
0.0
  0
VERTEX
  5
14E20
  8
0
 10
380.43322504498087
 20
166.54209576547191
 30
0.0
  0
VERTEX
  5
14E21
  8
0
 10
380.5054491106423
 20
166.56439162790821
 30
0.0
  0
VERTEX
  5
14E22
  8
0
 10
380.56214802898489
 20
166.68014943599749
 30
0.0
  0
VERTEX
  5
14E23
  8
0
 10
380.60110245831328
 20
166.8728009611373
 30
0.0
  0
VERTEX
  5
14E24
  8
0
 10
380.62338900752388
 20
167.12063707411329
 30
0.0
  0
VERTEX
  5
14E25
  8
0
 10
380.63065332360588
 20
167.40000218153051
 30
0.0
  0
SEQEND
  5
14E26
  8
0
  0
ARC
  5
C9DB
  8
0
 10
373.56194709723968
 20
159.65003608545621
 30
0.0
 40
7.2346220043481946
 50
175.2721147363267
 51
181.18830035792641
  0
POLYLINE
  5
C9DC
  8
0
 66
     1
 10
0.0
 20
0.0
 30
0.0
 70
   128
  0
VERTEX
  5
14E27
  8
0
 10
366.3303516525778
 20
159.21344578266189
 30
0.0
  0
VERTEX
  5
14E28
  8
0
 10
366.33013442158722
 20
159.22267332673121
 30
0.0
  0
VERTEX
  5
14E29
  8
0
 10
366.32888097781711
 20
159.50000256300021
 30
0.0
  0
SEQEND
  5
14E2A
  8
0
  0
ARC
  5
C9DD
  8
0
 10
372.4293380099823
 20
166.6542119296341
 30
0.0
 40
6.1024057695451761
 50
174.8109532874619
 51
181.4480224829104
  0
POLYLINE
  5
C9DE
  8
0
 66
     1
 10
0.0
 20
0.0
 30
0.0
 70
   128
  0
VERTEX
  5
14E2B
  8
0
 10
366.3303516525778
 20
166.2134469300513
 30
0.0
  0
VERTEX
  5
14E2C
  8
0
 10
366.33013442158722
 20
166.22267261147539
 30
0.0
  0
VERTEX
  5
14E2D
  8
0
 10
366.32888097781711
 20
166.50000371038959
 30
0.0
  0
SEQEND
  5
14E2E
  8
0
  0
POLYLINE
  5
C9DF
  8
0
 66
     1
 10
0.0
 20
0.0
 30
0.0
 70
   128
  0
VERTEX
  5
14E2F
  8
0
 10
377.98086923547112
 20
172.05148160457659
 30
0.0
  0
VERTEX
  5
14E30
  8
0
 10
378.217669175938
 20
172.2021714597945
 30
0.0
  0
VERTEX
  5
14E31
  8
0
 10
378.24865614064061
 20
172.33165137469811
 30
0.0
  0
VERTEX
  5
14E32
  8
0
 10
378.09406218118988
 20
172.41241380572359
 30
0.0
  0
VERTEX
  5
14E33
  8
0
 10
378.06975357753942
 20
172.41784737131911
 30
0.0
  0
SEQEND
  5
14E34
  8
0
  0
POLYLINE
  5
C9E0
  8
0
 66
     1
 10
0.0
 20
0.0
 30
0.0
 70
   128
  0
VERTEX
  5
14E35
  8
0
 10
378.0824038852009
 20
153.59459415078209
 30
0.0
  0
VERTEX
  5
14E36
  8
0
 10
378.2243448961529
 20
153.64387042820499
 30
0.0
  0
VERTEX
  5
14E37
  8
0
 10
378.24473899789177
 20
153.7641526013617
 30
0.0
  0
VERTEX
  5
14E38
  8
0
 10
378.08148839511
 20
153.89724697917751
 30
0.0
  0
VERTEX
  5
14E39
  8
0
 10
377.98086923547112
 20
153.9485237374906
 30
0.0
  0
SEQEND
  5
14E3A
  8
0
  0
POLYLINE
  5
C9E1
  8
0
 66
     1
 10
0.0
 20
0.0
 30
0.0
 70
   128
  0
VERTEX
  5
14E3B
  8
0
 10
371.77751163952081
 20
152.87735376507089
 30
0.0
  0
VERTEX
  5
14E3C
  8
0
 10
372.0611093752089
 20
152.88369048386861
 30
0.0
  0
VERTEX
  5
14E3D
  8
0
 10
372.31661702506273
 20
152.9038023948674
 30
0.0
  0
VERTEX
  5
14E3E
  8
0
 10
372.51161129213892
 20
152.93951209634591
 30
0.0
  0
VERTEX
  5
14E3F
  8
0
 10
372.62075065635167
 20
152.99100585281889
 30
0.0
  0
VERTEX
  5
14E40
  8
0
 10
372.63146319426619
 20
153.0548098310833
 30
0.0
  0
VERTEX
  5
14E41
  8
0
 10
372.54530514590471
 20
153.12330488115589
 30
0.0
  0
VERTEX
  5
14E42
  8
0
 10
372.37561025656782
 20
153.18628184497399
 30
0.0
  0
VERTEX
  5
14E43
  8
0
 10
372.14130812324612
 20
153.23376812040851
 30
0.0
  0
VERTEX
  5
14E44
  8
0
 10
371.8657719157639
 20
153.2571610808377
 30
0.0
  0
VERTEX
  5
14E45
  8
0
 10
371.68435097672068
 20
153.25699903070969
 30
0.0
  0
VERTEX
  5
14E46
  8
0
 10
371.40620753169082
 20
153.23269337415741
 30
0.0
  0
VERTEX
  5
14E47
  8
0
 10
371.16698685102187
 20
153.18278286606119
 30
0.0
  0
VERTEX
  5
14E48
  8
0
 10
370.99764632992469
 20
153.11685733497191
 30
0.0
  0
VERTEX
  5
14E49
  8
0
 10
370.91979637742071
 20
153.04725773632569
 30
0.0
  0
VERTEX
  5
14E4A
  8
0
 10
370.94136976636969
 20
152.98479393124629
 30
0.0
  0
VERTEX
  5
14E4B
  8
0
 10
371.0565753001722
 20
152.93593768030451
 30
0.0
  0
VERTEX
  5
14E4C
  8
0
 10
371.24923730269097
 20
152.9025264829402
 30
0.0
  0
VERTEX
  5
14E4D
  8
0
 10
371.49765223264723
 20
152.8835163265471
 30
0.0
  0
VERTEX
  5
14E4E
  8
0
 10
371.77751163952081
 20
152.87735376507089
 30
0.0
  0
SEQEND
  5
14E4F
  8
0
  0
POLYLINE
  5
C9E2
  8
0
 66
     1
 10
0.0
 20
0.0
 30
0.0
 70
   128
  0
VERTEX
  5
14E50
  8
0
 10
376.77751199342327
 20
152.87735376507089
 30
0.0
  0
VERTEX
  5
14E51
  8
0
 10
377.06110903061949
 20
152.88369048386861
 30
0.0
  0
VERTEX
  5
14E52
  8
0
 10
377.3166173789653
 20
152.9038023948674
 30
0.0
  0
VERTEX
  5
14E53
  8
0
 10
377.51161118038021
 20
152.93951209634591
 30
0.0
  0
VERTEX
  5
14E54
  8
0
 10
377.62075101025431
 20
152.99100585281889
 30
0.0
  0
VERTEX
  5
14E55
  8
0
 10
377.63146308250748
 20
153.0548098310833
 30
0.0
  0
VERTEX
  5
14E56
  8
0
 10
377.54530456848471
 20
153.12330488115589
 30
0.0
  0
VERTEX
  5
14E57
  8
0
 10
377.37561014480912
 20
153.18628184497399
 30
0.0
  0
VERTEX
  5
14E58
  8
0
 10
377.14130801148741
 20
153.23376812040851
 30
0.0
  0
VERTEX
  5
14E59
  8
0
 10
376.86577157117449
 20
153.2571610808377
 30
0.0
  0
VERTEX
  5
14E5A
  8
0
 10
376.68435086496203
 20
153.25699903070969
 30
0.0
  0
VERTEX
  5
14E5B
  8
0
 10
376.40620765276282
 20
153.23269337415741
 30
0.0
  0
VERTEX
  5
14E5C
  8
0
 10
376.16698720492451
 20
153.18278286606119
 30
0.0
  0
VERTEX
  5
14E5D
  8
0
 10
375.99764621816598
 20
153.11685733497191
 30
0.0
  0
VERTEX
  5
14E5E
  8
0
 10
375.91979649849259
 20
153.04725773632569
 30
0.0
  0
VERTEX
  5
14E5F
  8
0
 10
375.94136965461098
 20
152.98479393124629
 30
0.0
  0
VERTEX
  5
14E60
  8
0
 10
376.05657518841349
 20
152.93593768030451
 30
0.0
  0
VERTEX
  5
14E61
  8
0
 10
376.24923695810162
 20
152.9025264829402
 30
0.0
  0
VERTEX
  5
14E62
  8
0
 10
376.4976523537191
 20
152.8835163265471
 30
0.0
  0
VERTEX
  5
14E63
  8
0
 10
376.77751199342327
 20
152.87735376507089
 30
0.0
  0
SEQEND
  5
14E64
  8
0
  0
POLYLINE
  5
C9E3
  8
0
 66
     1
 10
0.0
 20
0.0
 30
0.0
 70
   128
  0
VERTEX
  5
14E65
  8
0
 10
371.77751163952081
 20
173.1226515769963
 30
0.0
  0
VERTEX
  5
14E66
  8
0
 10
371.49391367100202
 20
173.11631485819859
 30
0.0
  0
VERTEX
  5
14E67
  8
0
 10
371.23840602114819
 20
173.0962038785224
 30
0.0
  0
VERTEX
  5
14E68
  8
0
 10
371.04341198690258
 20
173.06049324572129
 30
0.0
  0
VERTEX
  5
14E69
  8
0
 10
370.93427238985919
 20
173.0090004205708
 30
0.0
  0
VERTEX
  5
14E6A
  8
0
 10
370.92355985194467
 20
172.94519551098389
 30
0.0
  0
VERTEX
  5
14E6B
  8
0
 10
371.00971813313691
 20
172.87670046091131
 30
0.0
  0
VERTEX
  5
14E6C
  8
0
 10
371.17941302247368
 20
172.81372442841581
 30
0.0
  0
VERTEX
  5
14E6D
  8
0
 10
371.4137149229648
 20
172.76623815298129
 30
0.0
  0
VERTEX
  5
14E6E
  8
0
 10
371.68925136327772
 20
172.7428451925521
 30
0.0
  0
VERTEX
  5
14E6F
  8
0
 10
371.87067206949018
 20
172.74300724268011
 30
0.0
  0
VERTEX
  5
14E70
  8
0
 10
372.14881551452009
 20
172.76731289923239
 30
0.0
  0
VERTEX
  5
14E71
  8
0
 10
372.38803642801957
 20
172.81722247600601
 30
0.0
  0
VERTEX
  5
14E72
  8
0
 10
372.55737648345553
 20
172.88314893841789
 30
0.0
  0
VERTEX
  5
14E73
  8
0
 10
372.63522666879021
 20
172.95274853706411
 30
0.0
  0
VERTEX
  5
14E74
  8
0
 10
372.61365304701047
 20
173.01521234214351
 30
0.0
  0
VERTEX
  5
14E75
  8
0
 10
372.49844797886931
 20
173.06406766176269
 30
0.0
  0
VERTEX
  5
14E76
  8
0
 10
372.30578574351989
 20
173.0974797904496
 30
0.0
  0
VERTEX
  5
14E77
  8
0
 10
372.05737081356369
 20
173.11648994684259
 30
0.0
  0
VERTEX
  5
14E78
  8
0
 10
371.77751163952081
 20
173.1226515769963
 30
0.0
  0
SEQEND
  5
14E79
  8
0
  0
POLYLINE
  5
C9E4
  8
0
 66
     1
 10
0.0
 20
0.0
 30
0.0
 70
   128
  0
VERTEX
  5
14E7A
  8
0
 10
376.77751199342327
 20
173.1226515769963
 30
0.0
  0
VERTEX
  5
14E7B
  8
0
 10
376.4939140249046
 20
173.11631485819859
 30
0.0
  0
VERTEX
  5
14E7C
  8
0
 10
376.2384056765589
 20
173.0962038785224
 30
0.0
  0
VERTEX
  5
14E7D
  8
0
 10
376.04341187514387
 20
173.06049324572129
 30
0.0
  0
VERTEX
  5
14E7E
  8
0
 10
375.93427251093112
 20
173.0090004205708
 30
0.0
  0
VERTEX
  5
14E7F
  8
0
 10
375.92355950735532
 20
172.94519551098389
 30
0.0
  0
VERTEX
  5
14E80
  8
0
 10
376.00971802137821
 20
172.87670046091131
 30
0.0
  0
VERTEX
  5
14E81
  8
0
 10
376.17941291071497
 20
172.81372442841581
 30
0.0
  0
VERTEX
  5
14E82
  8
0
 10
376.41371504403679
 20
172.76623815298129
 30
0.0
  0
VERTEX
  5
14E83
  8
0
 10
376.6892514843496
 20
172.7428451925521
 30
0.0
  0
VERTEX
  5
14E84
  8
0
 10
376.87067219056212
 20
172.74300724268011
 30
0.0
  0
VERTEX
  5
14E85
  8
0
 10
377.14881540276127
 20
172.76731289923239
 30
0.0
  0
VERTEX
  5
14E86
  8
0
 10
377.38803585059969
 20
172.81722247600601
 30
0.0
  0
VERTEX
  5
14E87
  8
0
 10
377.55737637169682
 20
172.88314893841789
 30
0.0
  0
VERTEX
  5
14E88
  8
0
 10
377.6352265570315
 20
172.95274853706411
 30
0.0
  0
VERTEX
  5
14E89
  8
0
 10
377.61365340091311
 20
173.01521234214351
 30
0.0
  0
VERTEX
  5
14E8A
  8
0
 10
377.4984478671106
 20
173.06406766176269
 30
0.0
  0
VERTEX
  5
14E8B
  8
0
 10
377.30578609742253
 20
173.0974797904496
 30
0.0
  0
VERTEX
  5
14E8C
  8
0
 10
377.05737070180498
 20
173.11648994684259
 30
0.0
  0
VERTEX
  5
14E8D
  8
0
 10
376.77751199342327
 20
173.1226515769963
 30
0.0
  0
SEQEND
  5
14E8E
  8
0
  0
POLYLINE
  5
C9E5
  8
0
 66
     1
 10
0.0
 20
0.0
 30
0.0
 70
   128
  0
VERTEX
  5
14E8F
  8
0
 10
370.24658240377948
 20
172.4161688983443
 30
0.0
  0
VERTEX
  5
14E90
  8
0
 10
370.29514598660199
 20
172.4255342781548
 30
0.0
  0
VERTEX
  5
14E91
  8
0
 10
370.51831670026831
 20
172.45064015597811
 30
0.0
  0
SEQEND
  5
14E92
  8
0
  0
POLYLINE
  5
C9E6
  8
0
 66
     1
 10
0.0
 20
0.0
 30
0.0
 70
   128
  0
VERTEX
  5
14E93
  8
0
 10
370.24330903776013
 20
153.58445111662201
 30
0.0
  0
VERTEX
  5
14E94
  8
0
 10
370.29514598660199
 20
153.5744710639124
 30
0.0
  0
VERTEX
  5
14E95
  8
0
 10
370.51447652831098
 20
153.54830743479121
 30
0.0
  0
SEQEND
  5
14E96
  8
0
  0
POLYLINE
  5
C9E7
  8
0
 66
     1
 10
0.0
 20
0.0
 30
0.0
 70
   128
  0
VERTEX
  5
14E97
  8
0
 10
378.02252941133912
 20
172.49058346650409
 30
0.0
  0
VERTEX
  5
14E98
  8
0
 10
378.3047347981485
 20
172.4556960910563
 30
0.0
  0
VERTEX
  5
14E99
  8
0
 10
378.3704330865296
 20
172.4343725293877
 30
0.0
  0
SEQEND
  5
14E9A
  8
0
  0
POLYLINE
  5
C9E9
  8
0
 66
     1
 10
0.0
 20
0.0
 30
0.0
 70
   128
  0
VERTEX
  5
14E9B
  8
0
 10
374.52286944724642
 20
153.18150509148879
 30
0.0
  0
VERTEX
  5
14E9C
  8
0
 10
374.90379388444148
 20
153.17650482058571
 30
0.0
  0
VERTEX
  5
14E9D
  8
0
 10
375.03215388394921
 20
153.18150509148879
 30
0.0
  0
SEQEND
  5
14E9E
  8
0
  0
POLYLINE
  5
C9EA
  8
0
 66
     1
 10
0.0
 20
0.0
 30
0.0
 70
   128
  0
VERTEX
  5
14E9F
  8
0
 10
375.03215388394921
 20
172.8185021132235
 30
0.0
  0
VERTEX
  5
14EA0
  8
0
 10
374.6512289810928
 20
172.82350145280409
 30
0.0
  0
VERTEX
  5
14EA1
  8
0
 10
374.52286944724642
 20
172.8185021132235
 30
0.0
  0
SEQEND
  5
14EA2
  8
0
  0
POLYLINE
  5
C9EB
  8
0
 66
     1
 10
0.0
 20
0.0
 30
0.0
 70
   128
  0
VERTEX
  5
14EA3
  8
0
 10
374.97103956528031
 20
153.07214826345489
 30
0.0
  0
VERTEX
  5
14EA4
  8
0
 10
374.87348631955712
 20
153.06823298335121
 30
0.0
  0
VERTEX
  5
14EA5
  8
0
 10
374.66079116243333
 20
153.07110950297729
 30
0.0
  0
SEQEND
  5
14EA6
  8
0
  0
POLYLINE
  5
C9ED
  8
0
 66
     1
 10
0.0
 20
0.0
 30
0.0
 70
   128
  0
VERTEX
  5
14EA7
  8
0
 10
374.97103956528031
 20
153.07214826345489
 30
0.0
  0
VERTEX
  5
14EA8
  8
0
 10
374.98059586621849
 20
153.06557685136841
 30
0.0
  0
VERTEX
  5
14EA9
  8
0
 10
374.98995798639982
 20
153.06506928056521
 30
0.0
  0
VERTEX
  5
14EAA
  8
0
 10
374.99893593601911
 20
153.07063672691629
 30
0.0
  0
VERTEX
  5
14EAB
  8
0
 10
374.99915734259179
 20
153.07094017269591
 30
0.0
  0
SEQEND
  5
14EAC
  8
0
  0
POLYLINE
  5
C9EE
  8
0
 66
     1
 10
0.0
 20
0.0
 30
0.0
 70
   128
  0
VERTEX
  5
14EAD
  8
0
 10
374.58398330025398
 20
172.92785800993491
 30
0.0
  0
VERTEX
  5
14EAE
  8
0
 10
374.5744269993159
 20
172.9344294220214
 30
0.0
  0
VERTEX
  5
14EAF
  8
0
 10
374.56506487913452
 20
172.93493606150199
 30
0.0
  0
VERTEX
  5
14EB0
  8
0
 10
374.55608692951517
 20
172.92936861515091
 30
0.0
  0
VERTEX
  5
14EB1
  8
0
 10
374.55277947729911
 20
172.92483563131299
 30
0.0
  0
SEQEND
  5
14EB2
  8
0
  0
POLYLINE
  5
C9EF
  8
0
 66
     1
 10
0.0
 20
0.0
 30
0.0
 70
   128
  0
VERTEX
  5
14EB3
  8
0
 10
374.58398330025398
 20
172.92785800993491
 30
0.0
  0
VERTEX
  5
14EB4
  8
0
 10
374.68153701163851
 20
172.93177329003859
 30
0.0
  0
VERTEX
  5
14EB5
  8
0
 10
374.97103956528031
 20
172.92785800993491
 30
0.0
  0
SEQEND
  5
14EB6
  8
0
  0
POLYLINE
  5
C9F0
  8
0
 66
     1
 10
0.0
 20
0.0
 30
0.0
 70
   128
  0
VERTEX
  5
14EB7
  8
0
 10
374.99040591214248
 20
172.93465829178311
 30
0.0
  0
VERTEX
  5
14EB8
  8
0
 10
374.98995798639982
 20
172.93493606150199
 30
0.0
  0
VERTEX
  5
14EB9
  8
0
 10
374.98059586621849
 20
172.9344294220214
 30
0.0
  0
VERTEX
  5
14EBA
  8
0
 10
374.97103956528031
 20
172.92785800993491
 30
0.0
  0
SEQEND
  5
14EBB
  8
0
  0
LINE
  5
C9F9
  8
0
 10
366.32768408973902
 20
159.75000306963921
 30
0.0
 11
357.31426809914427
 21
159.75000306963921
 31
0.0
  0
LINE
  5
C9FA
  8
0
 10
367.16064752957851
 20
156.00000292062759
 30
0.0
 11
357.7843308169397
 21
156.00000292062759
 31
0.0
  0
LINE
  5
C9FB
  8
0
 10
357.31426809914427
 20
166.25000320374971
 30
0.0
 11
366.33001089645518
 21
166.25000320374971
 31
0.0
  0
LINE
  5
C9FC
  8
0
 10
357.7843308169397
 20
170.0000033527613
 30
0.0
 11
367.16667803629838
 21
170.0000033527613
 31
0.0
  0
ARC
  5
C9FD
  8
0
 10
367.98194528263002
 20
163.00027695740121
 30
0.0
 40
3.0036204538978231
 50
121.6376999995565
 51
238.145742760909
  0
ARC
  5
C9FF
  8
0
 10
368.27751153148739
 20
163.00000298023221
 30
0.0
 40
3.0
 50
126.2370760752861
 51
233.76625663822099
  0
ARC
  5
CA00
  8
0
 10
368.27751153148739
 20
163.00000298023221
 30
0.0
 40
8.0000000000000284
 50
155.9539288185602
 51
180.0
  0
ARC
  5
CA01
  8
0
 10
368.27751153148739
 20
163.00000298023221
 30
0.0
 40
8.0000000000000089
 50
94.555859116363621
 51
118.9550243718607
  0
ARC
  5
CA02
  8
0
 10
368.27751153148739
 20
163.00000298023221
 30
0.0
 40
7.999999999999992
 50
241.26669718663391
 51
265.64666919266188
  0
ARC
  5
CA03
  8
0
 10
368.27751153148739
 20
163.00000298023221
 30
0.0
 40
8.0000000000000284
 50
180.0
 51
204.09976455159031
  0
LINE
  5
CA08
  8
0
 10
360.27751115150772
 20
145.0000029802323
 30
0.0
 11
331.27751105465018
 21
145.0000029802323
 31
0.0
  0
LINE
  5
CA0B
  8
0
 10
360.7775116991254
 20
145.50000300398099
 30
0.0
 11
360.27751115150772
 21
145.0000029802323
 31
0.0
  0
LINE
  5
CA0E
  8
0
 10
405.27751200832449
 20
145.0000029802323
 30
0.0
 11
376.277511911467
 21
145.0000029802323
 31
0.0
  0
LINE
  5
CA0F
  8
0
 10
376.277511911467
 20
145.0000029802323
 30
0.0
 11
375.77751136384933
 21
145.50000300398099
 31
0.0
  0
LINE
  5
CA11
  8
0
 10
345.77751063741772
 20
145.50000300398099
 30
0.0
 11
345.77751153148728
 21
174.9226527110427
 31
0.0
  0
POLYLINE
  5
CA12
  8
0
 10
345.77751153148728
 20
172.50000298023221
 30
0.0
 66
     1
 70
     8
  0
VERTEX
  8
0
  5
1556A
 10
345.778
 20
172.500
 30
0.000000
  70
    32
  0
VERTEX
  8
0
  5
1556B
 10
345.778
 20
172.493
 30
0.000000
  70
    32
  0
VERTEX
  8
0
  5
1556C
 10
345.778
 20
172.486
 30
0.000000
  70
    32
  0
VERTEX
  8
0
  5
1556D
 10
345.779
 20
172.479
 30
0.000000
  70
    32
  0
VERTEX
  8
0
  5
1556E
 10
345.780
 20
172.472
 30
0.000000
  70
    32
  0
VERTEX
  8
0
  5
1556F
 10
345.781
 20
172.465
 30
0.000000
  70
    32
  0
VERTEX
  8
0
  5
15570
 10
345.783
 20
172.458
 30
0.000000
  70
    32
  0
VERTEX
  8
0
  5
15571
 10
345.785
 20
172.450
 30
0.000000
  70
    32
  0
VERTEX
  8
0
  5
15572
 10
345.787
 20
172.443
 30
0.000000
  70
    32
  0
VERTEX
  8
0
  5
15573
 10
345.790
 20
172.436
 30
0.000000
  70
    32
  0
VERTEX
  8
0
  5
15574
 10
345.793
 20
172.429
 30
0.000000
  70
    32
  0
VERTEX
  8
0
  5
15575
 10
345.796
 20
172.422
 30
0.000000
  70
    32
  0
VERTEX
  8
0
  5
15576
 10
345.799
 20
172.415
 30
0.000000
  70
    32
  0
VERTEX
  8
0
  5
15577
 10
345.803
 20
172.408
 30
0.000000
  70
    32
  0
VERTEX
  8
0
  5
15578
 10
345.807
 20
172.401
 30
0.000000
  70
    32
  0
VERTEX
  8
0
  5
15579
 10
345.811
 20
172.394
 30
0.000000
  70
    32
  0
VERTEX
  8
0
  5
1557A
 10
345.816
 20
172.387
 30
0.000000
  70
    32
  0
VERTEX
  8
0
  5
1557B
 10
345.821
 20
172.380
 30
0.000000
  70
    32
  0
VERTEX
  8
0
  5
1557C
 10
345.826
 20
172.374
 30
0.000000
  70
    32
  0
VERTEX
  8
0
  5
1557D
 10
345.832
 20
172.367
 30
0.000000
  70
    32
  0
VERTEX
  8
0
  5
1557E
 10
345.837
 20
172.360
 30
0.000000
  70
    32
  0
VERTEX
  8
0
  5
1557F
 10
345.844
 20
172.353
 30
0.000000
  70
    32
  0
VERTEX
  8
0
  5
15580
 10
345.850
 20
172.346
 30
0.000000
  70
    32
  0
VERTEX
  8
0
  5
15581
 10
345.857
 20
172.339
 30
0.000000
  70
    32
  0
VERTEX
  8
0
  5
15582
 10
345.864
 20
172.332
 30
0.000000
  70
    32
  0
VERTEX
  8
0
  5
15583
 10
345.871
 20
172.326
 30
0.000000
  70
    32
  0
VERTEX
  8
0
  5
15584
 10
345.878
 20
172.319
 30
0.000000
  70
    32
  0
VERTEX
  8
0
  5
15585
 10
345.886
 20
172.312
 30
0.000000
  70
    32
  0
VERTEX
  8
0
  5
15586
 10
345.894
 20
172.305
 30
0.000000
  70
    32
  0
VERTEX
  8
0
  5
15587
 10
345.903
 20
172.299
 30
0.000000
  70
    32
  0
VERTEX
  8
0
  5
15588
 10
345.912
 20
172.292
 30
0.000000
  70
    32
  0
VERTEX
  8
0
  5
15589
 10
345.920
 20
172.286
 30
0.000000
  70
    32
  0
VERTEX
  8
0
  5
1558A
 10
345.930
 20
172.279
 30
0.000000
  70
    32
  0
VERTEX
  8
0
  5
1558B
 10
345.939
 20
172.273
 30
0.000000
  70
    32
  0
VERTEX
  8
0
  5
1558C
 10
345.949
 20
172.266
 30
0.000000
  70
    32
  0
VERTEX
  8
0
  5
1558D
 10
345.959
 20
172.260
 30
0.000000
  70
    32
  0
VERTEX
  8
0
  5
1558E
 10
345.970
 20
172.253
 30
0.000000
  70
    32
  0
VERTEX
  8
0
  5
1558F
 10
345.980
 20
172.247
 30
0.000000
  70
    32
  0
VERTEX
  8
0
  5
15590
 10
345.991
 20
172.240
 30
0.000000
  70
    32
  0
VERTEX
  8
0
  5
15591
 10
346.002
 20
172.234
 30
0.000000
  70
    32
  0
VERTEX
  8
0
  5
15592
 10
346.014
 20
172.228
 30
0.000000
  70
    32
  0
VERTEX
  8
0
  5
15593
 10
346.025
 20
172.222
 30
0.000000
  70
    32
  0
VERTEX
  8
0
  5
15594
 10
346.037
 20
172.215
 30
0.000000
  70
    32
  0
VERTEX
  8
0
  5
15595
 10
346.050
 20
172.209
 30
0.000000
  70
    32
  0
VERTEX
  8
0
  5
15596
 10
346.062
 20
172.203
 30
0.000000
  70
    32
  0
VERTEX
  8
0
  5
15597
 10
346.075
 20
172.197
 30
0.000000
  70
    32
  0
VERTEX
  8
0
  5
15598
 10
346.088
 20
172.191
 30
0.000000
  70
    32
  0
VERTEX
  8
0
  5
15599
 10
346.101
 20
172.185
 30
0.000000
  70
    32
  0
VERTEX
  8
0
  5
1559A
 10
346.115
 20
172.179
 30
0.000000
  70
    32
  0
VERTEX
  8
0
  5
1559B
 10
346.128
 20
172.173
 30
0.000000
  70
    32
  0
VERTEX
  8
0
  5
1559C
 10
346.142
 20
172.168
 30
0.000000
  70
    32
  0
VERTEX
  8
0
  5
1559D
 10
346.157
 20
172.162
 30
0.000000
  70
    32
  0
VERTEX
  8
0
  5
1559E
 10
346.171
 20
172.156
 30
0.000000
  70
    32
  0
VERTEX
  8
0
  5
1559F
 10
346.186
 20
172.150
 30
0.000000
  70
    32
  0
VERTEX
  8
0
  5
155A0
 10
346.201
 20
172.145
 30
0.000000
  70
    32
  0
VERTEX
  8
0
  5
155A1
 10
346.216
 20
172.139
 30
0.000000
  70
    32
  0
VERTEX
  8
0
  5
155A2
 10
346.231
 20
172.134
 30
0.000000
  70
    32
  0
VERTEX
  8
0
  5
155A3
 10
346.247
 20
172.128
 30
0.000000
  70
    32
  0
VERTEX
  8
0
  5
155A4
 10
346.263
 20
172.123
 30
0.000000
  70
    32
  0
VERTEX
  8
0
  5
155A5
 10
346.279
 20
172.118
 30
0.000000
  70
    32
  0
VERTEX
  8
0
  5
155A6
 10
346.296
 20
172.112
 30
0.000000
  70
    32
  0
VERTEX
  8
0
  5
155A7
 10
346.312
 20
172.107
 30
0.000000
  70
    32
  0
VERTEX
  8
0
  5
155A8
 10
346.329
 20
172.102
 30
0.000000
  70
    32
  0
VERTEX
  8
0
  5
155A9
 10
346.346
 20
172.097
 30
0.000000
  70
    32
  0
VERTEX
  8
0
  5
155AA
 10
346.363
 20
172.092
 30
0.000000
  70
    32
  0
VERTEX
  8
0
  5
155AB
 10
346.381
 20
172.087
 30
0.000000
  70
    32
  0
VERTEX
  8
0
  5
155AC
 10
346.398
 20
172.082
 30
0.000000
  70
    32
  0
VERTEX
  8
0
  5
155AD
 10
346.416
 20
172.077
 30
0.000000
  70
    32
  0
VERTEX
  8
0
  5
155AE
 10
346.434
 20
172.072
 30
0.000000
  70
    32
  0
VERTEX
  8
0
  5
155AF
 10
346.453
 20
172.067
 30
0.000000
  70
    32
  0
VERTEX
  8
0
  5
155B0
 10
346.471
 20
172.063
 30
0.000000
  70
    32
  0
VERTEX
  8
0
  5
155B1
 10
346.490
 20
172.058
 30
0.000000
  70
    32
  0
VERTEX
  8
0
  5
155B2
 10
346.509
 20
172.054
 30
0.000000
  70
    32
  0
VERTEX
  8
0
  5
155B3
 10
346.528
 20
172.049
 30
0.000000
  70
    32
  0
VERTEX
  8
0
  5
155B4
 10
346.547
 20
172.045
 30
0.000000
  70
    32
  0
VERTEX
  8
0
  5
155B5
 10
346.566
 20
172.041
 30
0.000000
  70
    32
  0
VERTEX
  8
0
  5
155B6
 10
346.586
 20
172.036
 30
0.000000
  70
    32
  0
VERTEX
  8
0
  5
155B7
 10
346.606
 20
172.032
 30
0.000000
  70
    32
  0
VERTEX
  8
0
  5
155B8
 10
346.626
 20
172.028
 30
0.000000
  70
    32
  0
VERTEX
  8
0
  5
155B9
 10
346.646
 20
172.024
 30
0.000000
  70
    32
  0
VERTEX
  8
0
  5
155BA
 10
346.666
 20
172.020
 30
0.000000
  70
    32
  0
VERTEX
  8
0
  5
155BB
 10
346.687
 20
172.016
 30
0.000000
  70
    32
  0
VERTEX
  8
0
  5
155BC
 10
346.708
 20
172.012
 30
0.000000
  70
    32
  0
VERTEX
  8
0
  5
155BD
 10
346.728
 20
172.008
 30
0.000000
  70
    32
  0
VERTEX
  8
0
  5
155BE
 10
346.749
 20
172.005
 30
0.000000
  70
    32
  0
VERTEX
  8
0
  5
155BF
 10
346.770
 20
172.001
 30
0.000000
  70
    32
  0
VERTEX
  8
0
  5
155C0
 10
346.792
 20
171.998
 30
0.000000
  70
    32
  0
VERTEX
  8
0
  5
155C1
 10
346.813
 20
171.994
 30
0.000000
  70
    32
  0
VERTEX
  8
0
  5
155C2
 10
346.835
 20
171.991
 30
0.000000
  70
    32
  0
VERTEX
  8
0
  5
155C3
 10
346.856
 20
171.988
 30
0.000000
  70
    32
  0
VERTEX
  8
0
  5
155C4
 10
346.878
 20
171.984
 30
0.000000
  70
    32
  0
VERTEX
  8
0
  5
155C5
 10
346.900
 20
171.981
 30
0.000000
  70
    32
  0
VERTEX
  8
0
  5
155C6
 10
346.922
 20
171.978
 30
0.000000
  70
    32
  0
VERTEX
  8
0
  5
155C7
 10
346.945
 20
171.975
 30
0.000000
  70
    32
  0
VERTEX
  8
0
  5
155C8
 10
346.967
 20
171.972
 30
0.000000
  70
    32
  0
VERTEX
  8
0
  5
155C9
 10
346.990
 20
171.969
 30
0.000000
  70
    32
  0
VERTEX
  8
0
  5
155CA
 10
347.012
 20
171.967
 30
0.000000
  70
    32
  0
VERTEX
  8
0
  5
155CB
 10
347.035
 20
171.964
 30
0.000000
  70
    32
  0
VERTEX
  8
0
  5
155CC
 10
347.058
 20
171.961
 30
0.000000
  70
    32
  0
VERTEX
  8
0
  5
155CD
 10
347.081
 20
171.959
 30
0.000000
  70
    32
  0
VERTEX
  8
0
  5
155CE
 10
347.104
 20
171.956
 30
0.000000
  70
    32
  0
VERTEX
  8
0
  5
155CF
 10
347.127
 20
171.954
 30
0.000000
  70
    32
  0
VERTEX
  8
0
  5
155D0
 10
347.150
 20
171.952
 30
0.000000
  70
    32
  0
VERTEX
  8
0
  5
155D1
 10
347.173
 20
171.950
 30
0.000000
  70
    32
  0
VERTEX
  8
0
  5
155D2
 10
347.197
 20
171.948
 30
0.000000
  70
    32
  0
VERTEX
  8
0
  5
155D3
 10
347.220
 20
171.945
 30
0.000000
  70
    32
  0
VERTEX
  8
0
  5
155D4
 10
347.244
 20
171.944
 30
0.000000
  70
    32
  0
VERTEX
  8
0
  5
155D5
 10
347.268
 20
171.942
 30
0.000000
  70
    32
  0
VERTEX
  8
0
  5
155D6
 10
347.292
 20
171.940
 30
0.000000
  70
    32
  0
VERTEX
  8
0
  5
155D7
 10
347.315
 20
171.938
 30
0.000000
  70
    32
  0
VERTEX
  8
0
  5
155D8
 10
347.339
 20
171.937
 30
0.000000
  70
    32
  0
VERTEX
  8
0
  5
155D9
 10
347.363
 20
171.935
 30
0.000000
  70
    32
  0
VERTEX
  8
0
  5
155DA
 10
347.387
 20
171.934
 30
0.000000
  70
    32
  0
VERTEX
  8
0
  5
155DB
 10
347.411
 20
171.932
 30
0.000000
  70
    32
  0
VERTEX
  8
0
  5
155DC
 10
347.436
 20
171.931
 30
0.000000
  70
    32
  0
VERTEX
  8
0
  5
155DD
 10
347.460
 20
171.930
 30
0.000000
  70
    32
  0
VERTEX
  8
0
  5
155DE
 10
347.484
 20
171.929
 30
0.000000
  70
    32
  0
VERTEX
  8
0
  5
155DF
 10
347.508
 20
171.928
 30
0.000000
  70
    32
  0
VERTEX
  8
0
  5
155E0
 10
347.533
 20
171.927
 30
0.000000
  70
    32
  0
VERTEX
  8
0
  5
155E1
 10
347.557
 20
171.926
 30
0.000000
  70
    32
  0
VERTEX
  8
0
  5
155E2
 10
347.581
 20
171.925
 30
0.000000
  70
    32
  0
VERTEX
  8
0
  5
155E3
 10
347.606
 20
171.925
 30
0.000000
  70
    32
  0
VERTEX
  8
0
  5
155E4
 10
347.630
 20
171.924
 30
0.000000
  70
    32
  0
VERTEX
  8
0
  5
155E5
 10
347.655
 20
171.924
 30
0.000000
  70
    32
  0
VERTEX
  8
0
  5
155E6
 10
347.679
 20
171.923
 30
0.000000
  70
    32
  0
VERTEX
  8
0
  5
155E7
 10
347.704
 20
171.923
 30
0.000000
  70
    32
  0
VERTEX
  8
0
  5
155E8
 10
347.728
 20
171.923
 30
0.000000
  70
    32
  0
VERTEX
  8
0
  5
155E9
 10
347.753
 20
171.923
 30
0.000000
  70
    32
  0
VERTEX
  8
0
  5
155EA
 10
347.778
 20
171.923
 30
0.000000
  70
    32
  0
SEQEND
  8
0
  5
155EB
  0
LINE
  5
CA15
  8
0
 10
345.77751063741772
 20
145.50000300398099
 30
0.0
 11
346.27751165069662
 21
145.0000029802323
 31
0.0
  0
LINE
  5
CA16
  8
0
 10
360.7775116991254
 20
145.50000300398099
 30
0.0
 11
375.77751136384933
 21
145.50000300398099
 31
0.0
  0
LINE
  5
CA1B
  8
0
 10
390.77751242555701
 20
145.50000300398099
 30
0.0
 11
390.2775114122781
 21
145.0000029802323
 31
0.0
  0
POLYLINE
  5
CA1D
  8
0
 10
388.77751153148728
 20
171.92265271104256
 30
0.0
 66
     1
 70
     8
  0
VERTEX
  8
0
  5
155EC
 10
388.778
 20
171.923
 30
0.000000
  70
    32
  0
VERTEX
  8
0
  5
155ED
 10
388.802
 20
171.923
 30
0.000000
  70
    32
  0
VERTEX
  8
0
  5
155EE
 10
388.827
 20
171.923
 30
0.000000
  70
    32
  0
VERTEX
  8
0
  5
155EF
 10
388.851
 20
171.923
 30
0.000000
  70
    32
  0
VERTEX
  8
0
  5
155F0
 10
388.876
 20
171.923
 30
0.000000
  70
    32
  0
VERTEX
  8
0
  5
155F1
 10
388.900
 20
171.924
 30
0.000000
  70
    32
  0
VERTEX
  8
0
  5
155F2
 10
388.925
 20
171.924
 30
0.000000
  70
    32
  0
VERTEX
  8
0
  5
155F3
 10
388.949
 20
171.925
 30
0.000000
  70
    32
  0
VERTEX
  8
0
  5
155F4
 10
388.974
 20
171.925
 30
0.000000
  70
    32
  0
VERTEX
  8
0
  5
155F5
 10
388.998
 20
171.926
 30
0.000000
  70
    32
  0
VERTEX
  8
0
  5
155F6
 10
389.022
 20
171.927
 30
0.000000
  70
    32
  0
VERTEX
  8
0
  5
155F7
 10
389.047
 20
171.928
 30
0.000000
  70
    32
  0
VERTEX
  8
0
  5
155F8
 10
389.071
 20
171.929
 30
0.000000
  70
    32
  0
VERTEX
  8
0
  5
155F9
 10
389.095
 20
171.930
 30
0.000000
  70
    32
  0
VERTEX
  8
0
  5
155FA
 10
389.119
 20
171.931
 30
0.000000
  70
    32
  0
VERTEX
  8
0
  5
155FB
 10
389.144
 20
171.932
 30
0.000000
  70
    32
  0
VERTEX
  8
0
  5
155FC
 10
389.168
 20
171.934
 30
0.000000
  70
    32
  0
VERTEX
  8
0
  5
155FD
 10
389.192
 20
171.935
 30
0.000000
  70
    32
  0
VERTEX
  8
0
  5
155FE
 10
389.216
 20
171.937
 30
0.000000
  70
    32
  0
VERTEX
  8
0
  5
155FF
 10
389.240
 20
171.938
 30
0.000000
  70
    32
  0
VERTEX
  8
0
  5
15600
 10
389.263
 20
171.940
 30
0.000000
  70
    32
  0
VERTEX
  8
0
  5
15601
 10
389.287
 20
171.942
 30
0.000000
  70
    32
  0
VERTEX
  8
0
  5
15602
 10
389.311
 20
171.944
 30
0.000000
  70
    32
  0
VERTEX
  8
0
  5
15603
 10
389.335
 20
171.945
 30
0.000000
  70
    32
  0
VERTEX
  8
0
  5
15604
 10
389.358
 20
171.948
 30
0.000000
  70
    32
  0
VERTEX
  8
0
  5
15605
 10
389.382
 20
171.950
 30
0.000000
  70
    32
  0
VERTEX
  8
0
  5
15606
 10
389.405
 20
171.952
 30
0.000000
  70
    32
  0
VERTEX
  8
0
  5
15607
 10
389.428
 20
171.954
 30
0.000000
  70
    32
  0
VERTEX
  8
0
  5
15608
 10
389.451
 20
171.956
 30
0.000000
  70
    32
  0
VERTEX
  8
0
  5
15609
 10
389.474
 20
171.959
 30
0.000000
  70
    32
  0
VERTEX
  8
0
  5
1560A
 10
389.497
 20
171.961
 30
0.000000
  70
    32
  0
VERTEX
  8
0
  5
1560B
 10
389.520
 20
171.964
 30
0.000000
  70
    32
  0
VERTEX
  8
0
  5
1560C
 10
389.543
 20
171.967
 30
0.000000
  70
    32
  0
VERTEX
  8
0
  5
1560D
 10
389.565
 20
171.969
 30
0.000000
  70
    32
  0
VERTEX
  8
0
  5
1560E
 10
389.588
 20
171.972
 30
0.000000
  70
    32
  0
VERTEX
  8
0
  5
1560F
 10
389.610
 20
171.975
 30
0.000000
  70
    32
  0
VERTEX
  8
0
  5
15610
 10
389.633
 20
171.978
 30
0.000000
  70
    32
  0
VERTEX
  8
0
  5
15611
 10
389.655
 20
171.981
 30
0.000000
  70
    32
  0
VERTEX
  8
0
  5
15612
 10
389.677
 20
171.984
 30
0.000000
  70
    32
  0
VERTEX
  8
0
  5
15613
 10
389.699
 20
171.988
 30
0.000000
  70
    32
  0
VERTEX
  8
0
  5
15614
 10
389.720
 20
171.991
 30
0.000000
  70
    32
  0
VERTEX
  8
0
  5
15615
 10
389.742
 20
171.994
 30
0.000000
  70
    32
  0
VERTEX
  8
0
  5
15616
 10
389.763
 20
171.998
 30
0.000000
  70
    32
  0
VERTEX
  8
0
  5
15617
 10
389.785
 20
172.001
 30
0.000000
  70
    32
  0
VERTEX
  8
0
  5
15618
 10
389.806
 20
172.005
 30
0.000000
  70
    32
  0
VERTEX
  8
0
  5
15619
 10
389.827
 20
172.008
 30
0.000000
  70
    32
  0
VERTEX
  8
0
  5
1561A
 10
389.848
 20
172.012
 30
0.000000
  70
    32
  0
VERTEX
  8
0
  5
1561B
 10
389.868
 20
172.016
 30
0.000000
  70
    32
  0
VERTEX
  8
0
  5
1561C
 10
389.889
 20
172.020
 30
0.000000
  70
    32
  0
VERTEX
  8
0
  5
1561D
 10
389.909
 20
172.024
 30
0.000000
  70
    32
  0
VERTEX
  8
0
  5
1561E
 10
389.929
 20
172.028
 30
0.000000
  70
    32
  0
VERTEX
  8
0
  5
1561F
 10
389.949
 20
172.032
 30
0.000000
  70
    32
  0
VERTEX
  8
0
  5
15620
 10
389.969
 20
172.036
 30
0.000000
  70
    32
  0
VERTEX
  8
0
  5
15621
 10
389.989
 20
172.041
 30
0.000000
  70
    32
  0
VERTEX
  8
0
  5
15622
 10
390.008
 20
172.045
 30
0.000000
  70
    32
  0
VERTEX
  8
0
  5
15623
 10
390.027
 20
172.049
 30
0.000000
  70
    32
  0
VERTEX
  8
0
  5
15624
 10
390.046
 20
172.054
 30
0.000000
  70
    32
  0
VERTEX
  8
0
  5
15625
 10
390.065
 20
172.058
 30
0.000000
  70
    32
  0
VERTEX
  8
0
  5
15626
 10
390.084
 20
172.063
 30
0.000000
  70
    32
  0
VERTEX
  8
0
  5
15627
 10
390.102
 20
172.067
 30
0.000000
  70
    32
  0
VERTEX
  8
0
  5
15628
 10
390.121
 20
172.072
 30
0.000000
  70
    32
  0
VERTEX
  8
0
  5
15629
 10
390.139
 20
172.077
 30
0.000000
  70
    32
  0
VERTEX
  8
0
  5
1562A
 10
390.157
 20
172.082
 30
0.000000
  70
    32
  0
VERTEX
  8
0
  5
1562B
 10
390.174
 20
172.087
 30
0.000000
  70
    32
  0
VERTEX
  8
0
  5
1562C
 10
390.192
 20
172.092
 30
0.000000
  70
    32
  0
VERTEX
  8
0
  5
1562D
 10
390.209
 20
172.097
 30
0.000000
  70
    32
  0
VERTEX
  8
0
  5
1562E
 10
390.226
 20
172.102
 30
0.000000
  70
    32
  0
VERTEX
  8
0
  5
1562F
 10
390.243
 20
172.107
 30
0.000000
  70
    32
  0
VERTEX
  8
0
  5
15630
 10
390.259
 20
172.112
 30
0.000000
  70
    32
  0
VERTEX
  8
0
  5
15631
 10
390.276
 20
172.118
 30
0.000000
  70
    32
  0
VERTEX
  8
0
  5
15632
 10
390.292
 20
172.123
 30
0.000000
  70
    32
  0
VERTEX
  8
0
  5
15633
 10
390.308
 20
172.128
 30
0.000000
  70
    32
  0
VERTEX
  8
0
  5
15634
 10
390.324
 20
172.134
 30
0.000000
  70
    32
  0
VERTEX
  8
0
  5
15635
 10
390.339
 20
172.139
 30
0.000000
  70
    32
  0
VERTEX
  8
0
  5
15636
 10
390.354
 20
172.145
 30
0.000000
  70
    32
  0
VERTEX
  8
0
  5
15637
 10
390.369
 20
172.150
 30
0.000000
  70
    32
  0
VERTEX
  8
0
  5
15638
 10
390.384
 20
172.156
 30
0.000000
  70
    32
  0
VERTEX
  8
0
  5
15639
 10
390.398
 20
172.162
 30
0.000000
  70
    32
  0
VERTEX
  8
0
  5
1563A
 10
390.413
 20
172.168
 30
0.000000
  70
    32
  0
VERTEX
  8
0
  5
1563B
 10
390.427
 20
172.173
 30
0.000000
  70
    32
  0
VERTEX
  8
0
  5
1563C
 10
390.440
 20
172.179
 30
0.000000
  70
    32
  0
VERTEX
  8
0
  5
1563D
 10
390.454
 20
172.185
 30
0.000000
  70
    32
  0
VERTEX
  8
0
  5
1563E
 10
390.467
 20
172.191
 30
0.000000
  70
    32
  0
VERTEX
  8
0
  5
1563F
 10
390.480
 20
172.197
 30
0.000000
  70
    32
  0
VERTEX
  8
0
  5
15640
 10
390.493
 20
172.203
 30
0.000000
  70
    32
  0
VERTEX
  8
0
  5
15641
 10
390.505
 20
172.209
 30
0.000000
  70
    32
  0
VERTEX
  8
0
  5
15642
 10
390.518
 20
172.215
 30
0.000000
  70
    32
  0
VERTEX
  8
0
  5
15643
 10
390.530
 20
172.222
 30
0.000000
  70
    32
  0
VERTEX
  8
0
  5
15644
 10
390.541
 20
172.228
 30
0.000000
  70
    32
  0
VERTEX
  8
0
  5
15645
 10
390.553
 20
172.234
 30
0.000000
  70
    32
  0
VERTEX
  8
0
  5
15646
 10
390.564
 20
172.240
 30
0.000000
  70
    32
  0
VERTEX
  8
0
  5
15647
 10
390.575
 20
172.247
 30
0.000000
  70
    32
  0
VERTEX
  8
0
  5
15648
 10
390.585
 20
172.253
 30
0.000000
  70
    32
  0
VERTEX
  8
0
  5
15649
 10
390.596
 20
172.260
 30
0.000000
  70
    32
  0
VERTEX
  8
0
  5
1564A
 10
390.606
 20
172.266
 30
0.000000
  70
    32
  0
VERTEX
  8
0
  5
1564B
 10
390.616
 20
172.273
 30
0.000000
  70
    32
  0
VERTEX
  8
0
  5
1564C
 10
390.625
 20
172.279
 30
0.000000
  70
    32
  0
VERTEX
  8
0
  5
1564D
 10
390.635
 20
172.286
 30
0.000000
  70
    32
  0
VERTEX
  8
0
  5
1564E
 10
390.643
 20
172.292
 30
0.000000
  70
    32
  0
VERTEX
  8
0
  5
1564F
 10
390.652
 20
172.299
 30
0.000000
  70
    32
  0
VERTEX
  8
0
  5
15650
 10
390.661
 20
172.305
 30
0.000000
  70
    32
  0
VERTEX
  8
0
  5
15651
 10
390.669
 20
172.312
 30
0.000000
  70
    32
  0
VERTEX
  8
0
  5
15652
 10
390.677
 20
172.319
 30
0.000000
  70
    32
  0
VERTEX
  8
0
  5
15653
 10
390.684
 20
172.326
 30
0.000000
  70
    32
  0
VERTEX
  8
0
  5
15654
 10
390.691
 20
172.332
 30
0.000000
  70
    32
  0
VERTEX
  8
0
  5
15655
 10
390.698
 20
172.339
 30
0.000000
  70
    32
  0
VERTEX
  8
0
  5
15656
 10
390.705
 20
172.346
 30
0.000000
  70
    32
  0
VERTEX
  8
0
  5
15657
 10
390.711
 20
172.353
 30
0.000000
  70
    32
  0
VERTEX
  8
0
  5
15658
 10
390.718
 20
172.360
 30
0.000000
  70
    32
  0
VERTEX
  8
0
  5
15659
 10
390.723
 20
172.367
 30
0.000000
  70
    32
  0
VERTEX
  8
0
  5
1565A
 10
390.729
 20
172.374
 30
0.000000
  70
    32
  0
VERTEX
  8
0
  5
1565B
 10
390.734
 20
172.380
 30
0.000000
  70
    32
  0
VERTEX
  8
0
  5
1565C
 10
390.739
 20
172.387
 30
0.000000
  70
    32
  0
VERTEX
  8
0
  5
1565D
 10
390.744
 20
172.394
 30
0.000000
  70
    32
  0
VERTEX
  8
0
  5
1565E
 10
390.748
 20
172.401
 30
0.000000
  70
    32
  0
VERTEX
  8
0
  5
1565F
 10
390.752
 20
172.408
 30
0.000000
  70
    32
  0
VERTEX
  8
0
  5
15660
 10
390.756
 20
172.415
 30
0.000000
  70
    32
  0
VERTEX
  8
0
  5
15661
 10
390.759
 20
172.422
 30
0.000000
  70
    32
  0
VERTEX
  8
0
  5
15662
 10
390.762
 20
172.429
 30
0.000000
  70
    32
  0
VERTEX
  8
0
  5
15663
 10
390.765
 20
172.436
 30
0.000000
  70
    32
  0
VERTEX
  8
0
  5
15664
 10
390.768
 20
172.443
 30
0.000000
  70
    32
  0
VERTEX
  8
0
  5
15665
 10
390.770
 20
172.450
 30
0.000000
  70
    32
  0
VERTEX
  8
0
  5
15666
 10
390.772
 20
172.458
 30
0.000000
  70
    32
  0
VERTEX
  8
0
  5
15667
 10
390.774
 20
172.465
 30
0.000000
  70
    32
  0
VERTEX
  8
0
  5
15668
 10
390.775
 20
172.472
 30
0.000000
  70
    32
  0
VERTEX
  8
0
  5
15669
 10
390.776
 20
172.479
 30
0.000000
  70
    32
  0
VERTEX
  8
0
  5
1566A
 10
390.777
 20
172.486
 30
0.000000
  70
    32
  0
VERTEX
  8
0
  5
1566B
 10
390.777
 20
172.493
 30
0.000000
  70
    32
  0
VERTEX
  8
0
  5
1566C
 10
390.778
 20
172.500
 30
0.000000
  70
    32
  0
SEQEND
  8
0
  5
1566D
  0
LINE
  5
CA1E
  8
0
 10
390.77751153148739
 20
174.9226527110427
 30
0.0
 11
390.77751242555701
 21
145.50000300398099
 31
0.0
  0
CIRCLE
  5
CA1F
  8
0
 10
353.27751153148728
 20
163.00000298023221
 30
0.0
 40
4.25
  0
ARC
  5
CA20
  8
0
 10
383.27751153148728
 20
163.00000298023221
 30
0.0
 40
4.2500000000000151
 50
220.11916689842121
 51
139.88083310157879
  0
LINE
  5
CA30
  8
0
 10
389.3396900687369
 20
176.33013024926191
 30
0.0
 11
390.2775114122781
 21
175.78867793083191
 31
0.0
  0
ARC
  5
CA33
  8
0
 10
389.77751153148728
 20
174.9226527110427
 30
0.0
 40
1.0
 50
0.0
 51
60.000000000000682
  0
ARC
  5
CA34
  8
0
 10
346.77751153148728
 20
174.9226527110427
 30
0.0
 40
1.0
 50
119.9999999999993
 51
180.0
  0
LINE
  5
CA36
  8
0
 10
346.27751165069662
 20
175.78867793083191
 30
0.0
 11
347.21533299423783
 21
176.33013024926191
 31
0.0
  0
ARC
  5
CA39
  8
0
 10
348.6435369352717
 20
176.00000298023221
 30
0.0
 40
1.0
 50
90.0
 51
119.9999999999993
  0
POLYLINE
  5
CA3A
  8
0
 66
     1
 10
0.0
 20
0.0
 30
0.0
 70
   128
  0
VERTEX
  5
14EBC
  8
0
 10
347.21533299423783
 20
176.33013024926191
 30
0.0
  0
VERTEX
  5
14EBD
  8
0
 10
347.61615932919108
 20
176.56154528260231
 30
0.0
  0
VERTEX
  5
14EBE
  8
0
 10
347.90746399201481
 20
176.729730963707
 30
0.0
  0
VERTEX
  5
14EBF
  8
0
 10
348.08426440693461
 20
176.8318076431751
 30
0.0
  0
VERTEX
  5
14EC0
  8
0
 10
348.14353750087349
 20
176.8660281598568
 30
0.0
  0
SEQEND
  5
14EC1
  8
0
  0
LINE
  5
CA3B
  8
0
 10
348.6435366515073
 20
177.00000450015071
 30
0.0
 11
387.91148641146742
 21
177.00000450015071
 31
0.0
  0
ARC
  5
CA3D
  8
0
 10
387.9114861277028
 20
176.00000298023221
 30
0.0
 40
1.0
 50
60.000000000000682
 51
90.0
  0
POLYLINE
  5
CA3E
  8
0
 66
     1
 10
0.0
 20
0.0
 30
0.0
 70
   128
  0
VERTEX
  5
14EC2
  8
0
 10
388.41148556210118
 20
176.8660281598568
 30
0.0
  0
VERTEX
  5
14EC3
  8
0
 10
388.47075865604012
 20
176.8318076431751
 30
0.0
  0
VERTEX
  5
14EC4
  8
0
 10
388.64755907095991
 20
176.729730963707
 30
0.0
  0
VERTEX
  5
14EC5
  8
0
 10
388.93886373378359
 20
176.56154528260231
 30
0.0
  0
VERTEX
  5
14EC6
  8
0
 10
389.3396900687369
 20
176.33013024926191
 30
0.0
  0
SEQEND
  5
14EC7
  8
0
  0
LINE
  5
CA70
  8
0
 10
405.27751200832449
 20
145.0000029802323
 30
0.0
 11
405.7775130216034
 21
145.50000300398099
 31
0.0
  0
LINE
  5
CA73
  8
0
 10
330.77751004137122
 20
145.50000300398099
 30
0.0
 11
331.27751105465018
 21
145.0000029802323
 31
0.0
  0
LINE
  5
CA78
  8
0
 10
405.7775130216034
 20
152.0000031962991
 30
0.0
 11
405.7775130216034
 21
145.50000300398099
 31
0.0
  0
LINE
  5
CA7C
  8
0
 10
330.77751004137122
 20
145.50000300398099
 30
0.0
 11
330.77751004137122
 21
152.0000031962991
 31
0.0
  0
ARC
  5
CA7F
  8
0
 10
331.77751153148728
 20
152.00000298023221
 30
0.0
 40
1.0
 50
90.0
 51
180.0
  0
LINE
  5
CA80
  8
0
 10
331.77751206792919
 20
153.00000336021191
 30
0.0
 11
345.77751086532112
 21
153.00000336021191
 31
0.0
  0
ARC
  5
CA83
  8
0
 10
404.77751153148728
 20
152.00000298023221
 30
0.0
 40
1.0
 50
0.0
 51
90.0
  0
LINE
  5
CA84
  8
0
 10
390.77751219765361
 20
153.00000336021191
 30
0.0
 11
404.77751099504547
 21
153.00000336021191
 31
0.0
  0
POLYLINE
  5
CA85
  8
0
 66
     1
 10
0.0
 20
0.0
 30
0.0
 70
   128
  0
VERTEX
  5
14EC8
  8
0
 10
379.96651695109932
 20
155.85409820079849
 30
0.0
  0
VERTEX
  5
14EC9
  8
0
 10
380.02662357874237
 20
155.6549115851526
 30
0.0
  0
VERTEX
  5
14ECA
  8
0
 10
380.02178442664467
 20
155.64100135117761
 30
0.0
  0
SEQEND
  5
14ECB
  8
0
  0
POLYLINE
  5
CA86
  8
0
 66
     1
 10
0.0
 20
0.0
 30
0.0
 70
   128
  0
VERTEX
  5
14ECC
  8
0
 10
380.02252203412382
 20
170.3594975918536
 30
0.0
  0
VERTEX
  5
14ECD
  8
0
 10
380.02686013467633
 20
170.34800134599249
 30
0.0
  0
VERTEX
  5
14ECE
  8
0
 10
379.96651695109932
 20
170.14590807259131
 30
0.0
  0
SEQEND
  5
14ECF
  8
0
  0
POLYLINE
  5
CA87
  8
0
 66
     1
 10
0.0
 20
0.0
 30
0.0
 70
   128
  0
VERTEX
  5
14ED0
  8
0
 10
379.28737324662529
 20
167.40000218153051
 30
0.0
  0
VERTEX
  5
14ED1
  8
0
 10
379.2901467252525
 20
167.5446514785294
 30
0.0
  0
VERTEX
  5
14ED2
  8
0
 10
379.34095782227843
 20
168.02751056849999
 30
0.0
  0
VERTEX
  5
14ED3
  8
0
 10
379.44469504989712
 20
168.44230115413711
 30
0.0
  0
VERTEX
  5
14ED4
  8
0
 10
379.57984951324789
 20
168.74691441655199
 30
0.0
  0
VERTEX
  5
14ED5
  8
0
 10
379.71947898156969
 20
168.90437312424231
 30
0.0
  0
VERTEX
  5
14ED6
  8
0
 10
379.83906080015032
 20
168.89303892850921
 30
0.0
  0
VERTEX
  5
14ED7
  8
0
 10
379.92494829930388
 20
168.71243685483981
 30
0.0
  0
VERTEX
  5
14ED8
  8
0
 10
379.93122913874709
 20
168.6718758940701
 30
0.0
  0
SEQEND
  5
14ED9
  8
0
  0
POLYLINE
  5
CA88
  8
0
 66
     1
 10
0.0
 20
0.0
 30
0.0
 70
   128
  0
VERTEX
  5
14EDA
  8
0
 10
379.92433176375948
 20
166.1198359727864
 30
0.0
  0
VERTEX
  5
14EDB
  8
0
 10
379.88658246584259
 20
165.976941287518
 30
0.0
  0
VERTEX
  5
14EDC
  8
0
 10
379.78342265822022
 20
165.87972983717961
 30
0.0
  0
VERTEX
  5
14EDD
  8
0
 10
379.65101280249678
 20
165.95390968024779
 30
0.0
  0
VERTEX
  5
14EDE
  8
0
 10
379.50841427780711
 20
166.19259461760569
 30
0.0
  0
VERTEX
  5
14EDF
  8
0
 10
379.3834112305197
 20
166.56987711787269
 30
0.0
  0
VERTEX
  5
14EE0
  8
0
 10
379.30466511286818
 20
167.0401465892796
 30
0.0
  0
VERTEX
  5
14EE1
  8
0
 10
379.28737324662529
 20
167.40000218153051
 30
0.0
  0
SEQEND
  5
14EE2
  8
0
  0
POLYLINE
  5
CA89
  8
0
 66
     1
 10
0.0
 20
0.0
 30
0.0
 70
   128
  0
VERTEX
  5
14EE3
  8
0
 10
379.28737324662529
 20
163.00000220537231
 30
0.0
  0
VERTEX
  5
14EE4
  8
0
 10
379.2901467252525
 20
163.14465150237129
 30
0.0
  0
VERTEX
  5
14EE5
  8
0
 10
379.34095782227843
 20
163.62751059234191
 30
0.0
  0
VERTEX
  5
14EE6
  8
0
 10
379.44469504989712
 20
164.042301177979
 30
0.0
  0
VERTEX
  5
14EE7
  8
0
 10
379.57984951324789
 20
164.3469144403939
 30
0.0
  0
VERTEX
  5
14EE8
  8
0
 10
379.71947898156969
 20
164.50437314808411
 30
0.0
  0
VERTEX
  5
14EE9
  8
0
 10
379.83906080015032
 20
164.4930389523511
 30
0.0
  0
VERTEX
  5
14EEA
  8
0
 10
379.92494829930388
 20
164.31243687868161
 30
0.0
  0
VERTEX
  5
14EEB
  8
0
 10
379.93122913874709
 20
164.27187591791201
 30
0.0
  0
SEQEND
  5
14EEC
  8
0
  0
POLYLINE
  5
CA8A
  8
0
 66
     1
 10
0.0
 20
0.0
 30
0.0
 70
   128
  0
VERTEX
  5
14EED
  8
0
 10
379.92433176375948
 20
161.71983599662829
 30
0.0
  0
VERTEX
  5
14EEE
  8
0
 10
379.88658246584259
 20
161.57694131135989
 30
0.0
  0
VERTEX
  5
14EEF
  8
0
 10
379.78342265822022
 20
161.4797298610215
 30
0.0
  0
VERTEX
  5
14EF0
  8
0
 10
379.65101280249678
 20
161.55390970408959
 30
0.0
  0
VERTEX
  5
14EF1
  8
0
 10
379.50841427780711
 20
161.79259464144749
 30
0.0
  0
VERTEX
  5
14EF2
  8
0
 10
379.3834112305197
 20
162.16987714171461
 30
0.0
  0
VERTEX
  5
14EF3
  8
0
 10
379.30466511286818
 20
162.64014661312149
 30
0.0
  0
VERTEX
  5
14EF4
  8
0
 10
379.28737324662529
 20
163.00000220537231
 30
0.0
  0
SEQEND
  5
14EF5
  8
0
  0
POLYLINE
  5
CA8B
  8
0
 66
     1
 10
0.0
 20
0.0
 30
0.0
 70
   128
  0
VERTEX
  5
14EF6
  8
0
 10
379.28737324662529
 20
158.60000316053669
 30
0.0
  0
VERTEX
  5
14EF7
  8
0
 10
379.2901467252525
 20
158.74465152621309
 30
0.0
  0
VERTEX
  5
14EF8
  8
0
 10
379.34095782227843
 20
159.22750968486119
 30
0.0
  0
VERTEX
  5
14EF9
  8
0
 10
379.44469504989712
 20
159.6423021331434
 30
0.0
  0
VERTEX
  5
14EFA
  8
0
 10
379.57984951324789
 20
159.94691446423579
 30
0.0
  0
VERTEX
  5
14EFB
  8
0
 10
379.71947898156969
 20
160.104373171926
 30
0.0
  0
VERTEX
  5
14EFC
  8
0
 10
379.83906080015032
 20
160.0930399075155
 30
0.0
  0
VERTEX
  5
14EFD
  8
0
 10
379.92494829930388
 20
159.9124378338461
 30
0.0
  0
VERTEX
  5
14EFE
  8
0
 10
379.93122913874709
 20
159.87187594175381
 30
0.0
  0
SEQEND
  5
14EFF
  8
0
  0
POLYLINE
  5
CA8C
  8
0
 66
     1
 10
0.0
 20
0.0
 30
0.0
 70
   128
  0
VERTEX
  5
14F00
  8
0
 10
379.92433176375948
 20
157.31983695179269
 30
0.0
  0
VERTEX
  5
14F01
  8
0
 10
379.88658246584259
 20
157.17694133520169
 30
0.0
  0
VERTEX
  5
14F02
  8
0
 10
379.78342265822022
 20
157.07972895354081
 30
0.0
  0
VERTEX
  5
14F03
  8
0
 10
379.65101280249678
 20
157.15390972793151
 30
0.0
  0
VERTEX
  5
14F04
  8
0
 10
379.50841427780711
 20
157.39259466528941
 30
0.0
  0
VERTEX
  5
14F05
  8
0
 10
379.3834112305197
 20
157.76987716555641
 30
0.0
  0
VERTEX
  5
14F06
  8
0
 10
379.30466511286818
 20
158.24014663696329
 30
0.0
  0
VERTEX
  5
14F07
  8
0
 10
379.28737324662529
 20
158.60000316053669
 30
0.0
  0
SEQEND
  5
14F08
  8
0
  0
POLYLINE
  5
CA8D
  8
0
 66
     1
 10
0.0
 20
0.0
 30
0.0
 70
   128
  0
VERTEX
  5
14F09
  8
0
 10
367.03463990241312
 20
157.0064124464993
 30
0.0
  0
VERTEX
  5
14F0A
  8
0
 10
367.02884521335392
 20
157.05858793109701
 30
0.0
  0
VERTEX
  5
14F0B
  8
0
 10
367.14155398774921
 20
157.60408964008141
 30
0.0
  0
VERTEX
  5
14F0C
  8
0
 10
367.42501429514982
 20
158.25283497571991
 30
0.0
  0
VERTEX
  5
14F0D
  8
0
 10
367.9756357171575
 20
159.19741399586249
 30
0.0
  0
VERTEX
  5
14F0E
  8
0
 10
368.67938618641369
 20
160.30915983021299
 30
0.0
  0
VERTEX
  5
14F0F
  8
0
 10
369.16039735777332
 20
161.146863996983
 30
0.0
  0
VERTEX
  5
14F10
  8
0
 10
369.56205658614658
 20
162.1156704425816
 30
0.0
  0
VERTEX
  5
14F11
  8
0
 10
369.66610347852139
 20
162.59461797773881
 30
0.0
  0
VERTEX
  5
14F12
  8
0
 10
369.69264687038981
 20
163.10528449714229
 30
0.0
  0
VERTEX
  5
14F13
  8
0
 10
369.64834664948307
 20
163.51752884686039
 30
0.0
  0
VERTEX
  5
14F14
  8
0
 10
369.44812405388831
 20
164.22073327004961
 30
0.0
  0
VERTEX
  5
14F15
  8
0
 10
369.13898025639378
 20
164.89424899220509
 30
0.0
  0
VERTEX
  5
14F16
  8
0
 10
368.9704699511642
 20
165.20187415182639
 30
0.0
  0
VERTEX
  5
14F17
  8
0
 10
368.41009998286631
 20
166.1194299161439
 30
0.0
  0
VERTEX
  5
14F18
  8
0
 10
367.87246188148879
 20
166.968457102776
 30
0.0
  0
VERTEX
  5
14F19
  8
0
 10
367.52246951917209
 20
167.5645147264008
 30
0.0
  0
VERTEX
  5
14F1A
  8
0
 10
367.21601578872679
 20
168.1960110366349
 30
0.0
  0
VERTEX
  5
14F1B
  8
0
 10
367.0469957590106
 20
168.76751899719281
 30
0.0
  0
VERTEX
  5
14F1C
  8
0
 10
367.04426931217341
 20
168.98355975747151
 30
0.0
  0
SEQEND
  5
14F1D
  8
0
  0
ARC
  5
CA90
  8
0
 10
352.21745304252909
 20
166.5044928417592
 30
0.0
 40
14.85699662968146
 50
355.50042054058201
 51
4.4048468438202146
  0
ARC
  5
CA91
  8
0
 10
352.21777199152081
 20
159.5044928227349
 30
0.0
 40
14.856678679199121
 50
355.50032328355172
 51
4.4049441391191948
  0
POLYLINE
  5
CA92
  8
0
 66
     1
 10
0.0
 20
0.0
 30
0.0
 70
   128
  0
VERTEX
  5
14F1E
  8
0
 10
370.25910776108532
 20
153.695981651545
 30
0.0
  0
VERTEX
  5
14F1F
  8
0
 10
370.25707282125973
 20
153.70721526444001
 30
0.0
  0
VERTEX
  5
14F20
  8
0
 10
370.3340775985273
 20
153.8234974071388
 30
0.0
  0
VERTEX
  5
14F21
  8
0
 10
370.57562146335857
 20
153.9490909129386
 30
0.0
  0
VERTEX
  5
14F22
  8
0
 10
370.95498151145898
 20
154.059046581388
 30
0.0
  0
VERTEX
  5
14F23
  8
0
 10
371.4262477308514
 20
154.12788156420041
 30
0.0
  0
VERTEX
  5
14F24
  8
0
 10
371.77751163952081
 20
154.1424828395252
 30
0.0
  0
VERTEX
  5
14F25
  8
0
 10
371.93137590773432
 20
154.1396991163497
 30
0.0
  0
VERTEX
  5
14F26
  8
0
 10
372.41458284668653
 20
154.0934924781327
 30
0.0
  0
VERTEX
  5
14F27
  8
0
 10
372.82843605615221
 20
154.0006228536372
 30
0.0
  0
VERTEX
  5
14F28
  8
0
 10
373.13028655014961
 20
153.88086780905769
 30
0.0
  0
VERTEX
  5
14F29
  8
0
 10
373.28374988399469
 20
153.75844825059221
 30
0.0
  0
VERTEX
  5
14F2A
  8
0
 10
373.26788573525869
 20
153.6548497900371
 30
0.0
  0
VERTEX
  5
14F2B
  8
0
 10
373.08548108674609
 20
153.58277473598761
 30
0.0
  0
SEQEND
  5
14F2C
  8
0
  0
POLYLINE
  5
CA93
  8
0
 66
     1
 10
0.0
 20
0.0
 30
0.0
 70
   128
  0
VERTEX
  5
14F2D
  8
0
 10
373.07598066516238
 20
172.41193324327509
 30
0.0
  0
VERTEX
  5
14F2E
  8
0
 10
373.20321097038709
 20
172.38274745643179
 30
0.0
  0
VERTEX
  5
14F2F
  8
0
 10
373.29795022495119
 20
172.29279100894971
 30
0.0
  0
VERTEX
  5
14F30
  8
0
 10
373.22094521485292
 20
172.1765079349284
 30
0.0
  0
VERTEX
  5
14F31
  8
0
 10
372.97940158285218
 20
172.0509153604512
 30
0.0
  0
VERTEX
  5
14F32
  8
0
 10
372.60004130192129
 20
171.9409596920018
 30
0.0
  0
VERTEX
  5
14F33
  8
0
 10
372.12877531535952
 20
171.87212377786679
 30
0.0
  0
VERTEX
  5
14F34
  8
0
 10
371.77751163952081
 20
171.857522502542
 30
0.0
  0
VERTEX
  5
14F35
  8
0
 10
371.6236471384766
 20
171.8603071570401
 30
0.0
  0
VERTEX
  5
14F36
  8
0
 10
371.14044043235509
 20
171.9065137952571
 30
0.0
  0
VERTEX
  5
14F37
  8
0
 10
370.72658675722801
 20
171.9993834197526
 30
0.0
  0
VERTEX
  5
14F38
  8
0
 10
370.42473649606131
 20
172.11913846433211
 30
0.0
  0
VERTEX
  5
14F39
  8
0
 10
370.27127292938547
 20
172.24155895412011
 30
0.0
  0
VERTEX
  5
14F3A
  8
0
 10
370.25910776108532
 20
172.30402462184469
 30
0.0
  0
VERTEX
  5
14F3B
  8
0
 10
370.25910776108532
 20
172.30402462184469
 30
0.0
  0
SEQEND
  5
14F3C
  8
0
  0
POLYLINE
  5
CA94
  8
0
 66
     1
 10
0.0
 20
0.0
 30
0.0
 70
   128
  0
VERTEX
  5
14F3D
  8
0
 10
377.98086923547112
 20
172.05148160457659
 30
0.0
  0
VERTEX
  5
14F3E
  8
0
 10
377.97940147109352
 20
172.0509153604512
 30
0.0
  0
VERTEX
  5
14F3F
  8
0
 10
377.60004119016247
 20
171.9409596920018
 30
0.0
  0
VERTEX
  5
14F40
  8
0
 10
377.12877520360081
 20
171.87212377786679
 30
0.0
  0
VERTEX
  5
14F41
  8
0
 10
376.77751199342327
 20
171.857522502542
 30
0.0
  0
VERTEX
  5
14F42
  8
0
 10
376.62364725954848
 20
171.8603071570401
 30
0.0
  0
VERTEX
  5
14F43
  8
0
 10
376.14044078625761
 20
171.9065137952571
 30
0.0
  0
VERTEX
  5
14F44
  8
0
 10
375.7265866454693
 20
171.9993834197526
 30
0.0
  0
VERTEX
  5
14F45
  8
0
 10
375.42473661713331
 20
172.11913846433211
 30
0.0
  0
VERTEX
  5
14F46
  8
0
 10
375.27127281762682
 20
172.24155895412011
 30
0.0
  0
VERTEX
  5
14F47
  8
0
 10
375.28713743202411
 20
172.34515555203009
 30
0.0
  0
VERTEX
  5
14F48
  8
0
 10
375.46954208053671
 20
172.41723060607961
 30
0.0
  0
SEQEND
  5
14F49
  8
0
  0
POLYLINE
  5
CA95
  8
0
 66
     1
 10
0.0
 20
0.0
 30
0.0
 70
   128
  0
VERTEX
  5
14F4A
  8
0
 10
375.47904203645908
 20
153.5880730301146
 30
0.0
  0
VERTEX
  5
14F4B
  8
0
 10
375.35181173123442
 20
153.61725788563541
 30
0.0
  0
VERTEX
  5
14F4C
  8
0
 10
375.25707294233172
 20
153.70721526444001
 30
0.0
  0
VERTEX
  5
14F4D
  8
0
 10
375.33407748676859
 20
153.8234974071388
 30
0.0
  0
VERTEX
  5
14F4E
  8
0
 10
375.57562158443062
 20
153.9490909129386
 30
0.0
  0
VERTEX
  5
14F4F
  8
0
 10
375.95498139970027
 20
154.059046581388
 30
0.0
  0
VERTEX
  5
14F50
  8
0
 10
376.42624785192339
 20
154.12788156420041
 30
0.0
  0
VERTEX
  5
14F51
  8
0
 10
376.77751199342327
 20
154.1424828395252
 30
0.0
  0
VERTEX
  5
14F52
  8
0
 10
376.93137579597561
 20
154.1396991163497
 30
0.0
  0
VERTEX
  5
14F53
  8
0
 10
377.41458226926648
 20
154.0934924781327
 30
0.0
  0
VERTEX
  5
14F54
  8
0
 10
377.8284359443935
 20
154.0006228536372
 30
0.0
  0
VERTEX
  5
14F55
  8
0
 10
377.98086923547112
 20
153.9485237374906
 30
0.0
  0
VERTEX
  5
14F56
  8
0
 10
377.98086923547112
 20
153.9485237374906
 30
0.0
  0
SEQEND
  5
14F57
  8
0
  0
POLYLINE
  5
CA96
  8
0
 66
     1
 10
0.0
 20
0.0
 30
0.0
 70
   128
  0
VERTEX
  5
14F58
  8
0
 10
366.86244429554807
 20
158.27047422528321
 30
0.0
  0
VERTEX
  5
14F59
  8
0
 10
366.85908466577553
 20
158.27558625489519
 30
0.0
  0
VERTEX
  5
14F5A
  8
0
 10
366.81272133253538
 20
158.36631383746911
 30
0.0
  0
VERTEX
  5
14F5B
  8
0
 10
366.80144569370918
 20
158.5806102305655
 30
0.0
  0
VERTEX
  5
14F5C
  8
0
 10
366.81022969540231
 20
158.88927754014779
 30
0.0
  0
VERTEX
  5
14F5D
  8
0
 10
366.82133769616507
 20
159.26160540431781
 30
0.0
  0
VERTEX
  5
14F5E
  8
0
 10
366.82258066255622
 20
159.6608568727975
 30
0.0
  0
VERTEX
  5
14F5F
  8
0
 10
366.81388106197141
 20
160.00865463167469
 30
0.0
  0
VERTEX
  5
14F60
  8
0
 10
366.80245978757762
 20
160.3513655066495
 30
0.0
  0
VERTEX
  5
14F61
  8
0
 10
366.8075081380087
 20
160.59535525739241
 30
0.0
  0
VERTEX
  5
14F62
  8
0
 10
366.84520190581702
 20
160.71571752429051
 30
0.0
  0
VERTEX
  5
14F63
  8
0
 10
366.8646601696214
 20
160.72587547621711
 30
0.0
  0
SEQEND
  5
14F64
  8
0
  0
POLYLINE
  5
CA97
  8
0
 66
     1
 10
0.0
 20
0.0
 30
0.0
 70
   128
  0
VERTEX
  5
14F65
  8
0
 10
366.86244429554807
 20
165.27047537267251
 30
0.0
  0
VERTEX
  5
14F66
  8
0
 10
366.85908466577553
 20
165.275586470962
 30
0.0
  0
VERTEX
  5
14F67
  8
0
 10
366.81272133253538
 20
165.36631405353589
 30
0.0
  0
VERTEX
  5
14F68
  8
0
 10
366.80144569370918
 20
165.58060951530979
 30
0.0
  0
VERTEX
  5
14F69
  8
0
 10
366.81022969540231
 20
165.8892777562146
 30
0.0
  0
VERTEX
  5
14F6A
  8
0
 10
366.82133769616507
 20
166.2616056203847
 30
0.0
  0
VERTEX
  5
14F6B
  8
0
 10
366.82258066255622
 20
166.6608561575417
 30
0.0
  0
VERTEX
  5
14F6C
  8
0
 10
366.81388106197141
 20
167.00865484774161
 30
0.0
  0
VERTEX
  5
14F6D
  8
0
 10
366.80245978757762
 20
167.35136665403891
 30
0.0
  0
VERTEX
  5
14F6E
  8
0
 10
366.8075081380087
 20
167.59535454213659
 30
0.0
  0
VERTEX
  5
14F6F
  8
0
 10
366.84520190581702
 20
167.7157168090348
 30
0.0
  0
VERTEX
  5
14F70
  8
0
 10
366.8646601696214
 20
167.7258754762172
 30
0.0
  0
SEQEND
  5
14F71
  8
0
  0
POLYLINE
  5
CA98
  8
0
 66
     1
 10
0.0
 20
0.0
 30
0.0
 70
   128
  0
VERTEX
  5
14F72
  8
0
 10
379.60262593813258
 20
158.60000316053669
 30
0.0
  0
VERTEX
  5
14F73
  8
0
 10
379.6170642320069
 20
158.30979652702851
 30
0.0
  0
VERTEX
  5
14F74
  8
0
 10
379.68224563635908
 20
157.9327738657598
 30
0.0
  0
VERTEX
  5
14F75
  8
0
 10
379.6828100178393
 20
157.93054614216129
 30
0.0
  0
VERTEX
  5
14F76
  8
0
 10
379.78717681951849
 20
157.6262867823248
 30
0.0
  0
VERTEX
  5
14F77
  8
0
 10
379.90623430348961
 20
157.43379823863549
 30
0.0
  0
VERTEX
  5
14F78
  8
0
 10
380.01678508706408
 20
157.3739756643777
 30
0.0
  0
VERTEX
  5
14F79
  8
0
 10
380.02889879979222
 20
157.36685104668189
 30
0.0
  0
SEQEND
  5
14F7A
  8
0
  0
POLYLINE
  5
CA99
  8
0
 66
     1
 10
0.0
 20
0.0
 30
0.0
 70
   128
  0
VERTEX
  5
14F7B
  8
0
 10
380.02751112915598
 20
159.82913959986971
 30
0.0
  0
VERTEX
  5
14F7C
  8
0
 10
379.96339795179688
 20
159.81320541352079
 30
0.0
  0
VERTEX
  5
14F7D
  8
0
 10
379.84681871719681
 20
159.68622144311709
 30
0.0
  0
VERTEX
  5
14F7E
  8
0
 10
379.7339759487661
 20
159.44056648761079
 30
0.0
  0
VERTEX
  5
14F7F
  8
0
 10
379.64736481197201
 20
159.1060568392281
 30
0.0
  0
VERTEX
  5
14F80
  8
0
 10
379.6049421373757
 20
158.7166550382976
 30
0.0
  0
VERTEX
  5
14F81
  8
0
 10
379.60262593813258
 20
158.60000316053669
 30
0.0
  0
SEQEND
  5
14F82
  8
0
  0
POLYLINE
  5
CA9A
  8
0
 66
     1
 10
0.0
 20
0.0
 30
0.0
 70
   128
  0
VERTEX
  5
14F83
  8
0
 10
379.60262593813258
 20
163.00000220537231
 30
0.0
  0
VERTEX
  5
14F84
  8
0
 10
379.6170642320069
 20
162.70979650318671
 30
0.0
  0
VERTEX
  5
14F85
  8
0
 10
379.68224563635908
 20
162.33277291059539
 30
0.0
  0
VERTEX
  5
14F86
  8
0
 10
379.6828100178393
 20
162.33054704964209
 30
0.0
  0
VERTEX
  5
14F87
  8
0
 10
379.78717681951849
 20
162.02628582716031
 30
0.0
  0
VERTEX
  5
14F88
  8
0
 10
379.90623430348961
 20
161.83379821479369
 30
0.0
  0
VERTEX
  5
14F89
  8
0
 10
380.01678508706408
 20
161.77397564053581
 30
0.0
  0
VERTEX
  5
14F8A
  8
0
 10
380.02677751516148
 20
161.76624341518709
 30
0.0
  0
SEQEND
  5
14F8B
  8
0
  0
POLYLINE
  5
CA9B
  8
0
 66
     1
 10
0.0
 20
0.0
 30
0.0
 70
   128
  0
VERTEX
  5
14F8C
  8
0
 10
380.02751112915598
 20
164.23047648895479
 30
0.0
  0
VERTEX
  5
14F8D
  8
0
 10
379.96339795179688
 20
164.21320445835639
 30
0.0
  0
VERTEX
  5
14F8E
  8
0
 10
379.84681871719681
 20
164.08622235059781
 30
0.0
  0
VERTEX
  5
14F8F
  8
0
 10
379.7339759487661
 20
163.84056553244639
 30
0.0
  0
VERTEX
  5
14F90
  8
0
 10
379.64736481197201
 20
163.5060568153863
 30
0.0
  0
VERTEX
  5
14F91
  8
0
 10
379.6049421373757
 20
163.11665594577829
 30
0.0
  0
VERTEX
  5
14F92
  8
0
 10
379.60262593813258
 20
163.00000220537231
 30
0.0
  0
SEQEND
  5
14F93
  8
0
  0
POLYLINE
  5
CA9C
  8
0
 66
     1
 10
0.0
 20
0.0
 30
0.0
 70
   128
  0
VERTEX
  5
14F94
  8
0
 10
379.60262593813258
 20
167.40000218153051
 30
0.0
  0
VERTEX
  5
14F95
  8
0
 10
379.6170642320069
 20
167.10979647934479
 30
0.0
  0
VERTEX
  5
14F96
  8
0
 10
379.68224563635908
 20
166.73277288675351
 30
0.0
  0
VERTEX
  5
14F97
  8
0
 10
379.6828100178393
 20
166.73054702580021
 30
0.0
  0
VERTEX
  5
14F98
  8
0
 10
379.78717681951849
 20
166.42628580331851
 30
0.0
  0
VERTEX
  5
14F99
  8
0
 10
379.90623430348961
 20
166.2337981909518
 30
0.0
  0
VERTEX
  5
14F9A
  8
0
 10
380.01678508706408
 20
166.17397561669401
 30
0.0
  0
VERTEX
  5
14F9B
  8
0
 10
380.02453297898842
 20
166.17515773668671
 30
0.0
  0
SEQEND
  5
14F9C
  8
0
  0
POLYLINE
  5
CA9D
  8
0
 66
     1
 10
0.0
 20
0.0
 30
0.0
 70
   128
  0
VERTEX
  5
14F9D
  8
0
 10
380.02751112915598
 20
168.63047646511299
 30
0.0
  0
VERTEX
  5
14F9E
  8
0
 10
379.96339795179688
 20
168.6132044345145
 30
0.0
  0
VERTEX
  5
14F9F
  8
0
 10
379.84681871719681
 20
168.48622232675601
 30
0.0
  0
VERTEX
  5
14FA0
  8
0
 10
379.7339759487661
 20
168.2405655086045
 30
0.0
  0
VERTEX
  5
14FA1
  8
0
 10
379.64736481197201
 20
167.90605679154439
 30
0.0
  0
VERTEX
  5
14FA2
  8
0
 10
379.6049421373757
 20
167.51665592193649
 30
0.0
  0
VERTEX
  5
14FA3
  8
0
 10
379.60262593813258
 20
167.40000218153051
 30
0.0
  0
SEQEND
  5
14FA4
  8
0
  0
ARC
  5
CA9E
  8
0
 10
369.9803007652838
 20
159.22238874984009
 30
0.0
 40
3.5141288305266221
 50
175.4689506426657
 51
194.00559816363139
  0
ARC
  5
CA9F
  8
0
 10
369.04038004091632
 20
159.84571048383049
 30
0.0
 40
2.586433424884294
 50
162.4742708374221
 51
187.68125821242899
  0
ARC
  5
CAA0
  8
0
 10
369.61151782854017
 20
166.22205946095031
 30
0.0
 40
3.1466625045255352
 50
174.93246773670839
 51
195.40739381657619
  0
ARC
  5
CAA1
  8
0
 10
368.91247760264059
 20
166.84252338666329
 30
0.0
 40
2.4592919972886329
 50
161.69387993829471
 51
188.00593776158081
  0
POLYLINE
  5
CAA2
  8
0
 66
     1
 10
0.0
 20
0.0
 30
0.0
 70
   128
  0
VERTEX
  5
14FA5
  8
0
 10
380.3236279357227
 20
157.48139906674669
 30
0.0
  0
VERTEX
  5
14FA6
  8
0
 10
380.25896714068972
 20
157.47117873281289
 30
0.0
  0
VERTEX
  5
14FA7
  8
0
 10
380.15682713128649
 20
157.57296949625061
 30
0.0
  0
VERTEX
  5
14FA8
  8
0
 10
380.06030765362112
 20
157.7956952899699
 30
0.0
  0
VERTEX
  5
14FA9
  8
0
 10
379.9873972032222
 20
158.11069186776919
 30
0.0
  0
VERTEX
  5
14FAA
  8
0
 10
379.95194175280648
 20
158.47659826278729
 30
0.0
  0
VERTEX
  5
14FAB
  8
0
 10
379.95169122703402
 20
158.71655538678209
 30
0.0
  0
VERTEX
  5
14FAC
  8
0
 10
379.98569567687832
 20
159.0785772353415
 30
0.0
  0
VERTEX
  5
14FAD
  8
0
 10
380.05469084717362
 20
159.38631881028459
 30
0.0
  0
VERTEX
  5
14FAE
  8
0
 10
380.14644195325701
 20
159.6095531061296
 30
0.0
  0
VERTEX
  5
14FAF
  8
0
 10
380.2467724028977
 20
159.7234035655861
 30
0.0
  0
VERTEX
  5
14FB0
  8
0
 10
380.32138410765401
 20
159.72427694564729
 30
0.0
  0
SEQEND
  5
14FB1
  8
0
  0
POLYLINE
  5
CAA3
  8
0
 66
     1
 10
0.0
 20
0.0
 30
0.0
 70
   128
  0
VERTEX
  5
14FB2
  8
0
 10
380.3199239114436
 20
161.875020580577
 30
0.0
  0
VERTEX
  5
14FB3
  8
0
 10
380.25896714068972
 20
161.8711777776484
 30
0.0
  0
VERTEX
  5
14FB4
  8
0
 10
380.15682713128649
 20
161.97296947240881
 30
0.0
  0
VERTEX
  5
14FB5
  8
0
 10
380.06030765362112
 20
162.19569526612801
 30
0.0
  0
VERTEX
  5
14FB6
  8
0
 10
379.9873972032222
 20
162.51069091260479
 30
0.0
  0
VERTEX
  5
14FB7
  8
0
 10
379.95194175280648
 20
162.87659823894549
 30
0.0
  0
VERTEX
  5
14FB8
  8
0
 10
379.95169122703402
 20
163.11655536294029
 30
0.0
  0
VERTEX
  5
14FB9
  8
0
 10
379.98569567687832
 20
163.4785772114997
 30
0.0
  0
VERTEX
  5
14FBA
  8
0
 10
380.05469084717362
 20
163.78631785512019
 30
0.0
  0
VERTEX
  5
14FBB
  8
0
 10
380.14644195325701
 20
164.00955401361031
 30
0.0
  0
VERTEX
  5
14FBC
  8
0
 10
380.2467724028977
 20
164.12340447306681
 30
0.0
  0
VERTEX
  5
14FBD
  8
0
 10
380.32138410765378
 20
164.11903283529259
 30
0.0
  0
SEQEND
  5
14FBE
  8
0
  0
POLYLINE
  5
CAA4
  8
0
 66
     1
 10
0.0
 20
0.0
 30
0.0
 70
   128
  0
VERTEX
  5
14FBF
  8
0
 10
380.3213540802048
 20
166.27602305098361
 30
0.0
  0
VERTEX
  5
14FC0
  8
0
 10
380.25896714068972
 20
166.2711777538066
 30
0.0
  0
VERTEX
  5
14FC1
  8
0
 10
380.15682713128649
 20
166.37296944856689
 30
0.0
  0
VERTEX
  5
14FC2
  8
0
 10
380.06030765362112
 20
166.59569524228621
 30
0.0
  0
VERTEX
  5
14FC3
  8
0
 10
379.9873972032222
 20
166.9106908887629
 30
0.0
  0
VERTEX
  5
14FC4
  8
0
 10
379.95194175280648
 20
167.2765982151036
 30
0.0
  0
VERTEX
  5
14FC5
  8
0
 10
379.95169122703402
 20
167.5165553390984
 30
0.0
  0
VERTEX
  5
14FC6
  8
0
 10
379.98569567687832
 20
167.87857718765781
 30
0.0
  0
VERTEX
  5
14FC7
  8
0
 10
380.05469084717362
 20
168.1863178312783
 30
0.0
  0
VERTEX
  5
14FC8
  8
0
 10
380.14644195325701
 20
168.40955398976851
 30
0.0
  0
VERTEX
  5
14FC9
  8
0
 10
380.2467724028977
 20
168.5234044492249
 30
0.0
  0
VERTEX
  5
14FCA
  8
0
 10
380.32138410765401
 20
168.52427694564699
 30
0.0
  0
SEQEND
  5
14FCB
  8
0
  0
POLYLINE
  5
CAA5
  8
0
 66
     1
 10
0.0
 20
0.0
 30
0.0
 70
   128
  0
VERTEX
  5
14FCC
  8
0
 10
370.25910776108532
 20
153.695981651545
 30
0.0
  0
VERTEX
  5
14FCD
  8
0
 10
370.41373315267288
 20
153.59956368804021
 30
0.0
  0
VERTEX
  5
14FCE
  8
0
 10
370.4710434842857
 20
153.58847443014429
 30
0.0
  0
SEQEND
  5
14FCF
  8
0
  0
POLYLINE
  5
CAA6
  8
0
 66
     1
 10
0.0
 20
0.0
 30
0.0
 70
   128
  0
VERTEX
  5
14FD0
  8
0
 10
371.77751163952081
 20
153.83376710116909
 30
0.0
  0
VERTEX
  5
14FD1
  8
0
 10
371.49423427879827
 20
153.82161986082841
 30
0.0
  0
VERTEX
  5
14FD2
  8
0
 10
371.11603070050501
 20
153.76476354897071
 30
0.0
  0
VERTEX
  5
14FD3
  8
0
 10
371.11418086104118
 20
153.76435469836039
 30
0.0
  0
VERTEX
  5
14FD4
  8
0
 10
370.80824535340099
 20
153.67288112640429
 30
0.0
  0
VERTEX
  5
14FD5
  8
0
 10
370.61345201917021
 20
153.5683969780807
 30
0.0
  0
VERTEX
  5
14FD6
  8
0
 10
370.55135142989479
 20
153.47166050225539
 30
0.0
  0
VERTEX
  5
14FD7
  8
0
 10
370.54688783362531
 20
153.46133492887071
 30
0.0
  0
SEQEND
  5
14FD8
  8
0
  0
POLYLINE
  5
CAA7
  8
0
 66
     1
 10
0.0
 20
0.0
 30
0.0
 70
   128
  0
VERTEX
  5
14FD9
  8
0
 10
373.01009346396359
 20
153.50000344216869
 30
0.0
  0
VERTEX
  5
14FDA
  8
0
 10
372.99221984110801
 20
153.51428154856009
 30
0.0
  0
VERTEX
  5
14FDB
  8
0
 10
372.86845917813503
 20
153.61612539738459
 30
0.0
  0
VERTEX
  5
14FDC
  8
0
 10
372.62503148056589
 20
153.71575176715899
 30
0.0
  0
VERTEX
  5
14FDD
  8
0
 10
372.29127853177511
 20
153.79301056265879
 30
0.0
  0
VERTEX
  5
14FDE
  8
0
 10
371.90159570425772
 20
153.83145183324859
 30
0.0
  0
VERTEX
  5
14FDF
  8
0
 10
371.77751163952081
 20
153.83376710116909
 30
0.0
  0
SEQEND
  5
14FE0
  8
0
  0
POLYLINE
  5
CAA8
  8
0
 66
     1
 10
0.0
 20
0.0
 30
0.0
 70
   128
  0
VERTEX
  5
14FE1
  8
0
 10
376.77751199342327
 20
172.16623917222071
 30
0.0
  0
VERTEX
  5
14FE2
  8
0
 10
377.06078865565382
 20
172.17838548123879
 30
0.0
  0
VERTEX
  5
14FE3
  8
0
 10
377.4389922339472
 20
172.23524272441909
 30
0.0
  0
VERTEX
  5
14FE4
  8
0
 10
377.44084184058028
 20
172.2356506437068
 30
0.0
  0
VERTEX
  5
14FE5
  8
0
 10
377.74677758105122
 20
172.32712514698551
 30
0.0
  0
VERTEX
  5
14FE6
  8
0
 10
377.9415711481127
 20
172.4316083639865
 30
0.0
  0
VERTEX
  5
14FE7
  8
0
 10
378.003671737388
 20
172.5283467024569
 30
0.0
  0
VERTEX
  5
14FE8
  8
0
 10
378.00263492105518
 20
172.5352292205182
 30
0.0
  0
SEQEND
  5
14FE9
  8
0
  0
POLYLINE
  5
CAA9
  8
0
 66
     1
 10
0.0
 20
0.0
 30
0.0
 70
   128
  0
VERTEX
  5
14FEA
  8
0
 10
375.54293866119411
 20
172.4989282402959
 30
0.0
  0
VERTEX
  5
14FEB
  8
0
 10
375.56280286051361
 20
172.48572379350711
 30
0.0
  0
VERTEX
  5
14FEC
  8
0
 10
375.68656398914783
 20
172.3838818073277
 30
0.0
  0
VERTEX
  5
14FED
  8
0
 10
375.9299916867169
 20
172.28425450623081
 30
0.0
  0
VERTEX
  5
14FEE
  8
0
 10
376.2637441698464
 20
172.20699571073101
 30
0.0
  0
VERTEX
  5
14FEF
  8
0
 10
376.6534272301945
 20
172.16855444014121
 30
0.0
  0
VERTEX
  5
14FF0
  8
0
 10
376.77751199342327
 20
172.16623917222071
 30
0.0
  0
SEQEND
  5
14FF1
  8
0
  0
POLYLINE
  5
CAAA
  8
0
 66
     1
 10
0.0
 20
0.0
 30
0.0
 70
   128
  0
VERTEX
  5
14FF2
  8
0
 10
376.77751199342327
 20
153.83376710116909
 30
0.0
  0
VERTEX
  5
14FF3
  8
0
 10
376.49423439987032
 20
153.82161986082841
 30
0.0
  0
VERTEX
  5
14FF4
  8
0
 10
376.116030821577
 20
153.76476354897071
 30
0.0
  0
VERTEX
  5
14FF5
  8
0
 10
376.11418121494381
 20
153.76435469836039
 30
0.0
  0
VERTEX
  5
14FF6
  8
0
 10
375.80824547447293
 20
153.67288112640429
 30
0.0
  0
VERTEX
  5
14FF7
  8
0
 10
375.6134519074115
 20
153.5683969780807
 30
0.0
  0
VERTEX
  5
14FF8
  8
0
 10
375.55135131813608
 20
153.47166050225539
 30
0.0
  0
VERTEX
  5
14FF9
  8
0
 10
375.5468879546973
 20
153.46133492887071
 30
0.0
  0
SEQEND
  5
14FFA
  8
0
  0
POLYLINE
  5
CAAB
  8
0
 66
     1
 10
0.0
 20
0.0
 30
0.0
 70
   128
  0
VERTEX
  5
14FFB
  8
0
 10
378.003257646137
 20
153.46828632056759
 30
0.0
  0
VERTEX
  5
14FFC
  8
0
 10
377.99222019501047
 20
153.51428154856009
 30
0.0
  0
VERTEX
  5
14FFD
  8
0
 10
377.8684595320376
 20
153.61612539738459
 30
0.0
  0
VERTEX
  5
14FFE
  8
0
 10
377.62503136880719
 20
153.71575176715899
 30
0.0
  0
VERTEX
  5
14FFF
  8
0
 10
377.29127888567768
 20
153.79301056265879
 30
0.0
  0
VERTEX
  5
15000
  8
0
 10
376.90159582532971
 20
153.83145183324859
 30
0.0
  0
VERTEX
  5
15001
  8
0
 10
376.77751199342327
 20
153.83376710116909
 30
0.0
  0
SEQEND
  5
15002
  8
0
  0
POLYLINE
  5
CAAC
  8
0
 66
     1
 10
0.0
 20
0.0
 30
0.0
 70
   128
  0
VERTEX
  5
15003
  8
0
 10
370.47463955357699
 20
172.4068929255013
 30
0.0
  0
VERTEX
  5
15004
  8
0
 10
370.35978652536892
 20
172.38122940063519
 30
0.0
  0
VERTEX
  5
15005
  8
0
 10
370.25910776108532
 20
172.30402462184469
 30
0.0
  0
SEQEND
  5
15006
  8
0
  0
POLYLINE
  5
CAAD
  8
0
 66
     1
 10
0.0
 20
0.0
 30
0.0
 70
   128
  0
VERTEX
  5
15007
  8
0
 10
371.77751163952081
 20
172.16623917222071
 30
0.0
  0
VERTEX
  5
15008
  8
0
 10
372.06078876741248
 20
172.17838548123879
 30
0.0
  0
VERTEX
  5
15009
  8
0
 10
372.43899234570591
 20
172.23524272441909
 30
0.0
  0
VERTEX
  5
1500A
  8
0
 10
372.4408419523391
 20
172.2356506437068
 30
0.0
  0
VERTEX
  5
1500B
  8
0
 10
372.74677769280993
 20
172.32712514698551
 30
0.0
  0
VERTEX
  5
1500C
  8
0
 10
372.94157125987141
 20
172.4316083639865
 30
0.0
  0
VERTEX
  5
1500D
  8
0
 10
373.00367184914671
 20
172.5283467024569
 30
0.0
  0
VERTEX
  5
1500E
  8
0
 10
373.00263492105518
 20
172.5352292205182
 30
0.0
  0
SEQEND
  5
1500F
  8
0
  0
POLYLINE
  5
CAAE
  8
0
 66
     1
 10
0.0
 20
0.0
 30
0.0
 70
   128
  0
VERTEX
  5
15010
  8
0
 10
370.54275741800689
 20
172.53552161157151
 30
0.0
  0
VERTEX
  5
15011
  8
0
 10
370.56280297227232
 20
172.48572379350711
 30
0.0
  0
VERTEX
  5
15012
  8
0
 10
370.68656386807589
 20
172.3838818073277
 30
0.0
  0
VERTEX
  5
15013
  8
0
 10
370.92999156564503
 20
172.28425450623081
 30
0.0
  0
VERTEX
  5
15014
  8
0
 10
371.26374451443581
 20
172.20699571073101
 30
0.0
  0
VERTEX
  5
15015
  8
0
 10
371.6534273419532
 20
172.16855444014121
 30
0.0
  0
VERTEX
  5
15016
  8
0
 10
371.77751163952081
 20
172.16623917222071
 30
0.0
  0
SEQEND
  5
15017
  8
0
  0
POLYLINE
  5
CAAF
  8
0
 66
     1
 10
0.0
 20
0.0
 30
0.0
 70
   128
  0
VERTEX
  5
15018
  8
0
 10
370.65801301039778
 20
153.1714309751992
 30
0.0
  0
VERTEX
  5
15019
  8
0
 10
370.64893890172272
 20
153.2222178578381
 30
0.0
  0
VERTEX
  5
1501A
  8
0
 10
370.75137320905952
 20
153.3111032843594
 30
0.0
  0
VERTEX
  5
1501B
  8
0
 10
370.9741895738992
 20
153.39529577642719
 30
0.0
  0
VERTEX
  5
1501C
  8
0
 10
371.28895355388551
 20
153.4590364247565
 30
0.0
  0
VERTEX
  5
1501D
  8
0
 10
371.6549318935725
 20
153.49007740616841
 30
0.0
  0
VERTEX
  5
1501E
  8
0
 10
371.89364337362372
 20
153.4902832284574
 30
0.0
  0
VERTEX
  5
1501F
  8
0
 10
372.25619141943781
 20
153.46040919423149
 30
0.0
  0
VERTEX
  5
15020
  8
0
 10
372.56448340602242
 20
153.39976426214031
 30
0.0
  0
VERTEX
  5
15021
  8
0
 10
372.78776613064127
 20
153.31933803856421
 30
0.0
  0
VERTEX
  5
15022
  8
0
 10
372.90113230235897
 20
153.2318635657434
 30
0.0
  0
VERTEX
  5
15023
  8
0
 10
372.90369712854982
 20
153.1705075730178
 30
0.0
  0
SEQEND
  5
15024
  8
0
  0
POLYLINE
  5
CAB0
  8
0
 66
     1
 10
0.0
 20
0.0
 30
0.0
 70
   128
  0
VERTEX
  5
15025
  8
0
 10
375.65046510128809
 20
153.17229853645341
 30
0.0
  0
VERTEX
  5
15026
  8
0
 10
375.64893902279459
 20
153.2222178578381
 30
0.0
  0
VERTEX
  5
15027
  8
0
 10
375.7513733301314
 20
153.3111032843594
 30
0.0
  0
VERTEX
  5
15028
  8
0
 10
375.97418946214037
 20
153.39529577642719
 30
0.0
  0
VERTEX
  5
15029
  8
0
 10
376.2889532092961
 20
153.4590364247565
 30
0.0
  0
VERTEX
  5
1502A
  8
0
 10
376.65493224747502
 20
153.49007740616841
 30
0.0
  0
VERTEX
  5
1502B
  8
0
 10
376.89364326186501
 20
153.4902832284574
 30
0.0
  0
VERTEX
  5
1502C
  8
0
 10
377.2561913076791
 20
153.46040919423149
 30
0.0
  0
VERTEX
  5
1502D
  8
0
 10
377.56448329426371
 20
153.39976426214031
 30
0.0
  0
VERTEX
  5
1502E
  8
0
 10
377.78776601888262
 20
153.31933803856421
 30
0.0
  0
VERTEX
  5
1502F
  8
0
 10
377.90113219060032
 20
153.2318635657434
 30
0.0
  0
VERTEX
  5
15030
  8
0
 10
377.90135277825181
 20
153.16564006464961
 30
0.0
  0
SEQEND
  5
15031
  8
0
  0
POLYLINE
  5
CAB1
  8
0
 66
     1
 10
0.0
 20
0.0
 30
0.0
 70
   128
  0
VERTEX
  5
15032
  8
0
 10
372.90279272503062
 20
172.83137218437241
 30
0.0
  0
VERTEX
  5
15033
  8
0
 10
372.9060841444882
 20
172.77778841555161
 30
0.0
  0
VERTEX
  5
15034
  8
0
 10
372.8036498371514
 20
172.68890298903031
 30
0.0
  0
VERTEX
  5
15035
  8
0
 10
372.58083370514242
 20
172.60470956564001
 30
0.0
  0
VERTEX
  5
15036
  8
0
 10
372.26606949232541
 20
172.5409698486333
 30
0.0
  0
VERTEX
  5
15037
  8
0
 10
371.90009115263842
 20
172.5099288672213
 30
0.0
  0
VERTEX
  5
15038
  8
0
 10
371.6613796725872
 20
172.5097221136098
 30
0.0
  0
VERTEX
  5
15039
  8
0
 10
371.29883185960381
 20
172.53959707915831
 30
0.0
  0
VERTEX
  5
1503A
  8
0
 10
370.9905396401885
 20
172.60024107992689
 30
0.0
  0
VERTEX
  5
1503B
  8
0
 10
370.76725691556948
 20
172.68066823482559
 30
0.0
  0
VERTEX
  5
1503C
  8
0
 10
370.65389074385189
 20
172.76814363896889
 30
0.0
  0
VERTEX
  5
1503D
  8
0
 10
370.65154919210892
 20
172.829961687267
 30
0.0
  0
SEQEND
  5
1503E
  8
0
  0
POLYLINE
  5
CAB2
  8
0
 66
     1
 10
0.0
 20
0.0
 30
0.0
 70
   128
  0
VERTEX
  5
1503F
  8
0
 10
377.89701015688502
 20
172.8285752981906
 30
0.0
  0
VERTEX
  5
15040
  8
0
 10
377.9060840327295
 20
172.77778841555161
 30
0.0
  0
VERTEX
  5
15041
  8
0
 10
377.80364972539269
 20
172.68890298903031
 30
0.0
  0
VERTEX
  5
15042
  8
0
 10
377.58083359338372
 20
172.60470956564001
 30
0.0
  0
VERTEX
  5
15043
  8
0
 10
377.26606984622799
 20
172.5409698486333
 30
0.0
  0
VERTEX
  5
15044
  8
0
 10
376.90009080804907
 20
172.5099288672213
 30
0.0
  0
VERTEX
  5
15045
  8
0
 10
376.66137979365908
 20
172.5097221136098
 30
0.0
  0
VERTEX
  5
15046
  8
0
 10
376.2988317478451
 20
172.53959707915831
 30
0.0
  0
VERTEX
  5
15047
  8
0
 10
375.99053976126038
 20
172.60024107992689
 30
0.0
  0
VERTEX
  5
15048
  8
0
 10
375.76725703664152
 20
172.68066823482559
 30
0.0
  0
VERTEX
  5
15049
  8
0
 10
375.65389086492382
 20
172.76814363896889
 30
0.0
  0
VERTEX
  5
1504A
  8
0
 10
375.65154919210892
 20
172.82996168726709
 30
0.0
  0
SEQEND
  5
1504B
  8
0
  0
ARC
  5
CAB5
  8
0
 10
378.02451387579958
 20
155.53421075476081
 30
0.0
 40
1.968216163154006
 50
270.72328530603249
 51
321.09529808712642
  0
ARC
  5
CABD
  8
0
 10
378.09744310063979
 20
157.27981632515369
 30
0.0
 40
2.264385936825172
 50
336.35464137375101
 51
5.5802073627159361
  0
ARC
  5
CABE
  8
0
 10
378.60548755138279
 20
168.7951566849824
 30
0.0
 40
1.7703877578381
 50
350.10042980476351
 51
28.049757884376358
  0
POLYLINE
  5
CABF
  8
0
 66
     1
 10
0.0
 20
0.0
 30
0.0
 70
   128
  0
VERTEX
  5
1504C
  8
0
 10
375.03215388394921
 20
153.18150509148879
 30
0.0
  0
VERTEX
  5
1504D
  8
0
 10
375.38379800505959
 20
153.21500383317519
 30
0.0
  0
VERTEX
  5
1504E
  8
0
 10
375.61185756446071
 20
153.26152749914641
 30
0.0
  0
SEQEND
  5
1504F
  8
0
  0
ARC
  5
CAC0
  8
0
 10
374.41081511120387
 20
154.5195245086984
 30
0.0
 40
1.3427032937537571
 50
236.2734553797541
 51
274.78714577835808
  0
ARC
  5
CAC1
  8
0
 10
374.36471044365499
 20
171.65602129312219
 30
0.0
 40
1.1731904907218089
 50
82.252307916958046
 51
126.6504610908586
  0
ARC
  5
CAC2
  8
0
 10
374.94265855737422
 20
170.0811761707896
 30
0.0
 40
2.7387885512759009
 50
75.868707515834416
 51
88.127413858692051
  0
LINE
  5
CAC7
  8
0
 10
388.77751209773152
 20
171.9226536154747
 30
0.0
 11
379.33780902065359
 21
171.9226536154747
 31
0.0
  0
LINE
  5
CAC8
  8
0
 10
368.85913080303021
 20
171.9226536154747
 30
0.0
 11
347.77751096524321
 21
171.9226536154747
 31
0.0
  0
LINE
  5
CACA
  8
0
 10
372.92246145196282
 20
172.78867743909359
 30
0.0
 11
373.86682612304782
 21
172.78867743909359
 31
0.0
  0
LINE
  5
CAD1
  8
0
 10
210.68749495781981
 20
156.50000300258401
 30
0.0
 11
211.58751019276701
 21
156.50000300258401
 31
0.0
  0
LINE
  5
CAD2
  8
0
 10
211.58751019276701
 20
169.50000233948231
 30
0.0
 11
210.68749495781981
 21
169.50000233948231
 31
0.0
  0
LINE
  5
CAD3
  8
0
 10
211.58751019276701
 20
156.50000300258401
 30
0.0
 11
211.78750985302051
 21
156.70000163902529
 31
0.0
  0
LINE
  5
CAD4
  8
0
 10
211.78750985302051
 20
169.3000047268531
 30
0.0
 11
211.58751019276701
 21
169.50000233948231
 31
0.0
  0
ARC
  5
CAD5
  8
0
 10
212.26999162407441
 20
156.5000017202274
 30
0.0
 40
0.4999987996160824
 50
180.1543866402076
 51
270.00046166922738
  0
ARC
  5
CAD6
  8
0
 10
212.2699924654207
 20
169.5000037987194
 30
0.0
 40
0.4999995540520096
 50
89.999634742747276
 51
180.15064512933549
  0
LINE
  5
CAD7
  8
0
 10
211.76999091431961
 20
169.50000233948231
 30
0.0
 11
211.76999091431961
 21
169.31752348619281
 31
0.0
  0
ARC
  5
CADE
  8
0
 10
275.81607196960772
 20
172.7801397416932
 30
0.0
 40
0.2929235506601686
 50
289.62019853978768
 51
342.15817997587362
  0
ARC
  5
CADF
  8
0
 10
278.8206546403174
 20
172.13726443347019
 30
0.0
 40
0.2999562893863258
 50
174.45034833864881
 51
248.36440252910961
  0
ARC
  5
CAE0
  8
0
 10
275.56001535045039
 20
163.9944515393826
 30
0.0
 40
8.4694244774130745
 50
69.490115009881833
 51
78.850526947877569
  0
ARC
  5
CAE2
  8
0
 10
278.82411313467128
 20
153.86073690891129
 30
0.0
 40
0.3031071773918083
 50
112.09885659531029
 51
185.22672066493371
  0
POLYLINE
  5
CAE3
  8
0
 66
     1
 10
0.0
 20
0.0
 30
0.0
 70
   128
  0
VERTEX
  5
15050
  8
0
 10
275.79408823673089
 20
153.51402809080469
 30
0.0
  0
VERTEX
  5
15051
  8
0
 10
275.79408823673089
 20
153.51402809080469
 30
0.0
  0
VERTEX
  5
15052
  8
0
 10
275.79545258805621
 20
153.51408038288361
 30
0.0
  0
VERTEX
  5
15053
  8
0
 10
275.79633920714718
 20
153.51412415504461
 30
0.0
  0
VERTEX
  5
15054
  8
0
 10
275.79767286107398
 20
153.51418469101191
 30
0.0
  0
VERTEX
  5
15055
  8
0
 10
275.79930453822482
 20
153.5142498835921
 30
0.0
  0
VERTEX
  5
15056
  8
0
 10
275.80173342749941
 20
153.51433090865609
 30
0.0
  0
VERTEX
  5
15057
  8
0
 10
275.8069562844978
 20
153.5144389420748
 30
0.0
  0
VERTEX
  5
15058
  8
0
 10
275.83376347348548
 20
153.51355791091919
 30
0.0
  0
VERTEX
  5
15059
  8
0
 10
275.94409167096478
 20
153.4830841049552
 30
0.0
  0
VERTEX
  5
1505A
  8
0
 10
276.00988774821622
 20
153.4386283531785
 30
0.0
  0
VERTEX
  5
1505B
  8
0
 10
276.07390313670498
 20
153.358084782958
 30
0.0
  0
VERTEX
  5
1505C
  8
0
 10
276.09565307992619
 20
153.30743487538561
 30
0.0
  0
SEQEND
  5
1505D
  8
0
  0
ARC
  5
CAE4
  8
0
 10
277.28018405607833
 20
153.7128195706442
 30
0.0
 40
1.2478757810848049
 50
349.64161102530989
 51
0.0043893985023771
  0
ARC
  5
CAE5
  8
0
 10
277.27805965646758
 20
153.71291509525949
 30
0.0
 40
1.249999808382843
 50
198.92827266669539
 51
214.47932115136021
  0
ARC
  5
CAE6
  8
0
 10
277.27805983350117
 20
153.71291516972889
 30
0.0
 40
1.25
 50
0.0
 51
5.518529774920351
  0
ARC
  5
CAE7
  8
0
 10
277.32029461485149
 20
172.28606964404719
 30
0.0
 40
1.2077656503314209
 50
354.3075344420169
 51
0.0484426779817202
  0
ARC
  5
CAE8
  8
0
 10
277.27805941232259
 20
172.28709096731311
 30
0.0
 40
1.249999544374363
 50
145.52200850628299
 51
161.17734267993251
  0
ARC
  5
CAE9
  8
0
 10
277.27805983350117
 20
172.28709079073559
 30
0.0
 40
1.25
 50
0.0
 51
10.30929097465431
  0
ARC
  5
CAEA
  8
0
 10
278.21311798712009
 20
153.54508713529319
 30
0.0
 40
0.3000000001049313
 50
287.24573713808508
 51
349.11692807632232
  0
ARC
  5
CAEB
  8
0
 10
276.49496843906292
 20
153.1750788865962
 30
0.0
 40
0.300000000250632
 50
214.47167725439419
 51
276.93493329681007
  0
ARC
  5
CAEC
  8
0
 10
278.21309677721388
 20
172.4548858262792
 30
0.0
 40
0.300037803727715
 50
10.73890139946648
 51
72.752262889694478
  0
ARC
  5
CAED
  8
0
 10
276.49496770122209
 20
172.8249279557937
 30
0.0
 40
0.2999988928320501
 50
82.938949844354084
 51
145.5339324259696
  0
ARC
  5
CAEE
  8
0
 10
270.72828682976211
 20
153.969922181588
 30
0.0
 40
0.3000250720011808
 50
358.65117277534148
 51
78.30218234832374
  0
ARC
  5
CAEF
  8
0
 10
270.72830501774843
 20
172.03005721708229
 30
0.0
 40
0.2999950680968093
 50
281.69545676271088
 51
1.5441660593317821
  0
ARC
  5
CAF0
  8
0
 10
273.70144046501218
 20
172.6741701833264
 30
0.0
 40
0.3018138038789112
 50
203.6327296514508
 51
277.61142535172758
  0
ARC
  5
CAF1
  8
0
 10
273.70176945776711
 20
153.3262540078525
 30
0.0
 40
0.3013580743072963
 50
82.437240877113055
 51
156.7084451740933
  0
ARC
  5
CAF2
  8
0
 10
272.39539607072561
 20
153.88248933569051
 30
0.0
 40
1.1185073287064069
 50
320.4669315142724
 51
336.99779272474228
  0
ARC
  5
CAF3
  8
0
 10
272.27805983350117
 20
153.94250111609369
 30
0.0
 40
1.249999999999974
 50
179.06678536632111
 51
192.79795632726581
  0
ARC
  5
CAF4
  8
0
 10
272.27805983350117
 20
172.05750484437081
 30
0.0
 40
1.250000000000018
 50
167.23891216365479
 51
180.7813977956713
  0
ARC
  5
CAF5
  8
0
 10
272.45522720704389
 20
172.15233866613059
 30
0.0
 40
1.049292650857848
 50
22.458384096689411
 51
40.091302489476803
  0
ARC
  5
CAF6
  8
0
 10
271.35059493252493
 20
172.2631485161638
 30
0.0
 40
0.3000119533488491
 50
102.1052530116592
 51
165.82161229511649
  0
ARC
  5
CAF7
  8
0
 10
271.35058933023612
 20
153.7368480141939
 30
0.0
 40
0.300002162753296
 50
193.9999750211615
 51
257.89544022957989
  0
ARC
  5
CAF8
  8
0
 10
273.02392763093872
 20
172.63990573229259
 30
0.0
 40
0.3003049618274835
 50
38.803193534830569
 51
105.5823901667714
  0
ARC
  5
CAF9
  8
0
 10
273.02164772452329
 20
153.36900105826351
 30
0.0
 40
0.3086696942315189
 50
253.59408254307331
 51
319.98574497969099
  0
ARC
  5
CAFA
  8
0
 10
275.80885067171812
 20
172.79476827777441
 30
0.0
 40
0.3091333127593105
 50
267.50215504292089
 51
289.97049947087118
  0
LINE
  5
CAFB
  8
0
 10
227.77806251571039
 20
166.1039736866951
 30
0.0
 11
227.77806251571039
 21
166.25000320374971
 31
0.0
  0
LINE
  5
CAFC
  8
0
 10
227.77806251571039
 20
159.75000306963921
 30
0.0
 11
227.77806251571039
 21
159.89530801773071
 31
0.0
  0
LINE
  5
CAFD
  8
0
 10
215.77806054875711
 20
159.895760640502
 30
0.0
 11
215.77806054875711
 21
159.75000306963921
 31
0.0
  0
LINE
  5
CAFE
  8
0
 10
215.77806054875711
 20
166.25000320374971
 30
0.0
 11
215.77806054875711
 21
166.10452316701409
 31
0.0
  0
LINE
  5
CAFF
  8
0
 10
228.27806352898941
 20
160.00000264495611
 30
0.0
 11
228.77805709168771
 21
160.5000027269125
 31
0.0
  0
LINE
  5
CB00
  8
0
 10
228.77805709168771
 20
165.50000354647639
 30
0.0
 11
228.27806352898941
 21
166.0000026971102
 31
0.0
  0
LINE
  5
CB01
  8
0
 10
215.837795578693
 20
166.0000026971102
 30
0.0
 11
211.78750985302051
 21
166.0000026971102
 31
0.0
  0
LINE
  5
CB02
  8
0
 10
228.27806352898941
 20
166.0000026971102
 30
0.0
 11
227.7182045511947
 21
166.0000026971102
 31
0.0
  0
LINE
  5
CB03
  8
0
 10
227.71839826629031
 20
160.00000264495611
 30
0.0
 11
228.27806352898941
 21
160.00000264495611
 31
0.0
  0
LINE
  5
CB04
  8
0
 10
211.78750985302051
 20
160.00000264495611
 30
0.0
 11
215.83744167611459
 21
160.00000264495611
 31
0.0
  0
LINE
  5
CB05
  8
0
 10
210.1874939445409
 20
155.00000275671479
 30
0.0
 11
210.68749495781981
 21
155.50000283867121
 31
0.0
  0
LINE
  5
CB06
  8
0
 10
210.68749495781981
 20
170.50000250339511
 30
0.0
 11
210.1874939445409
 21
171.0000035166741
 31
0.0
  0
LINE
  5
CB07
  8
0
 10
208.27751153148731
 20
155.00000275671479
 30
0.0
 11
210.1874939445409
 21
155.00000275671479
 31
0.0
  0
LINE
  5
CB08
  8
0
 10
210.1874939445409
 20
171.0000035166741
 30
0.0
 11
208.27751153148731
 21
171.0000035166741
 31
0.0
  0
LINE
  5
CB09
  8
0
 10
211.58751019276701
 20
156.50000300258401
 30
0.0
 11
211.58751019276701
 21
169.50000233948231
 31
0.0
  0
ARC
  5
CB13
  8
0
 10
235.8792617157965
 20
178.28238096138719
 30
0.0
 40
18.635468031608241
 50
276.0294327145524
 51
289.81248334366899
  0
LINE
  5
CB14
  8
0
 10
242.19562142417291
 20
160.75000323355201
 30
0.0
 11
242.19562142417271
 21
156.00000292062759
 31
0.0
  0
LINE
  5
CB16
  8
0
 10
237.8367188505874
 20
159.75000306963921
 30
0.0
 11
211.78750985302051
 21
159.75000306963909
 31
0.0
  0
ARC
  5
CB17
  8
0
 10
235.5045530337766
 20
146.0843069413223
 30
0.0
 40
20.30010598853065
 50
70.755042317148266
 51
83.403041624638036
  0
LINE
  5
CB19
  8
0
 10
242.19562142417291
 20
170.0000033527613
 30
0.0
 11
242.19562142417291
 21
165.25000303983691
 31
0.0
  0
LINE
  5
CB1A
  8
0
 10
211.78750985302051
 20
166.25000320374971
 30
0.0
 11
237.8367188505874
 21
166.25000320374971
 31
0.0
  0
POLYLINE
  5
CB1F
  8
0
 66
     1
 10
0.0
 20
0.0
 30
0.0
 70
   128
  0
VERTEX
  5
1505E
  8
0
 10
279.64776038453442
 20
166.50000371038911
 30
0.0
  0
VERTEX
  5
1505F
  8
0
 10
279.59635882899619
 20
166.78102470934391
 30
0.0
  0
VERTEX
  5
15060
  8
0
 10
279.44184123799658
 20
167.03839384019381
 30
0.0
  0
VERTEX
  5
15061
  8
0
 10
279.1992503337608
 20
167.235132008791
 30
0.0
  0
VERTEX
  5
15062
  8
0
 10
278.90033304021222
 20
167.34412841498849
 30
0.0
  0
VERTEX
  5
15063
  8
0
 10
278.58504682109219
 20
167.3531827330589
 30
0.0
  0
VERTEX
  5
15064
  8
0
 10
278.29279034659731
 20
167.26543910801411
 30
0.0
  0
VERTEX
  5
15065
  8
0
 10
278.0548337034927
 20
167.09648042917249
 30
0.0
  0
VERTEX
  5
15066
  8
0
 10
277.88933395669318
 20
166.865089610219
 30
0.0
  0
VERTEX
  5
15067
  8
0
 10
277.81028329655987
 20
166.5921338647604
 30
0.0
  0
VERTEX
  5
15068
  8
0
 10
277.8109538488136
 20
166.40202485024929
 30
0.0
  0
VERTEX
  5
15069
  8
0
 10
277.89462386891711
 20
166.124216914177
 30
0.0
  0
VERTEX
  5
1506A
  8
0
 10
278.07485341355658
 20
165.88422067463401
 30
0.0
  0
VERTEX
  5
1506B
  8
0
 10
278.33365678117138
 20
165.71580402553079
 30
0.0
  0
VERTEX
  5
1506C
  8
0
 10
278.63896667287207
 20
165.64119391143319
 30
0.0
  0
VERTEX
  5
1506D
  8
0
 10
278.95184635445929
 20
165.6670977175236
 30
0.0
  0
VERTEX
  5
1506E
  8
0
 10
279.23407434747082
 20
165.7854967564345
 30
0.0
  0
VERTEX
  5
1506F
  8
0
 10
279.45572166964871
 20
165.97794152796271
 30
0.0
  0
VERTEX
  5
15070
  8
0
 10
279.59773718640668
 20
166.22267261147499
 30
0.0
  0
VERTEX
  5
15071
  8
0
 10
279.64776038453442
 20
166.50000371038911
 30
0.0
  0
SEQEND
  5
15072
  8
0
  0
CIRCLE
  5
CB20
  8
0
 10
278.77326872481763
 20
166.49212983255001
 30
0.0
 40
1.139662671877115
  0
POLYLINE
  5
CB21
  8
0
 66
     1
 10
0.0
 20
0.0
 30
0.0
 70
   128
  0
VERTEX
  5
15073
  8
0
 10
279.64776038453442
 20
159.5000025629997
 30
0.0
  0
VERTEX
  5
15074
  8
0
 10
279.59635882899619
 20
159.7810244932771
 30
0.0
  0
VERTEX
  5
15075
  8
0
 10
279.44184123799658
 20
160.03839455544951
 30
0.0
  0
VERTEX
  5
15076
  8
0
 10
279.1992503337608
 20
160.2351317927241
 30
0.0
  0
VERTEX
  5
15077
  8
0
 10
278.90033304021222
 20
160.34412913024431
 30
0.0
  0
VERTEX
  5
15078
  8
0
 10
278.58504682109219
 20
160.35318251699209
 30
0.0
  0
VERTEX
  5
15079
  8
0
 10
278.29279034659731
 20
160.2654388919473
 30
0.0
  0
VERTEX
  5
1507A
  8
0
 10
278.0548337034927
 20
160.09648021310571
 30
0.0
  0
VERTEX
  5
1507B
  8
0
 10
277.88933395669318
 20
159.86508939415219
 30
0.0
  0
VERTEX
  5
1507C
  8
0
 10
277.81028329655987
 20
159.59213271737099
 30
0.0
  0
VERTEX
  5
1507D
  8
0
 10
277.8109538488136
 20
159.40202463418251
 30
0.0
  0
VERTEX
  5
1507E
  8
0
 10
277.89462386891711
 20
159.1242166981101
 30
0.0
  0
VERTEX
  5
1507F
  8
0
 10
278.07485341355658
 20
158.8842204585672
 30
0.0
  0
VERTEX
  5
15080
  8
0
 10
278.33365678117138
 20
158.7158028781414
 30
0.0
  0
VERTEX
  5
15081
  8
0
 10
278.63896667287207
 20
158.64119276404381
 30
0.0
  0
VERTEX
  5
15082
  8
0
 10
278.95184635445929
 20
158.66709843277931
 30
0.0
  0
VERTEX
  5
15083
  8
0
 10
279.23407434747082
 20
158.785495609045
 30
0.0
  0
VERTEX
  5
15084
  8
0
 10
279.45572166964871
 20
158.97794224321839
 30
0.0
  0
VERTEX
  5
15085
  8
0
 10
279.59773718640668
 20
159.2226733267307
 30
0.0
  0
VERTEX
  5
15086
  8
0
 10
279.64776038453442
 20
159.5000025629997
 30
0.0
  0
SEQEND
  5
15087
  8
0
  0
CIRCLE
  5
CB22
  8
0
 10
278.77326868942242
 20
159.4921305813042
 30
0.0
 40
1.1396626941725101
  0
POLYLINE
  5
CB25
  8
0
 66
     1
 10
0.0
 20
0.0
 30
0.0
 70
   128
  0
VERTEX
  5
15088
  8
0
 10
277.42300211713177
 20
166.50000371038911
 30
0.0
  0
VERTEX
  5
15089
  8
0
 10
277.42494671866763
 20
166.58161550760269
 30
0.0
  0
VERTEX
  5
1508A
  8
0
 10
277.51947968528128
 20
167.0634147524834
 30
0.0
  0
VERTEX
  5
1508B
  8
0
 10
277.74824976250989
 20
167.48449921607971
 30
0.0
  0
VERTEX
  5
1508C
  8
0
 10
278.09865056798321
 20
167.8065486997366
 30
0.0
  0
VERTEX
  5
1508D
  8
0
 10
278.54183345362998
 20
167.98948094248769
 30
0.0
  0
VERTEX
  5
1508E
  8
0
 10
279.0267991952644
 20
168.00748899579051
 30
0.0
  0
VERTEX
  5
1508F
  8
0
 10
279.4961932234512
 20
167.8582389652729
 30
0.0
  0
VERTEX
  5
15090
  8
0
 10
279.89722817466122
 20
167.55569323897359
 30
0.0
  0
VERTEX
  5
15091
  8
0
 10
280.18019377515179
 20
167.1307307481766
 30
0.0
  0
VERTEX
  5
15092
  8
0
 10
280.30134766623843
 20
166.69946134090421
 30
0.0
  0
VERTEX
  5
15093
  8
0
 10
280.28582810685498
 20
166.20439074933529
 30
0.0
  0
VERTEX
  5
15094
  8
0
 10
280.11658071801531
 20
165.74270248413089
 30
0.0
  0
VERTEX
  5
15095
  8
0
 10
279.81101005599362
 20
165.35995498299599
 30
0.0
  0
VERTEX
  5
15096
  8
0
 10
279.39497708604199
 20
165.09422816336161
 30
0.0
  0
VERTEX
  5
15097
  8
0
 10
278.91665726230008
 20
164.98172625899321
 30
0.0
  0
VERTEX
  5
15098
  8
0
 10
278.43663125560153
 20
165.03777138888839
 30
0.0
  0
VERTEX
  5
15099
  8
0
 10
278.00837188289029
 20
165.25660052895549
 30
0.0
  0
VERTEX
  5
1509A
  8
0
 10
277.67589717433322
 20
165.61789780855179
 30
0.0
  0
VERTEX
  5
1509B
  8
0
 10
277.47555106208188
 20
166.08034417033201
 30
0.0
  0
VERTEX
  5
1509C
  8
0
 10
277.42300211713177
 20
166.50000371038911
 30
0.0
  0
SEQEND
  5
1509D
  8
0
  0
POLYLINE
  5
CB26
  8
0
 66
     1
 10
0.0
 20
0.0
 30
0.0
 70
   128
  0
VERTEX
  5
1509E
  8
0
 10
277.42300211713177
 20
159.5000025629997
 30
0.0
  0
VERTEX
  5
1509F
  8
0
 10
277.42494671866763
 20
159.58161529153591
 30
0.0
  0
VERTEX
  5
150A0
  8
0
 10
277.51947968528128
 20
160.0634145364165
 30
0.0
  0
VERTEX
  5
150A1
  8
0
 10
277.74824976250989
 20
160.48449993133551
 30
0.0
  0
VERTEX
  5
150A2
  8
0
 10
278.09865056798321
 20
160.8065494149923
 30
0.0
  0
VERTEX
  5
150A3
  8
0
 10
278.54183345362998
 20
160.9894797950983
 30
0.0
  0
VERTEX
  5
150A4
  8
0
 10
279.0267991952644
 20
161.0074878484011
 30
0.0
  0
VERTEX
  5
150A5
  8
0
 10
279.4961932234512
 20
160.8582396805287
 30
0.0
  0
VERTEX
  5
150A6
  8
0
 10
279.89722817466122
 20
160.55569302290681
 30
0.0
  0
VERTEX
  5
150A7
  8
0
 10
280.18019377515179
 20
160.13073146343231
 30
0.0
  0
VERTEX
  5
150A8
  8
0
 10
280.30134766623843
 20
159.69946205616
 30
0.0
  0
VERTEX
  5
150A9
  8
0
 10
280.28582810685498
 20
159.20438960194591
 30
0.0
  0
VERTEX
  5
150AA
  8
0
 10
280.11658071801531
 20
158.7427031993866
 30
0.0
  0
VERTEX
  5
150AB
  8
0
 10
279.81101005599362
 20
158.3599556982517
 30
0.0
  0
VERTEX
  5
150AC
  8
0
 10
279.39497708604199
 20
158.09422887861729
 30
0.0
  0
VERTEX
  5
150AD
  8
0
 10
278.91665726230008
 20
157.98172604292631
 30
0.0
  0
VERTEX
  5
150AE
  8
0
 10
278.43663125560153
 20
158.03777117282149
 30
0.0
  0
VERTEX
  5
150AF
  8
0
 10
278.00837188289029
 20
158.2565993815661
 30
0.0
  0
VERTEX
  5
150B0
  8
0
 10
277.67589717433322
 20
158.6178985238075
 30
0.0
  0
VERTEX
  5
150B1
  8
0
 10
277.47555106208188
 20
159.08034488558769
 30
0.0
  0
VERTEX
  5
150B2
  8
0
 10
277.42300211713177
 20
159.5000025629997
 30
0.0
  0
SEQEND
  5
150B3
  8
0
  0
ARC
  5
CB29
  8
0
 10
275.27722584375027
 20
163.00000360235569
 30
0.0
 40
9.5002842572255481
 50
290.0059335910039
 51
69.994066408996161
  0
LINE
  5
CB30
  8
0
 10
278.52743893191678
 20
154.07299313694239
 30
0.0
 11
277.19774126336438
 21
153.6959816515446
 31
0.0
  0
POLYLINE
  5
CB32
  8
0
 66
     1
 10
0.0
 20
0.0
 30
0.0
 70
   128
  0
VERTEX
  5
150B4
  8
0
 10
275.22444754168851
 20
157.50000316649681
 30
0.0
  0
VERTEX
  5
150B5
  8
0
 10
275.21467983052588
 20
157.3181419447065
 30
0.0
  0
VERTEX
  5
150B6
  8
0
 10
275.08261828944552
 20
156.82477101683619
 30
0.0
  0
VERTEX
  5
150B7
  8
0
 10
274.80842947289813
 20
156.40855737030509
 30
0.0
  0
VERTEX
  5
150B8
  8
0
 10
274.42199020907742
 20
156.11834701150659
 30
0.0
  0
VERTEX
  5
150B9
  8
0
 10
273.96746008918149
 20
155.98604705184701
 30
0.0
  0
VERTEX
  5
150BA
  8
0
 10
273.49606930539471
 20
156.02284640073779
 30
0.0
  0
VERTEX
  5
150BB
  8
0
 10
273.05871277377469
 20
156.2217880785465
 30
0.0
  0
VERTEX
  5
150BC
  8
0
 10
272.70273148343432
 20
156.5618987008929
 30
0.0
  0
VERTEX
  5
150BD
  8
0
 10
272.47001259848929
 20
157.0087593793869
 30
0.0
  0
VERTEX
  5
150BE
  8
0
 10
272.4001410536514
 20
157.3346580192447
 30
0.0
  0
VERTEX
  5
150BF
  8
0
 10
272.43031590506888
 20
157.8478670492768
 30
0.0
  0
VERTEX
  5
150C0
  8
0
 10
272.62350945994717
 20
158.3218627423048
 30
0.0
  0
VERTEX
  5
150C1
  8
0
 10
272.95590221211768
 20
158.70172966271639
 30
0.0
  0
VERTEX
  5
150C2
  8
0
 10
273.38448195979458
 20
158.94303627312181
 30
0.0
  0
VERTEX
  5
150C3
  8
0
 10
273.85547786280972
 20
159.02052510529759
 30
0.0
  0
VERTEX
  5
150C4
  8
0
 10
274.31508182809222
 20
158.9294305816293
 30
0.0
  0
VERTEX
  5
150C5
  8
0
 10
274.71613913104397
 20
158.68159260600811
 30
0.0
  0
VERTEX
  5
150C6
  8
0
 10
275.01899033114768
 20
158.3022584021092
 30
0.0
  0
VERTEX
  5
150C7
  8
0
 10
275.19191830680228
 20
157.8304289653897
 30
0.0
  0
VERTEX
  5
150C8
  8
0
 10
275.22444754168851
 20
157.50000316649681
 30
0.0
  0
SEQEND
  5
150C9
  8
0
  0
POLYLINE
  5
CB33
  8
0
 66
     1
 10
0.0
 20
0.0
 30
0.0
 70
   128
  0
VERTEX
  5
150CA
  8
0
 10
275.22444754168851
 20
163.00000220537191
 30
0.0
  0
VERTEX
  5
150CB
  8
0
 10
275.21467983052588
 20
162.81814284622669
 30
0.0
  0
VERTEX
  5
150CC
  8
0
 10
275.08261828944552
 20
162.3247709870339
 30
0.0
  0
VERTEX
  5
150CD
  8
0
 10
274.80842947289813
 20
161.9085573405028
 30
0.0
  0
VERTEX
  5
150CE
  8
0
 10
274.42199020907742
 20
161.61834605038169
 30
0.0
  0
VERTEX
  5
150CF
  8
0
 10
273.96746008918149
 20
161.48604609072211
 30
0.0
  0
VERTEX
  5
150D0
  8
0
 10
273.49606930539471
 20
161.5228463709355
 30
0.0
  0
VERTEX
  5
150D1
  8
0
 10
273.05871277377469
 20
161.7217880487442
 30
0.0
  0
VERTEX
  5
150D2
  8
0
 10
272.70273148343432
 20
162.061897739768
 30
0.0
  0
VERTEX
  5
150D3
  8
0
 10
272.47001259848929
 20
162.50875934958461
 30
0.0
  0
VERTEX
  5
150D4
  8
0
 10
272.4001410536514
 20
162.83465892076489
 30
0.0
  0
VERTEX
  5
150D5
  8
0
 10
272.43031590506888
 20
163.3478660881519
 30
0.0
  0
VERTEX
  5
150D6
  8
0
 10
272.62350945994717
 20
163.82186271250251
 30
0.0
  0
VERTEX
  5
150D7
  8
0
 10
272.95590221211768
 20
164.20172870159149
 30
0.0
  0
VERTEX
  5
150D8
  8
0
 10
273.38448195979458
 20
164.44303624331951
 30
0.0
  0
VERTEX
  5
150D9
  8
0
 10
273.85547786280972
 20
164.52052600681779
 30
0.0
  0
VERTEX
  5
150DA
  8
0
 10
274.31508182809222
 20
164.4294314831495
 30
0.0
  0
VERTEX
  5
150DB
  8
0
 10
274.71613913104397
 20
164.18159350752831
 30
0.0
  0
VERTEX
  5
150DC
  8
0
 10
275.01899033114768
 20
163.8022583723068
 30
0.0
  0
VERTEX
  5
150DD
  8
0
 10
275.19191830680228
 20
163.3304280042648
 30
0.0
  0
VERTEX
  5
150DE
  8
0
 10
275.22444754168851
 20
163.00000220537191
 30
0.0
  0
SEQEND
  5
150DF
  8
0
  0
ARC
  5
CB34
  8
0
 10
268.82368315986793
 20
159.50000302866101
 30
0.0
 40
1.5217516298134419
 50
192.96414408530359
 51
167.03585591469721
  0
ARC
  5
CB36
  8
0
 10
268.82368270714369
 20
166.50000277906659
 30
0.0
 40
1.5217512930959309
 50
192.9641649951501
 51
167.03583500485061
  0
POLYLINE
  5
CB3F
  8
0
 66
     1
 10
0.0
 20
0.0
 30
0.0
 70
   128
  0
VERTEX
  5
150E0
  8
0
 10
275.22444754168851
 20
168.50000217556951
 30
0.0
  0
VERTEX
  5
150E1
  8
0
 10
275.21467983052588
 20
168.3181428164244
 30
0.0
  0
VERTEX
  5
150E2
  8
0
 10
275.08261828944552
 20
167.82477095723149
 30
0.0
  0
VERTEX
  5
150E3
  8
0
 10
274.80842947289813
 20
167.40855731070039
 30
0.0
  0
VERTEX
  5
150E4
  8
0
 10
274.42199020907742
 20
167.11834788322449
 30
0.0
  0
VERTEX
  5
150E5
  8
0
 10
273.96746008918149
 20
166.98604606091979
 30
0.0
  0
VERTEX
  5
150E6
  8
0
 10
273.49606930539471
 20
167.02284634113309
 30
0.0
  0
VERTEX
  5
150E7
  8
0
 10
273.05871277377469
 20
167.22178801894191
 30
0.0
  0
VERTEX
  5
150E8
  8
0
 10
272.70273148343432
 20
167.56189770996571
 30
0.0
  0
VERTEX
  5
150E9
  8
0
 10
272.47001259848929
 20
168.00875931978231
 30
0.0
  0
VERTEX
  5
150EA
  8
0
 10
272.4001410536514
 20
168.3346588909626
 30
0.0
  0
VERTEX
  5
150EB
  8
0
 10
272.43031590506888
 20
168.84786605834961
 30
0.0
  0
VERTEX
  5
150EC
  8
0
 10
272.62350945994717
 20
169.32186268270021
 30
0.0
  0
VERTEX
  5
150ED
  8
0
 10
272.95590221211768
 20
169.7017286717892
 30
0.0
  0
VERTEX
  5
150EE
  8
0
 10
273.38448195979458
 20
169.94303621351719
 30
0.0
  0
VERTEX
  5
150EF
  8
0
 10
273.85547786280972
 20
170.0205259770155
 30
0.0
  0
VERTEX
  5
150F0
  8
0
 10
274.31508182809222
 20
169.92943145334721
 30
0.0
  0
VERTEX
  5
150F1
  8
0
 10
274.71613913104397
 20
169.68159347772601
 30
0.0
  0
VERTEX
  5
150F2
  8
0
 10
275.01899033114768
 20
169.3022583425045
 30
0.0
  0
VERTEX
  5
150F3
  8
0
 10
275.19191830680228
 20
168.83042797446251
 30
0.0
  0
VERTEX
  5
150F4
  8
0
 10
275.22444754168851
 20
168.50000217556951
 30
0.0
  0
SEQEND
  5
150F5
  8
0
  0
POLYLINE
  5
CB40
  8
0
 66
     1
 10
0.0
 20
0.0
 30
0.0
 70
   128
  0
VERTEX
  5
150F6
  8
0
 10
274.33126448914868
 20
168.50000217556951
 30
0.0
  0
VERTEX
  5
150F7
  8
0
 10
274.2885950140701
 20
168.78538548946381
 30
0.0
  0
VERTEX
  5
150F8
  8
0
 10
274.16607021615368
 20
169.03715923428541
 30
0.0
  0
VERTEX
  5
150F9
  8
0
 10
273.97812932059628
 20
169.22792017459869
 30
0.0
  0
VERTEX
  5
150FA
  8
0
 10
273.74442695901263
 20
169.33855012059209
 30
0.0
  0
VERTEX
  5
150FB
  8
0
 10
273.48844736144412
 20
169.3572324514389
 30
0.0
  0
VERTEX
  5
150FC
  8
0
 10
273.23726593778002
 20
169.28005374968049
 30
0.0
  0
VERTEX
  5
150FD
  8
0
 10
273.02023052499158
 20
169.11324270069599
 30
0.0
  0
VERTEX
  5
150FE
  8
0
 10
272.8651615910278
 20
168.87566603720191
 30
0.0
  0
VERTEX
  5
150FF
  8
0
 10
272.79126673266751
 20
168.59585389494899
 30
0.0
  0
VERTEX
  5
15100
  8
0
 10
272.79082714841229
 20
168.4085388481617
 30
0.0
  0
VERTEX
  5
15101
  8
0
 10
272.86271780059201
 20
168.1299057602883
 30
0.0
  0
VERTEX
  5
15102
  8
0
 10
273.01283209845877
 20
167.8948958218098
 30
0.0
  0
VERTEX
  5
15103
  8
0
 10
273.22263299748761
 20
167.72774949669841
 30
0.0
  0
VERTEX
  5
15104
  8
0
 10
273.46905350015032
 20
167.645252943039
 30
0.0
  0
VERTEX
  5
15105
  8
0
 10
273.72615813538891
 20
167.65687771141529
 30
0.0
  0
VERTEX
  5
15106
  8
0
 10
273.96602212712628
 20
167.76361100375649
 30
0.0
  0
VERTEX
  5
15107
  8
0
 10
274.16089206263882
 20
167.95555844902989
 30
0.0
  0
VERTEX
  5
15108
  8
0
 10
274.28746997640002
 20
168.21101650595671
 30
0.0
  0
VERTEX
  5
15109
  8
0
 10
274.33126448914868
 20
168.50000217556951
 30
0.0
  0
SEQEND
  5
1510A
  8
0
  0
POLYLINE
  5
CB41
  8
0
 66
     1
 10
0.0
 20
0.0
 30
0.0
 70
   128
  0
VERTEX
  5
1510B
  8
0
 10
274.6574583582626
 20
168.50000217556951
 30
0.0
  0
VERTEX
  5
1510C
  8
0
 10
274.6574583582626
 20
168.4988790005446
 30
0.0
  0
VERTEX
  5
1510D
  8
0
 10
274.59877758548117
 20
168.1197580695152
 30
0.0
  0
VERTEX
  5
1510E
  8
0
 10
274.42915766761172
 20
167.78362885117531
 30
0.0
  0
VERTEX
  5
1510F
  8
0
 10
274.16803716943127
 20
167.53106720745561
 30
0.0
  0
VERTEX
  5
15110
  8
0
 10
273.84661912247998
 20
167.3906256258488
 30
0.0
  0
VERTEX
  5
15111
  8
0
 10
273.50208937451703
 20
167.37533144652841
 30
0.0
  0
VERTEX
  5
15112
  8
0
 10
273.17188709304202
 20
167.4838808178902
 30
0.0
  0
VERTEX
  5
15113
  8
0
 10
272.89075433537818
 20
167.70381078124049
 30
0.0
  0
VERTEX
  5
15114
  8
0
 10
272.68960356042248
 20
168.01303222775459
 30
0.0
  0
VERTEX
  5
15115
  8
0
 10
272.59326755330432
 20
168.37965667247769
 30
0.0
  0
VERTEX
  5
15116
  8
0
 10
272.59385614917142
 20
168.62612187862399
 30
0.0
  0
VERTEX
  5
15117
  8
0
 10
272.69287436530448
 20
168.99429604411131
 30
0.0
  0
VERTEX
  5
15118
  8
0
 10
272.90066360757208
 20
169.30689632892609
 30
0.0
  0
VERTEX
  5
15119
  8
0
 10
273.19149702117312
 20
169.52638670802119
 30
0.0
  0
VERTEX
  5
1511A
  8
0
 10
273.52808445021969
 20
169.62793625891209
 30
0.0
  0
VERTEX
  5
1511B
  8
0
 10
273.87109427974087
 20
169.60335493087771
 30
0.0
  0
VERTEX
  5
1511C
  8
0
 10
274.18425708339078
 20
169.45778734982011
 30
0.0
  0
VERTEX
  5
1511D
  8
0
 10
274.4360941581474
 20
169.20678660273549
 30
0.0
  0
VERTEX
  5
1511E
  8
0
 10
274.60027515218121
 20
168.8755077123642
 30
0.0
  0
VERTEX
  5
1511F
  8
0
 10
274.6574583582626
 20
168.50000217556951
 30
0.0
  0
SEQEND
  5
15120
  8
0
  0
POLYLINE
  5
CB42
  8
0
 66
     1
 10
0.0
 20
0.0
 30
0.0
 70
   128
  0
VERTEX
  5
15121
  8
0
 10
274.33126448914868
 20
157.50000316649681
 30
0.0
  0
VERTEX
  5
15122
  8
0
 10
274.2885950140701
 20
157.785386480391
 30
0.0
  0
VERTEX
  5
15123
  8
0
 10
274.16607021615368
 20
158.0371583625674
 30
0.0
  0
VERTEX
  5
15124
  8
0
 10
273.97812932059628
 20
158.22791930288079
 30
0.0
  0
VERTEX
  5
15125
  8
0
 10
273.74442695901263
 20
158.33855111151931
 30
0.0
  0
VERTEX
  5
15126
  8
0
 10
273.48844736144412
 20
158.357231579721
 30
0.0
  0
VERTEX
  5
15127
  8
0
 10
273.23726593778002
 20
158.28005380928519
 30
0.0
  0
VERTEX
  5
15128
  8
0
 10
273.02023052499158
 20
158.11324182897809
 30
0.0
  0
VERTEX
  5
15129
  8
0
 10
272.8651615910278
 20
157.87566516548401
 30
0.0
  0
VERTEX
  5
1512A
  8
0
 10
272.79126673266751
 20
157.5958539545536
 30
0.0
  0
VERTEX
  5
1512B
  8
0
 10
272.79082714841229
 20
157.40853983908889
 30
0.0
  0
VERTEX
  5
1512C
  8
0
 10
272.86271780059201
 20
157.12990581989291
 30
0.0
  0
VERTEX
  5
1512D
  8
0
 10
273.01283209845877
 20
156.89489681273699
 30
0.0
  0
VERTEX
  5
1512E
  8
0
 10
273.22263299748761
 20
156.727749556303
 30
0.0
  0
VERTEX
  5
1512F
  8
0
 10
273.46905350015032
 20
156.64525207132101
 30
0.0
  0
VERTEX
  5
15130
  8
0
 10
273.72615813538891
 20
156.65687683969739
 30
0.0
  0
VERTEX
  5
15131
  8
0
 10
273.96602212712628
 20
156.7636119946838
 30
0.0
  0
VERTEX
  5
15132
  8
0
 10
274.16089206263882
 20
156.9555594399572
 30
0.0
  0
VERTEX
  5
15133
  8
0
 10
274.28746997640002
 20
157.21101656556129
 30
0.0
  0
VERTEX
  5
15134
  8
0
 10
274.33126448914868
 20
157.50000316649681
 30
0.0
  0
SEQEND
  5
15135
  8
0
  0
POLYLINE
  5
CB43
  8
0
 66
     1
 10
0.0
 20
0.0
 30
0.0
 70
   128
  0
VERTEX
  5
15136
  8
0
 10
274.6574583582626
 20
157.50000316649681
 30
0.0
  0
VERTEX
  5
15137
  8
0
 10
274.6574583582626
 20
157.49887906014919
 30
0.0
  0
VERTEX
  5
15138
  8
0
 10
274.59877758548117
 20
157.1197571977973
 30
0.0
  0
VERTEX
  5
15139
  8
0
 10
274.42915766761172
 20
156.7836298421025
 30
0.0
  0
VERTEX
  5
1513A
  8
0
 10
274.16803716943127
 20
156.53106726706031
 30
0.0
  0
VERTEX
  5
1513B
  8
0
 10
273.84661912247998
 20
156.39062661677599
 30
0.0
  0
VERTEX
  5
1513C
  8
0
 10
273.50208937451703
 20
156.37533150613311
 30
0.0
  0
VERTEX
  5
1513D
  8
0
 10
273.17188709304202
 20
156.48387994617221
 30
0.0
  0
VERTEX
  5
1513E
  8
0
 10
272.89075433537818
 20
156.70381084084511
 30
0.0
  0
VERTEX
  5
1513F
  8
0
 10
272.68960356042248
 20
157.01303321868181
 30
0.0
  0
VERTEX
  5
15140
  8
0
 10
272.59326755330432
 20
157.3796567320824
 30
0.0
  0
VERTEX
  5
15141
  8
0
 10
272.59385614917142
 20
157.62612193822861
 30
0.0
  0
VERTEX
  5
15142
  8
0
 10
272.69287436530448
 20
157.99429517239329
 30
0.0
  0
VERTEX
  5
15143
  8
0
 10
272.90066360757208
 20
158.3068963885307
 30
0.0
  0
VERTEX
  5
15144
  8
0
 10
273.19149702117312
 20
158.52638583630321
 30
0.0
  0
VERTEX
  5
15145
  8
0
 10
273.52808445021969
 20
158.62793538719421
 30
0.0
  0
VERTEX
  5
15146
  8
0
 10
273.87109427974087
 20
158.6033549904823
 30
0.0
  0
VERTEX
  5
15147
  8
0
 10
274.18425708339078
 20
158.45778834074741
 30
0.0
  0
VERTEX
  5
15148
  8
0
 10
274.4360941581474
 20
158.20678666234019
 30
0.0
  0
VERTEX
  5
15149
  8
0
 10
274.60027515218121
 20
157.8755068406463
 30
0.0
  0
VERTEX
  5
1514A
  8
0
 10
274.6574583582626
 20
157.50000316649681
 30
0.0
  0
SEQEND
  5
1514B
  8
0
  0
POLYLINE
  5
CB44
  8
0
 66
     1
 10
0.0
 20
0.0
 30
0.0
 70
   128
  0
VERTEX
  5
1514C
  8
0
 10
274.33126448914868
 20
163.00000220537191
 30
0.0
  0
VERTEX
  5
1514D
  8
0
 10
274.2885950140701
 20
163.2853855192661
 30
0.0
  0
VERTEX
  5
1514E
  8
0
 10
274.16607021615368
 20
163.53715926408771
 30
0.0
  0
VERTEX
  5
1514F
  8
0
 10
273.97812932059628
 20
163.72792020440099
 30
0.0
  0
VERTEX
  5
15150
  8
0
 10
273.74442695901263
 20
163.8385501503945
 30
0.0
  0
VERTEX
  5
15151
  8
0
 10
273.48844736144412
 20
163.8572324812412
 30
0.0
  0
VERTEX
  5
15152
  8
0
 10
273.23726593778002
 20
163.7800537794829
 30
0.0
  0
VERTEX
  5
15153
  8
0
 10
273.02023052499158
 20
163.61324273049831
 30
0.0
  0
VERTEX
  5
15154
  8
0
 10
272.8651615910278
 20
163.3756660670042
 30
0.0
  0
VERTEX
  5
15155
  8
0
 10
272.79126673266751
 20
163.09585392475131
 30
0.0
  0
VERTEX
  5
15156
  8
0
 10
272.79082714841229
 20
162.90853887796399
 30
0.0
  0
VERTEX
  5
15157
  8
0
 10
272.86271780059201
 20
162.62990579009059
 30
0.0
  0
VERTEX
  5
15158
  8
0
 10
273.01283209845877
 20
162.39489585161209
 30
0.0
  0
VERTEX
  5
15159
  8
0
 10
273.22263299748761
 20
162.2277495265007
 30
0.0
  0
VERTEX
  5
1515A
  8
0
 10
273.46905350015032
 20
162.14525297284129
 30
0.0
  0
VERTEX
  5
1515B
  8
0
 10
273.72615813538891
 20
162.15687774121761
 30
0.0
  0
VERTEX
  5
1515C
  8
0
 10
273.96602212712628
 20
162.2636110335589
 30
0.0
  0
VERTEX
  5
1515D
  8
0
 10
274.16089206263882
 20
162.4555584788323
 30
0.0
  0
VERTEX
  5
1515E
  8
0
 10
274.28746997640002
 20
162.711016535759
 30
0.0
  0
VERTEX
  5
1515F
  8
0
 10
274.33126448914868
 20
163.00000220537191
 30
0.0
  0
SEQEND
  5
15160
  8
0
  0
POLYLINE
  5
CB45
  8
0
 66
     1
 10
0.0
 20
0.0
 30
0.0
 70
   128
  0
VERTEX
  5
15161
  8
0
 10
274.6574583582626
 20
163.00000220537191
 30
0.0
  0
VERTEX
  5
15162
  8
0
 10
274.6574583582626
 20
162.9988790303469
 30
0.0
  0
VERTEX
  5
15163
  8
0
 10
274.59877758548117
 20
162.61975809931761
 30
0.0
  0
VERTEX
  5
15164
  8
0
 10
274.42915766761172
 20
162.2836288809776
 30
0.0
  0
VERTEX
  5
15165
  8
0
 10
274.16803716943127
 20
162.03106723725799
 30
0.0
  0
VERTEX
  5
15166
  8
0
 10
273.84661912247998
 20
161.89062565565109
 30
0.0
  0
VERTEX
  5
15167
  8
0
 10
273.50208937451703
 20
161.87533147633081
 30
0.0
  0
VERTEX
  5
15168
  8
0
 10
273.17188709304202
 20
161.98388084769249
 30
0.0
  0
VERTEX
  5
15169
  8
0
 10
272.89075433537818
 20
162.20381081104281
 30
0.0
  0
VERTEX
  5
1516A
  8
0
 10
272.68960356042248
 20
162.51303225755689
 30
0.0
  0
VERTEX
  5
1516B
  8
0
 10
272.59326755330432
 20
162.8796567022801
 30
0.0
  0
VERTEX
  5
1516C
  8
0
 10
272.59385614917142
 20
163.12612190842631
 30
0.0
  0
VERTEX
  5
1516D
  8
0
 10
272.69287436530448
 20
163.4942960739136
 30
0.0
  0
VERTEX
  5
1516E
  8
0
 10
272.90066360757208
 20
163.80689635872841
 30
0.0
  0
VERTEX
  5
1516F
  8
0
 10
273.19149702117312
 20
164.02638673782349
 30
0.0
  0
VERTEX
  5
15170
  8
0
 10
273.52808445021969
 20
164.12793628871441
 30
0.0
  0
VERTEX
  5
15171
  8
0
 10
273.87109427974087
 20
164.10335496068001
 30
0.0
  0
VERTEX
  5
15172
  8
0
 10
274.18425708339078
 20
163.95778737962249
 30
0.0
  0
VERTEX
  5
15173
  8
0
 10
274.4360941581474
 20
163.7067866325379
 30
0.0
  0
VERTEX
  5
15174
  8
0
 10
274.60027515218121
 20
163.37550774216649
 30
0.0
  0
VERTEX
  5
15175
  8
0
 10
274.6574583582626
 20
163.00000220537191
 30
0.0
  0
SEQEND
  5
15176
  8
0
  0
POLYLINE
  5
CB4D
  8
0
 66
     1
 10
0.0
 20
0.0
 30
0.0
 70
   128
  0
VERTEX
  5
15177
  8
0
 10
276.28318994567258
 20
172.44668088853359
 30
0.0
  0
VERTEX
  5
15178
  8
0
 10
276.77695482299191
 20
172.38122940063479
 30
0.0
  0
VERTEX
  5
15179
  8
0
 10
277.19774126336438
 20
172.30402462184429
 30
0.0
  0
SEQEND
  5
1517A
  8
0
  0
POLYLINE
  5
CB4E
  8
0
 66
     1
 10
0.0
 20
0.0
 30
0.0
 70
   128
  0
VERTEX
  5
1517B
  8
0
 10
277.19774126336438
 20
153.6959816515446
 30
0.0
  0
VERTEX
  5
1517C
  8
0
 10
276.6512858800636
 20
153.59956368803981
 30
0.0
  0
VERTEX
  5
1517D
  8
0
 10
276.28318994567258
 20
153.5533253848553
 30
0.0
  0
SEQEND
  5
1517E
  8
0
  0
ARC
  5
CB51
  8
0
 10
275.27805948917148
 20
162.9999973109532
 30
0.0
 40
9.4999946165202225
 50
256.734965633358
 51
276.07344810810542
  0
ARC
  5
CB53
  8
0
 10
275.27806128838512
 20
163.00002335725
 30
0.0
 40
9.4999801121401521
 50
83.926553496764726
 51
103.2650661380023
  0
ARC
  5
CB54
  8
0
 10
253.7655439484725
 20
71.736571290698294
 30
0.0
 40
84.264610936332815
 50
76.73658408820485
 51
80.945882888146073
  0
ARC
  5
CB57
  8
0
 10
253.76569739687241
 20
254.2627208444535
 30
0.0
 40
84.263881548405521
 50
279.05409048852567
 51
283.26342561789068
  0
LINE
  5
CB59
  8
0
 10
231.77806317136131
 20
160.75000323355189
 30
0.0
 11
242.19562142417291
 21
160.75000323355201
 31
0.0
  0
LINE
  5
CB5A
  8
0
 10
242.19562142417291
 20
165.25000303983691
 30
0.0
 11
231.77806317136131
 21
165.25000303983691
 31
0.0
  0
ARC
  5
CB5C
  8
0
 10
230.7780598335012
 20
160.7500029802323
 30
0.0
 40
1.0
 50
270.0
 51
0.0000000000016284
  0
ARC
  5
CB5F
  8
0
 10
230.7780598335012
 20
165.2500029802323
 30
0.0
 40
1.0
 50
0.0000000000016284
 51
90.0
  0
CIRCLE
  5
CB60
  8
0
 10
268.77275591665529
 20
159.5031188547928
 30
0.0
 40
1.1285541142925779
  0
POLYLINE
  5
CB61
  8
0
 66
     1
 10
0.0
 20
0.0
 30
0.0
 70
   128
  0
VERTEX
  5
1517F
  8
0
 10
269.60359542891842
 20
159.5000025629997
 30
0.0
  0
VERTEX
  5
15180
  8
0
 10
269.58387374207842
 20
159.686912484467
 30
0.0
  0
VERTEX
  5
15181
  8
0
 10
269.47936444804532
 20
159.95381183922291
 30
0.0
  0
VERTEX
  5
15182
  8
0
 10
269.47911857888562
 20
159.95421882718799
 30
0.0
  0
VERTEX
  5
15183
  8
0
 10
269.29695188329077
 20
160.1690386235714
 30
0.0
  0
VERTEX
  5
15184
  8
0
 10
269.05779569671017
 20
160.30961524695161
 30
0.0
  0
VERTEX
  5
15185
  8
0
 10
268.78639339730603
 20
160.36157373338941
 30
0.0
  0
VERTEX
  5
15186
  8
0
 10
268.51097523496009
 20
160.31803067773581
 30
0.0
  0
VERTEX
  5
15187
  8
0
 10
268.26237916276318
 20
160.181346051395
 30
0.0
  0
VERTEX
  5
15188
  8
0
 10
268.07078003213269
 20
159.9653937667608
 30
0.0
  0
VERTEX
  5
15189
  8
0
 10
267.96028047129971
 20
159.69580009579661
 30
0.0
  0
VERTEX
  5
1518A
  8
0
 10
267.9436060719238
 20
159.40415270626551
 30
0.0
  0
VERTEX
  5
1518B
  8
0
 10
267.98226713464118
 20
159.22454994171861
 30
0.0
  0
VERTEX
  5
1518C
  8
0
 10
268.11439573094708
 20
158.97102531045681
 30
0.0
  0
VERTEX
  5
1518D
  8
0
 10
268.31825106665951
 20
158.7776808813214
 30
0.0
  0
VERTEX
  5
1518E
  8
0
 10
268.57133983895642
 20
158.66390306502581
 30
0.0
  0
VERTEX
  5
1518F
  8
0
 10
268.84741365239478
 20
158.64177577197549
 30
0.0
  0
VERTEX
  5
15190
  8
0
 10
269.11713212058407
 20
158.71552720665929
 30
0.0
  0
VERTEX
  5
15191
  8
0
 10
269.34963493869168
 20
158.87934591621161
 30
0.0
  0
VERTEX
  5
15192
  8
0
 10
269.51657264754641
 20
159.11557588726279
 30
0.0
  0
VERTEX
  5
15193
  8
0
 10
269.59755300805432
 20
159.39607907086611
 30
0.0
  0
VERTEX
  5
15194
  8
0
 10
269.60359542891842
 20
159.5000025629997
 30
0.0
  0
SEQEND
  5
15195
  8
0
  0
CIRCLE
  5
CB62
  8
0
 10
268.7727559669483
 20
166.50311908806341
 30
0.0
 40
1.1285540614760741
  0
POLYLINE
  5
CB63
  8
0
 66
     1
 10
0.0
 20
0.0
 30
0.0
 70
   128
  0
VERTEX
  5
15196
  8
0
 10
269.60359542891842
 20
166.50000371038911
 30
0.0
  0
VERTEX
  5
15197
  8
0
 10
269.58387374207842
 20
166.6869127005339
 30
0.0
  0
VERTEX
  5
15198
  8
0
 10
269.47936444804532
 20
166.95381298661229
 30
0.0
  0
VERTEX
  5
15199
  8
0
 10
269.47911857888562
 20
166.95421904325491
 30
0.0
  0
VERTEX
  5
1519A
  8
0
 10
269.29695188329077
 20
167.16903790831569
 30
0.0
  0
VERTEX
  5
1519B
  8
0
 10
269.05779569671017
 20
167.30961546301839
 30
0.0
  0
VERTEX
  5
1519C
  8
0
 10
268.78639339730603
 20
167.36157394945619
 30
0.0
  0
VERTEX
  5
1519D
  8
0
 10
268.51097523496009
 20
167.3180308938027
 30
0.0
  0
VERTEX
  5
1519E
  8
0
 10
268.26237916276318
 20
167.18134626746181
 30
0.0
  0
VERTEX
  5
1519F
  8
0
 10
268.07078003213269
 20
166.96539305150509
 30
0.0
  0
VERTEX
  5
151A0
  8
0
 10
267.96028047129971
 20
166.6957993805409
 30
0.0
  0
VERTEX
  5
151A1
  8
0
 10
267.9436060719238
 20
166.40415199100971
 30
0.0
  0
VERTEX
  5
151A2
  8
0
 10
267.98226713464118
 20
166.22455015778539
 30
0.0
  0
VERTEX
  5
151A3
  8
0
 10
268.11439573094708
 20
165.97102552652359
 30
0.0
  0
VERTEX
  5
151A4
  8
0
 10
268.31825106665951
 20
165.7776810973883
 30
0.0
  0
VERTEX
  5
151A5
  8
0
 10
268.57133983895642
 20
165.6639032810927
 30
0.0
  0
VERTEX
  5
151A6
  8
0
 10
268.84741365239478
 20
165.6417769193649
 30
0.0
  0
VERTEX
  5
151A7
  8
0
 10
269.11713212058407
 20
165.7155283540487
 30
0.0
  0
VERTEX
  5
151A8
  8
0
 10
269.34963493869168
 20
165.8793461322785
 30
0.0
  0
VERTEX
  5
151A9
  8
0
 10
269.51657264754641
 20
166.11557610332969
 30
0.0
  0
VERTEX
  5
151AA
  8
0
 10
269.59755300805432
 20
166.396079286933
 30
0.0
  0
VERTEX
  5
151AB
  8
0
 10
269.60359542891842
 20
166.50000371038911
 30
0.0
  0
SEQEND
  5
151AC
  8
0
  0
ARC
  5
CB70
  8
0
 10
268.83439594609848
 20
159.5000029802323
 30
0.0
 40
1.532196318231154
 50
167.1257472535126
 51
192.87425274629931
  0
ARC
  5
CB71
  8
0
 10
268.83439594609848
 20
166.5000029802323
 30
0.0
 40
1.532196318231148
 50
167.12574725351499
 51
192.8742527463001
  0
ARC
  5
CB72
  8
0
 10
275.2780159878896
 20
163.0002017595358
 30
0.0
 40
10.200201959413739
 50
277.0570672192365
 51
287.24482907350909
  0
ARC
  5
CB73
  8
0
 10
275.2781437970732
 20
163.00037075605519
 30
0.0
 40
10.19962436980375
 50
72.754101651698249
 51
82.939549565164029
  0
LINE
  5
CB7A
  8
0
 10
253.77806305215219
 20
156.00000292062759
 30
0.0
 11
212.26999162407441
 21
156.00000292062759
 31
0.0
  0
LINE
  5
CB7C
  8
0
 10
212.2699924654207
 20
170.0000033527613
 30
0.0
 11
253.77806305215219
 21
170.0000033527613
 31
0.0
  0
ARC
  5
CB7D
  8
0
 10
253.7780557630563
 20
71.799943629906039
 30
0.0
 40
84.20005929072191
 50
80.947504579406186
 51
89.999995039968013
  0
ARC
  5
CB7E
  8
0
 10
253.7780557630563
 20
254.20006264348291
 30
0.0
 40
84.200059290721896
 50
270.00000496001888
 51
279.0524954205938
  0
LINE
  5
CB7F
  8
0
 10
231.77806317136151
 20
160.75000323355201
 30
0.0
 11
231.77806317136151
 21
165.25000303983691
 31
0.0
  0
ARC
  5
CB83
  8
0
 10
253.7489034880598
 20
254.33292831877671
 30
0.0
 40
83.636084563919056
 50
282.10497492808622
 51
283.26754754453361
  0
ARC
  5
CB85
  8
0
 10
253.75452380118421
 20
71.693559383945427
 30
0.0
 40
83.609013381119695
 50
76.738225238697567
 51
77.890755657552205
  0
POLYLINE
  5
CB8A
  8
0
 66
     1
 10
0.0
 20
0.0
 30
0.0
 70
   128
  0
VERTEX
  5
151AD
  8
0
 10
227.77806251571039
 20
159.89530801773071
 30
0.0
  0
VERTEX
  5
151AE
  8
0
 10
227.74277656600341
 20
159.9566579610109
 30
0.0
  0
VERTEX
  5
151AF
  8
0
 10
227.63947426602701
 20
160.14031942933801
 30
0.0
  0
VERTEX
  5
151B0
  8
0
 10
227.48570918366769
 20
160.42628575116399
 30
0.0
  0
VERTEX
  5
151B1
  8
0
 10
227.3021119765983
 20
160.80671705305579
 30
0.0
  0
VERTEX
  5
151B2
  8
0
 10
227.1118614010559
 20
161.27155691385269
 30
0.0
  0
VERTEX
  5
151B3
  8
0
 10
226.94659262225491
 20
161.79699048399931
 30
0.0
  0
VERTEX
  5
151B4
  8
0
 10
226.82595282122949
 20
162.39025041460991
 30
0.0
  0
VERTEX
  5
151B5
  8
0
 10
226.78315668628079
 20
162.99334324896341
 30
0.0
  0
VERTEX
  5
151B6
  8
0
 10
226.82386665866241
 20
163.5973003506661
 30
0.0
  0
VERTEX
  5
151B7
  8
0
 10
226.94386570975641
 20
164.1942501813173
 30
0.0
  0
VERTEX
  5
151B8
  8
0
 10
227.10926114842749
 20
164.7228521108627
 30
0.0
  0
VERTEX
  5
151B9
  8
0
 10
227.30004816577301
 20
165.1887015253306
 30
0.0
  0
VERTEX
  5
151BA
  8
0
 10
227.4840626053558
 20
165.56989185512069
 30
0.0
  0
VERTEX
  5
151BB
  8
0
 10
227.6375669173942
 20
165.8564635366202
 30
0.0
  0
VERTEX
  5
151BC
  8
0
 10
227.74172603413919
 20
166.0418619215489
 30
0.0
  0
VERTEX
  5
151BD
  8
0
 10
227.77805506512979
 20
166.1046889424324
 30
0.0
  0
VERTEX
  5
151BE
  8
0
 10
227.77763783261639
 20
166.1039736866951
 30
0.0
  0
SEQEND
  5
151BF
  8
0
  0
POLYLINE
  5
CB8B
  8
0
 66
     1
 10
0.0
 20
0.0
 30
0.0
 70
   128
  0
VERTEX
  5
151C0
  8
0
 10
216.77297010347709
 20
163.00000220537191
 30
0.0
  0
VERTEX
  5
151C1
  8
0
 10
216.73131390735969
 20
162.3961456865072
 30
0.0
  0
VERTEX
  5
151C2
  8
0
 10
216.6108491949783
 20
161.80036745965481
 30
0.0
  0
VERTEX
  5
151C3
  8
0
 10
216.44526749179229
 20
161.2728775292635
 30
0.0
  0
VERTEX
  5
151C4
  8
0
 10
216.2545587055431
 20
160.80794267356401
 30
0.0
  0
VERTEX
  5
151C5
  8
0
 10
216.07087581679681
 20
160.4282545670867
 30
0.0
  0
VERTEX
  5
151C6
  8
0
 10
215.91733425185541
 20
160.14237858355051
 30
0.0
  0
VERTEX
  5
151C7
  8
0
 10
215.813830786203
 20
159.95792735368011
 30
0.0
  0
VERTEX
  5
151C8
  8
0
 10
215.77806054875711
 20
159.89531174302101
 30
0.0
  0
VERTEX
  5
151C9
  8
0
 10
215.778321319078
 20
159.895760640502
 30
0.0
  0
SEQEND
  5
151CA
  8
0
  0
ARC
  5
CB8C
  8
0
 10
210.14884394987621
 20
162.58902334636679
 30
0.0
 40
6.6368630331934266
 50
3.5502358383839998
 51
31.984713709643749
  0
LINE
  5
CB8D
  8
0
 10
158.5000015376138
 20
172.00000368058679
 30
0.0
 11
157.50000149011629
 21
171.0000035166741
 31
0.0
  0
LINE
  5
CB8F
  8
0
 10
159.50000158511119
 20
172.00000368058679
 30
0.0
 11
159.50000158511119
 21
154.0000025928021
 31
0.0
  0
LINE
  5
CB90
  8
0
 10
157.50000149011629
 20
155.00000275671479
 30
0.0
 11
158.5000015376138
 21
154.0000025928021
 31
0.0
  0
LINE
  5
CB91
  8
0
 10
157.50000149011629
 20
155.00000275671479
 30
0.0
 11
157.50000149011629
 21
171.0000035166741
 31
0.0
  0
LINE
  5
CB93
  8
0
 10
183.50000225938879
 20
171.50000266730791
 30
0.0
 11
183.0000012461098
 21
172.00000368058679
 31
0.0
  0
LINE
  5
CB94
  8
0
 10
183.50000225938879
 20
171.50000266730791
 30
0.0
 11
183.50000225938879
 21
154.50000267475841
 31
0.0
  0
LINE
  5
CB95
  8
0
 10
183.0000012461098
 20
154.0000025928021
 30
0.0
 11
183.50000225938879
 21
154.50000267475841
 31
0.0
  0
LINE
  5
CB96
  8
0
 10
158.5000015376138
 20
172.00000368058679
 30
0.0
 11
183.0000012461098
 21
172.00000368058679
 31
0.0
  0
LINE
  5
CB97
  8
0
 10
158.5000015376138
 20
154.0000025928021
 30
0.0
 11
183.0000012461098
 21
154.0000025928021
 31
0.0
  0
LINE
  5
CB98
  8
0
 10
228.77805709168771
 20
165.50000354647639
 30
0.0
 11
228.77805709168771
 21
160.5000027269125
 31
0.0
  0
LINE
  5
CB99
  8
0
 10
228.27806352898941
 20
160.00000264495611
 30
0.0
 11
228.27806352898941
 21
166.0000026971102
 31
0.0
  0
LINE
  5
CB9B
  8
0
 10
210.1874939445409
 20
155.00000275671479
 30
0.0
 11
210.1874939445409
 21
171.0000035166741
 31
0.0
  0
LINE
  5
CB9C
  8
0
 10
210.68749495781961
 20
170.50000250339519
 30
0.0
 11
210.68749495781981
 21
155.50000283867121
 31
0.0
  0
ARC
  5
CBA8
  8
0
 10
179.27751111425459
 20
152.0000029802323
 30
0.0
 40
1.0
 50
0.0
 51
90.0
  0
ARC
  5
CBAC
  8
0
 10
161.27751111425479
 20
152.0000029802323
 30
0.0
 40
1.0
 50
90.0
 51
180.0
  0
LINE
  5
CBAE
  8
0
 10
180.27751066722001
 20
152.0000031962991
 30
0.0
 11
180.27751066722001
 21
145.50000300398099
 31
0.0
  0
LINE
  5
CBB1
  8
0
 10
160.27751111425479
 20
145.50000300398099
 30
0.0
 11
160.27751111425479
 21
154.0000025928021
 31
0.0
  0
LINE
  5
CBB2
  8
0
 10
180.27751066722001
 20
145.50000300398099
 30
0.0
 11
179.7775115165862
 21
145.0000029802323
 31
0.0
  0
LINE
  5
CBB4
  8
0
 10
207.7775105182084
 20
145.0000029802323
 30
0.0
 11
160.77751113800349
 21
145.0000029802323
 31
0.0
  0
LINE
  5
CBB5
  8
0
 10
160.77751113800349
 20
145.0000029802323
 30
0.0
 11
160.27751111425479
 21
145.50000300398099
 31
0.0
  0
ARC
  5
CBC8
  8
0
 10
182.74946751866349
 20
142.74647564451459
 30
0.0
 40
10.33342151483745
 50
63.572085076203948
 51
82.870611070285534
  0
LINE
  5
CBC9
  8
0
 10
161.27751111425479
 20
153.0000029802323
 30
0.0
 11
184.03195322491251
 21
153.00000336021191
 31
0.0
  0
LINE
  5
CBCA
  8
0
 10
187.3485791776331
 20
152.0000031962991
 30
0.0
 11
187.3485791776329
 21
145.0000029802323
 31
0.0
  0
LINE
  5
CBCF
  8
0
 10
162.9846178740265
 20
172.00000368058679
 30
0.0
 11
162.9846178740265
 21
174.17849756777289
 31
0.0
  0
LINE
  5
CBD3
  8
0
 10
208.27751153148731
 20
145.50000300398099
 30
0.0
 11
207.7775105182084
 21
145.0000029802323
 31
0.0
  0
ARC
  5
CBD8
  8
0
 10
165.49395862280511
 20
175.4944551687154
 30
0.0
 40
0.3811616705826553
 50
50.52577712941261
 51
105.1637935420199
  0
ARC
  5
CBDA
  8
0
 10
163.74314969662831
 20
174.42456302302949
 30
0.0
 40
0.7974451292535664
 50
119.56312658498101
 51
197.9729078784797
  0
LINE
  5
CBDE
  8
0
 10
178.7775113526734
 20
154.0000025928021
 30
0.0
 11
179.27751050330721
 21
153.50000344216821
 31
0.0
  0
LINE
  5
CBDF
  8
0
 10
179.27751050330721
 20
153.50000344216821
 30
0.0
 11
185.27751148678379
 21
153.50000344216821
 31
0.0
  0
LINE
  5
CBE0
  8
0
 10
185.77751063741769
 20
154.0000025928021
 30
0.0
 11
185.77751063741769
 21
172.00000368058679
 31
0.0
  0
ARC
  5
CBE1
  8
0
 10
185.27751111425459
 20
172.0000029802323
 30
0.0
 40
0.5
 50
0.0
 51
90.0
  0
LINE
  5
CBE2
  8
0
 10
185.27751148678379
 20
172.5000028312206
 30
0.0
 11
179.27751050330721
 21
172.5000028312206
 31
0.0
  0
LINE
  5
CBE3
  8
0
 10
179.27751050330721
 20
172.5000028312206
 30
0.0
 11
178.7775113526734
 21
172.00000368058679
 31
0.0
  0
ARC
  5
CBE7
  8
0
 10
185.27751111425459
 20
154.00000298023221
 30
0.0
 40
0.5
 50
270.0
 51
0.0
  0
ARC
  5
CBEB
  8
0
 10
207.27751111425459
 20
171.9226527110427
 30
0.0
 40
1.000000000000008
 50
0.0000000000008142
 51
59.999999999999858
  0
LINE
  5
CBED
  8
0
 10
165.73627491481619
 20
175.78867793083191
 30
0.0
 11
202.08135911263551
 21
175.78867793083191
 31
0.0
  0
LINE
  5
CBEF
  8
0
 10
208.27751153148731
 20
171.9226536154747
 30
0.0
 11
208.27751153148731
 21
145.50000300398099
 31
0.0
  0
ARC
  5
CBF0
  8
0
 10
202.33135961927471
 20
175.29593374234369
 30
0.0
 40
0.5525369567811928
 50
63.098417545875137
 51
116.90158245410881
  0
LINE
  5
CBFD
  8
0
 10
160.93549115901689
 20
174.2394881312668
 30
0.0
 11
167.69147769548019
 21
176.69846460223201
 31
0.0
  0
ARC
  5
CBFF
  8
0
 10
199.1435365180391
 20
172.0000029802323
 30
0.0
 40
4.999999999999992
 50
59.999999999999858
 51
90.0
  0
ARC
  5
CC01
  8
0
 10
169.40157827616119
 20
172.0000029802323
 30
0.0
 40
5.0000000000000089
 50
90.0
 51
110.0000000000034
  0
LINE
  5
CC03
  8
0
 10
169.40157872624721
 20
177.00000450015071
 30
0.0
 11
199.14353557862361
 21
177.00000450015071
 31
0.0
  0
LINE
  5
CC09
  8
0
 10
160.27751111425479
 20
172.00000368058679
 30
0.0
 11
160.27751111425479
 21
173.29979471862319
 31
0.0
  0
ARC
  5
CC0B
  8
0
 10
161.27751111425479
 20
173.2997954420226
 30
0.0
 40
1.0
 50
110.0000000000034
 51
180.0
  0
LINE
  5
CC10
  8
0
 10
184.27751132287111
 20
156.00000292062759
 30
0.0
 11
184.27751132287111
 21
170.0000033527613
 31
0.0
  0
ARC
  5
CC12
  8
0
 10
183.27751111425459
 20
170.0000029802323
 30
0.0
 40
1.0
 50
0.0
 51
77.144648174359816
  0
ARC
  5
CC13
  8
0
 10
183.27751111425459
 20
156.00000298023221
 30
0.0
 40
1.0
 50
282.85535182564018
 51
0.0
  0
POLYLINE
  5
CC1C
  8
0
 66
     1
 10
0.0
 20
0.0
 30
0.0
 70
   128
  0
VERTEX
  5
151CB
  8
0
 10
276.09434503858142
 20
172.6886612982469
 30
0.0
  0
VERTEX
  5
151CC
  8
0
 10
276.10251336619717
 20
172.68861800432211
 30
0.0
  0
VERTEX
  5
151CD
  8
0
 10
276.17125242278439
 20
172.68450900912291
 30
0.0
  0
VERTEX
  5
151CE
  8
0
 10
276.38094156310422
 20
172.66824997961521
 30
0.0
  0
VERTEX
  5
151CF
  8
0
 10
276.69912605807639
 20
172.6328019797802
 30
0.0
  0
VERTEX
  5
151D0
  8
0
 10
277.0862805776344
 20
172.57191024720669
 30
0.0
  0
VERTEX
  5
151D1
  8
0
 10
277.49606996104581
 20
172.48572379350659
 30
0.0
  0
VERTEX
  5
151D2
  8
0
 10
277.88052737042773
 20
172.3838818073273
 30
0.0
  0
VERTEX
  5
151D3
  8
0
 10
278.19686412141192
 20
172.28425450623041
 30
0.0
  0
VERTEX
  5
151D4
  8
0
 10
278.41477870271069
 20
172.20699571073061
 30
0.0
  0
VERTEX
  5
151D5
  8
0
 10
278.51622580811841
 20
172.1685544401407
 30
0.0
  0
VERTEX
  5
151D6
  8
0
 10
278.52210431620921
 20
172.16627269983289
 30
0.0
  0
SEQEND
  5
151D7
  8
0
  0
ARC
  5
CC1D
  8
0
 10
275.6653697699075
 20
161.20159978861409
 30
0.0
 40
7.9023062570500029
 50
273.22415705415023
 51
291.1934932863129
  0
ARC
  5
CC1E
  8
0
 10
274.6465806198492
 20
165.93230081167999
 30
0.0
 40
13.02584022951593
 50
277.06045976481352
 51
287.21763411647743
  0
POLYLINE
  5
CC1F
  8
0
 66
     1
 10
0.0
 20
0.0
 30
0.0
 70
   128
  0
VERTEX
  5
151D8
  8
0
 10
278.50225596949917
 20
172.5098226964474
 30
0.0
  0
VERTEX
  5
151D9
  8
0
 10
278.50257634446479
 20
172.50972211360931
 30
0.0
  0
VERTEX
  5
151DA
  8
0
 10
278.4048247270332
 20
172.5395970791578
 30
0.0
  0
VERTEX
  5
151DB
  8
0
 10
278.19736331031191
 20
172.60024107992649
 30
0.0
  0
VERTEX
  5
151DC
  8
0
 10
277.90013729855878
 20
172.68066823482511
 30
0.0
  0
VERTEX
  5
151DD
  8
0
 10
277.5399091772781
 20
172.7681436389685
 30
0.0
  0
VERTEX
  5
151DE
  8
0
 10
277.1555560760246
 20
172.8496269136667
 30
0.0
  0
VERTEX
  5
151DF
  8
0
 10
276.79356216714251
 20
172.9153876006603
 30
0.0
  0
VERTEX
  5
151E0
  8
0
 10
276.50012850091321
 20
172.96099260449409
 30
0.0
  0
VERTEX
  5
151E1
  8
0
 10
276.3117107681976
 20
172.98667848110199
 30
0.0
  0
VERTEX
  5
151E2
  8
0
 10
276.24767302796698
 20
172.99476981163031
 30
0.0
  0
SEQEND
  5
151E3
  8
0
  0
ARC
  5
CC20
  8
0
 10
257.36922497349042
 20
87.746131812142053
 30
0.0
 40
67.612564777344986
 50
76.734395886157444
 51
78.330816421409921
  0
POLYLINE
  5
CC21
  8
0
 66
     1
 10
0.0
 20
0.0
 30
0.0
 70
   128
  0
VERTEX
  5
151E4
  8
0
 10
271.02825906832589
 20
172.0350179049949
 30
0.0
  0
VERTEX
  5
151E5
  8
0
 10
271.03912859485013
 20
172.03761607408521
 30
0.0
  0
VERTEX
  5
151E6
  8
0
 10
271.15938841626507
 20
172.06255875527859
 30
0.0
  0
VERTEX
  5
151E7
  8
0
 10
271.39947592542029
 20
172.1130345761776
 30
0.0
  0
VERTEX
  5
151E8
  8
0
 10
271.73193573281628
 20
172.18443349003789
 30
0.0
  0
VERTEX
  5
151E9
  8
0
 10
272.1194180779205
 20
172.26985812187201
 30
0.0
  0
VERTEX
  5
151EA
  8
0
 10
272.51850097701413
 20
172.3603398352862
 30
0.0
  0
VERTEX
  5
151EB
  8
0
 10
272.88397430703498
 20
172.44542919099331
 30
0.0
  0
SEQEND
  5
151EC
  8
0
  0
POLYLINE
  5
CC22
  8
0
 66
     1
 10
0.0
 20
0.0
 30
0.0
 70
   128
  0
VERTEX
  5
151ED
  8
0
 10
272.88397430703498
 20
172.44542919099331
 30
0.0
  0
VERTEX
  5
151EE
  8
0
 10
273.14013271853793
 20
172.5013476610184
 30
0.0
  0
VERTEX
  5
151EF
  8
0
 10
273.34488957450247
 20
172.53970138728619
 30
0.0
  0
VERTEX
  5
151F0
  8
0
 10
273.42493861243588
 20
172.5531813502312
 30
0.0
  0
VERTEX
  5
151F1
  8
0
 10
273.42493861243588
 20
172.5531813502312
 30
0.0
  0
SEQEND
  5
151F2
  8
0
  0
ARC
  5
CC23
  8
0
 10
274.68860607228231
 20
161.2040595849995
 30
0.0
 40
7.8594706161282293
 50
256.72574789438829
 51
260.71068334955208
  0
LINE
  5
CC24
  8
0
 10
273.2364687256561
 20
153.18150509148839
 30
0.0
 11
273.25072913691861
 21
153.17815419286489
 31
0.0
  0
POLYLINE
  5
CC25
  8
0
 66
     1
 10
0.0
 20
0.0
 30
0.0
 70
   128
  0
VERTEX
  5
151F3
  8
0
 10
271.07216446921689
 20
153.6688000708819
 30
0.0
  0
VERTEX
  5
151F4
  8
0
 10
271.06566756293643
 20
153.6701933294535
 30
0.0
  0
VERTEX
  5
151F5
  8
0
 10
271.17183088586188
 20
153.6473619565368
 30
0.0
  0
VERTEX
  5
151F6
  8
0
 10
271.39031916186673
 20
153.60003028064969
 30
0.0
  0
VERTEX
  5
151F7
  8
0
 10
271.69588237330782
 20
153.53305701166391
 30
0.0
  0
VERTEX
  5
151F8
  8
0
 10
272.05336123034817
 20
153.45355093479159
 30
0.0
  0
VERTEX
  5
151F9
  8
0
 10
272.42223202512128
 20
153.37020128965381
 30
0.0
  0
VERTEX
  5
151FA
  8
0
 10
272.76139735505438
 20
153.29239208251241
 30
0.0
  0
VERTEX
  5
151FB
  8
0
 10
273.03330629393918
 20
153.2291953265667
 30
0.0
  0
VERTEX
  5
151FC
  8
0
 10
273.20764987990719
 20
153.18829443305731
 30
0.0
  0
VERTEX
  5
151FD
  8
0
 10
273.2364687256561
 20
153.18150509148839
 30
0.0
  0
SEQEND
  5
151FE
  8
0
  0
POLYLINE
  5
CC26
  8
0
 66
     1
 10
0.0
 20
0.0
 30
0.0
 70
   128
  0
VERTEX
  5
151FF
  8
0
 10
273.26129383609242
 20
172.824106227627
 30
0.0
  0
VERTEX
  5
15200
  8
0
 10
273.25775503442151
 20
172.82350145280361
 30
0.0
  0
VERTEX
  5
15201
  8
0
 10
273.2364687256561
 20
172.8185021132231
 30
0.0
  0
SEQEND
  5
15202
  8
0
  0
ARC
  5
CC27
  8
0
 10
247.94102920661251
 20
280.11709160213479
 30
0.0
 40
110.2399499581326
 50
282.1121131112547
 51
283.26516462882779
  0
LINE
  5
CC88
  8
0
 10
211.58751019276701
 20
51.000001356005583
 30
0.0
 11
211.78750985302051
 21
51.200001481920403
 31
0.0
  0
LINE
  5
CC89
  8
0
 10
211.78750985302051
 20
63.800001498311701
 30
0.0
 11
211.58751019276701
 21
64.000001624226513
 31
0.0
  0
LINE
  5
CC8A
  8
0
 10
210.68749495781981
 20
51.000001356005583
 30
0.0
 11
211.58751019276701
 21
51.000001356005583
 31
0.0
  0
LINE
  5
CC8B
  8
0
 10
211.58751019276701
 20
64.000001624226513
 30
0.0
 11
210.68749495781981
 21
64.000001624226513
 31
0.0
  0
ARC
  5
CC8E
  8
0
 10
282.77115676164749
 20
51.750864141779111
 30
0.0
 40
2.006408537600906
 50
336.39614201303249
 51
359.57499730335621
  0
LINE
  5
CC8F
  8
0
 10
284.77751010097592
 20
51.736260280013028
 30
0.0
 11
284.77751010097592
 21
55.062877926975432
 31
0.0
  0
ARC
  5
CC90
  8
0
 10
282.77548382070842
 20
55.052804693027753
 30
0.0
 40
2.0020516219428228
 50
0.2882823899808277
 51
28.319950612738261
  0
ARC
  5
CC91
  8
0
 10
275.07321436503389
 20
57.184052642187339
 30
0.0
 40
0.2788296764252597
 50
214.315259716735
 51
279.61502344883041
  0
ARC
  5
CC92
  8
0
 10
272.33899588649928
 20
56.037980309028512
 30
0.0
 40
0.2666581196041071
 50
307.89305283722018
 51
13.713433838124161
  0
ARC
  5
CC93
  8
0
 10
272.28436680823347
 20
46.103499008792731
 30
0.0
 40
0.3000000413102258
 50
1.4653216467386141
 51
80.602419472347307
  0
ARC
  5
CC94
  8
0
 10
273.5239258732056
 20
46.334478999342593
 30
0.0
 40
1.613477537459187
 50
325.75774405528938
 51
336.27046121132622
  0
ARC
  5
CC95
  8
0
 10
273.82901458671182
 20
46.143209287315862
 30
0.0
 40
1.245158097909407
 50
181.4744194715532
 51
195.48115839696069
  0
ARC
  5
CC96
  8
0
 10
273.83384826711023
 20
56.289110195435292
 30
0.0
 40
1.2499986572485029
 50
36.171435560873611
 51
48.813206602915038
  0
ARC
  5
CC97
  8
0
 10
273.83384722685201
 20
56.289109343189658
 30
0.0
 40
1.2500000000000471
 50
175.97413699657389
 51
188.6460963675278
  0
ARC
  5
CC98
  8
0
 10
272.91665814906452
 20
45.896072402074701
 30
0.0
 40
0.2999852163742366
 50
196.50441121494001
 51
260.36285900591793
  0
ARC
  5
CC99
  8
0
 10
274.61191315310231
 20
45.598535164519397
 30
0.0
 40
0.2999894255276824
 50
259.72834713558279
 51
325.02747543494633
  0
ARC
  5
CC9A
  8
0
 10
274.45937260142091
 20
57.004104451762707
 30
0.0
 40
0.3000000002428945
 50
48.796710724156611
 51
115.3957254980899
  0
ARC
  5
CC9B
  8
0
 10
272.8860698970966
 20
56.353792078564908
 30
0.0
 40
0.3000269640675954
 50
109.53336579841709
 51
175.58890256718979
  0
ARC
  5
CC9C
  8
0
 10
270.29457904586161
 20
46.419655230858098
 30
0.0
 40
0.2999948217929661
 50
81.366729845409822
 51
160.92997199749749
  0
ARC
  5
CC9D
  8
0
 10
267.28647450036169
 20
46.847837414906543
 30
0.0
 40
0.3000026319181911
 50
3.3452990749687741
 51
82.423447274623243
  0
ARC
  5
CC9E
  8
0
 10
275.27948484970852
 20
45.583850290116203
 30
0.0
 40
0.2963554149144765
 50
83.044485166611096
 51
160.00537137129859
  0
POLYLINE
  5
CC9F
  8
0
 66
     1
 10
0.0
 20
0.0
 30
0.0
 70
   128
  0
VERTEX
  5
15203
  8
0
 10
280.17634444870077
 20
46.445127092301789
 30
0.0
  0
VERTEX
  5
15204
  8
0
 10
280.19179695285879
 20
46.458318345248642
 30
0.0
  0
VERTEX
  5
15205
  8
0
 10
280.21902137436001
 20
46.476057246327343
 30
0.0
  0
VERTEX
  5
15206
  8
0
 10
280.23588203825079
 20
46.485078036785069
 30
0.0
  0
VERTEX
  5
15207
  8
0
 10
280.23955517448508
 20
46.486865244805749
 30
0.0
  0
VERTEX
  5
15208
  8
0
 10
280.24138801731192
 20
46.487734168767872
 30
0.0
  0
VERTEX
  5
15209
  8
0
 10
280.24274402298062
 20
46.488366536796029
 30
0.0
  0
VERTEX
  5
1520A
  8
0
 10
280.24395101703732
 20
46.488922536373082
 30
0.0
  0
VERTEX
  5
1520B
  8
0
 10
280.24491214193432
 20
46.489359326660569
 30
0.0
  0
VERTEX
  5
1520C
  8
0
 10
280.2447184268388
 20
46.489272713661137
 30
0.0
  0
SEQEND
  5
1520D
  8
0
  0
ARC
  5
CCA0
  8
0
 10
280.35784499801338
 20
46.219667639951773
 30
0.0
 40
0.2894381005582419
 50
128.83494237946121
 51
189.00372320390321
  0
ARC
  5
CCA1
  8
0
 10
277.39469171369711
 20
45.492078243778963
 30
0.0
 40
0.2774871032407954
 50
16.412300963839979
 51
72.363258809892542
  0
ARC
  5
CCA2
  8
0
 10
268.83307902387008
 20
46.938505320122339
 30
0.0
 40
1.250883924267278
 50
326.84193832252481
 51
340.34424388228888
  0
ARC
  5
CCA3
  8
0
 10
268.82809718333442
 20
46.93736662999936
 30
0.0
 40
1.2442175786483649
 50
183.3184917927326
 51
197.38315571802201
  0
ARC
  5
CCA4
  8
0
 10
269.62913297344522
 20
46.418432778923858
 30
0.0
 40
0.3000015247491768
 50
261.58255278338441
 51
326.83893713108301
  0
ARC
  5
CCA5
  8
0
 10
267.9252550340986
 20
46.661056205307233
 30
0.0
 40
0.3001201190496324
 50
198.5368061922492
 51
263.10526061715677
  0
ARC
  5
CCA6
  8
0
 10
278.83384722685167
 20
46.002487816769467
 30
0.0
 40
1.250000000000004
 50
351.82745873262832
 51
7.9035849816526591
  0
ARC
  5
CCA7
  8
0
 10
278.8338469019846
 20
46.002487670942372
 30
0.0
 40
1.249999644752529
 50
200.21873345177141
 51
216.02575614558319
  0
ARC
  5
CCA8
  8
0
 10
278.0655647530532
 20
45.443701596086242
 30
0.0
 40
0.3000000000141801
 50
216.01516384634689
 51
278.17847097881179
  0
ARC
  5
CCA9
  8
0
 10
279.7745084992207
 20
45.869832833615682
 30
0.0
 40
0.3000438186346208
 50
289.68094415344592
 51
351.36695872097528
  0
POLYLINE
  5
CCAA
  8
0
 66
     1
 10
0.0
 20
0.0
 30
0.0
 70
   128
  0
VERTEX
  5
1520E
  8
0
 10
277.49177359975897
 20
58.266910880338337
 30
0.0
  0
VERTEX
  5
1520F
  8
0
 10
277.47677558101742
 20
58.25349977705622
 30
0.0
  0
VERTEX
  5
15210
  8
0
 10
277.45010995306097
 20
58.235215994063708
 30
0.0
  0
VERTEX
  5
15211
  8
0
 10
277.43559622205822
 20
58.226921809837158
 30
0.0
  0
VERTEX
  5
15212
  8
0
 10
277.43141644634329
 20
58.224728254135641
 30
0.0
  0
VERTEX
  5
15213
  8
0
 10
277.42926322855078
 20
58.22362836217502
 30
0.0
  0
VERTEX
  5
15214
  8
0
 10
277.42761665023892
 20
58.222804025281157
 30
0.0
  0
VERTEX
  5
15215
  8
0
 10
277.42614143528073
 20
58.222078408580217
 30
0.0
  0
VERTEX
  5
15216
  8
0
 10
277.42503874935232
 20
58.22154208319256
 30
0.0
  0
VERTEX
  5
15217
  8
0
 10
277.42530697025381
 20
58.221668335609081
 30
0.0
  0
SEQEND
  5
15218
  8
0
  0
ARC
  5
CCAB
  8
0
 10
277.30875981853552
 20
58.486635531439873
 30
0.0
 40
0.2859597286671934
 50
309.79170342828581
 51
7.9734437373548479
  0
ARC
  5
CCAC
  8
0
 10
280.30287015946232
 20
58.990541112010419
 30
0.0
 40
0.2552754716300797
 50
186.9840570765551
 51
244.40383527259161
  0
ARC
  5
CCAD
  8
0
 10
270.30136707033989
 20
55.564636677537351
 30
0.0
 40
0.3000029558629238
 50
198.7758644928096
 51
280.2124110174787
  0
ARC
  5
CCAE
  8
0
 10
268.83395820910982
 20
55.065809961686
 30
0.0
 40
1.2498734452289371
 50
18.77454797072696
 51
31.407947450119519
  0
ARC
  5
CCAF
  8
0
 10
268.56245897059938
 20
55.123151133248939
 30
0.0
 40
0.9731807726451123
 50
155.69456681170999
 51
172.23355621131611
  0
ARC
  5
CCB0
  8
0
 10
278.83384722685201
 20
58.668442083829831
 30
0.0
 40
1.2499999999999769
 50
13.464769579161899
 51
30.352137288129988
  0
ARC
  5
CCB1
  8
0
 10
278.83304904240799
 20
58.66841136048901
 30
0.0
 40
1.2492035006113931
 50
169.21029511900051
 51
186.5320993061348
  0
ARC
  5
CCB2
  8
0
 10
279.6535140569531
 20
59.148697888799369
 30
0.0
 40
0.3000004699126377
 50
30.305976315988829
 51
90.994508713165516
  0
ARC
  5
CCB3
  8
0
 10
277.90008273399991
 20
58.843324534337079
 30
0.0
 40
0.3000000001978368
 50
108.55459887769101
 51
168.66885838874671
  0
ARC
  5
CCB4
  8
0
 10
269.6447018521265
 20
55.560755520704667
 30
0.0
 40
0.2999903650123691
 50
31.422523836914952
 51
97.962912107032977
  0
ARC
  5
CCB5
  8
0
 10
267.94944772609551
 20
55.417442769771156
 30
0.0
 40
0.2938036342745671
 50
90.999257718665433
 51
158.79503883117579
  0
ARC
  5
CCB6
  8
0
 10
267.30165090862079
 20
55.300001490115562
 30
0.0
 40
0.29999999999999
 50
270.0
 51
351.30752857094819
  0
LINE
  5
CCB7
  8
0
 10
212.08803647197811
 20
60.500001516193088
 30
0.0
 11
211.78750985302051
 21
60.500001516193088
 31
0.0
  0
LINE
  5
CCB8
  8
0
 10
211.78750985302051
 20
54.50000146403903
 30
0.0
 11
212.48540946282469
 21
54.50000146403903
 31
0.0
  0
LINE
  5
CCB9
  8
0
 10
208.27751153148731
 20
49.500001110136417
 30
0.0
 11
210.1874939445409
 21
49.500001110136417
 31
0.0
  0
LINE
  5
CCBA
  8
0
 10
210.1874939445409
 20
65.500001870095673
 30
0.0
 11
208.27751153148731
 21
65.500001870095673
 31
0.0
  0
LINE
  5
CCBB
  8
0
 10
210.1874939445409
 20
49.500001110136417
 30
0.0
 11
210.68749495781981
 21
50.000001657754098
 31
0.0
  0
LINE
  5
CCBC
  8
0
 10
210.68749495781981
 20
65.000001322477999
 30
0.0
 11
210.1874939445409
 21
65.500001870095673
 31
0.0
  0
LINE
  5
CCBF
  8
0
 10
221.200159871951
 20
56.50000144261864
 30
0.0
 11
222.35486202873309
 21
56.50000144261864
 31
0.0
  0
LINE
  5
CCC0
  8
0
 10
222.35486202873309
 20
56.50000144261864
 30
0.0
 11
222.9322149697694
 21
57.500001490116027
 31
0.0
  0
LINE
  5
CCC1
  8
0
 10
222.9322149697694
 20
57.500001490116027
 30
0.0
 11
222.35486202873309
 21
58.500001537613542
 31
0.0
  0
LINE
  5
CCC2
  8
0
 10
222.35486202873309
 20
58.500001537613542
 30
0.0
 11
221.200159871951
 21
58.500001537613542
 31
0.0
  0
LINE
  5
CCC3
  8
0
 10
221.200159871951
 20
58.500001537613542
 30
0.0
 11
220.6228106562051
 21
57.500001490116027
 31
0.0
  0
LINE
  5
CCC4
  8
0
 10
220.6228106562051
 20
57.500001490116027
 30
0.0
 11
221.200159871951
 21
56.50000144261864
 31
0.0
  0
LINE
  5
CCC5
  8
0
 10
211.78750985302051
 20
63.800001498311701
 30
0.0
 11
211.78750985302051
 21
51.200191937386897
 31
0.0
  0
LINE
  5
CCC6
  8
0
 10
211.58751019276701
 20
51.000198330730107
 30
0.0
 11
211.58751019276701
 21
64.000001624226513
 31
0.0
  0
ARC
  5
CCC7
  8
0
 10
246.9247120442453
 20
-100.9353417038739
 30
0.0
 40
151.43583637348749
 50
80.047477089044563
 51
87.406355151479531
  0
ARC
  5
CCC9
  8
0
 10
246.77053304988411
 20
-108.07631639893999
 30
0.0
 40
156.57656285115459
 50
80.275242057494978
 51
87.467444580686404
  0
LINE
  5
CCCB
  8
0
 10
267.02548854984371
 20
53.000001683831179
 30
0.0
 11
253.77751433290561
 21
53.000001683831158
 31
0.0
  0
ARC
  5
CCCC
  8
0
 10
267.02097357652929
 20
71.178764775588292
 30
0.0
 40
18.178763652438398
 50
270.0142302811758
 51
289.52846425583238
  0
ARC
  5
CCCE
  8
0
 10
272.27724205526459
 20
51.000001588836277
 30
0.0
 40
1.5098785706781841
 50
57.085878960227859
 51
302.91412103977211
  0
ARC
  5
CCD1
  8
0
 10
267.33913017179879
 20
72.006161670429293
 30
0.0
 40
17.006160156301419
 50
270.00350759038861
 51
289.09422659928458
  0
POLYLINE
  5
CCD4
  8
0
 66
     1
 10
0.0
 20
0.0
 30
0.0
 70
   128
  0
VERTEX
  5
15219
  8
0
 10
276.53129690326767
 20
49.000001028180087
 30
0.0
  0
VERTEX
  5
1521A
  8
0
 10
276.58143186010437
 20
48.716403990983927
 30
0.0
  0
VERTEX
  5
1521B
  8
0
 10
276.72897570766531
 20
48.460895642638171
 30
0.0
  0
VERTEX
  5
1521C
  8
0
 10
276.95873671211331
 20
48.265901841223211
 30
0.0
  0
VERTEX
  5
1521D
  8
0
 10
277.24219405092322
 20
48.156762011349173
 30
0.0
  0
VERTEX
  5
1521E
  8
0
 10
277.54315280355542
 20
48.146049939095938
 30
0.0
  0
VERTEX
  5
1521F
  8
0
 10
277.8252243343743
 20
48.232208453118773
 30
0.0
  0
VERTEX
  5
15220
  8
0
 10
278.05795812048041
 20
48.40190287679431
 30
0.0
  0
VERTEX
  5
15221
  8
0
 10
278.22041057981568
 20
48.636205010116072
 30
0.0
  0
VERTEX
  5
15222
  8
0
 10
278.29695039428788
 20
48.911741450428927
 30
0.0
  0
VERTEX
  5
15223
  8
0
 10
278.2964288536462
 20
49.093162156641448
 30
0.0
  0
VERTEX
  5
15224
  8
0
 10
278.21684175170981
 20
49.371305368840659
 30
0.0
  0
VERTEX
  5
15225
  8
0
 10
278.04557525552832
 20
49.610525816678972
 30
0.0
  0
VERTEX
  5
15226
  8
0
 10
277.80009352602087
 20
49.779866803437443
 30
0.0
  0
VERTEX
  5
15227
  8
0
 10
277.50974440015881
 20
49.857716523110831
 30
0.0
  0
VERTEX
  5
15228
  8
0
 10
277.210275763646
 20
49.836143366992438
 30
0.0
  0
VERTEX
  5
15229
  8
0
 10
276.93720453418808
 20
49.720937833189929
 30
0.0
  0
VERTEX
  5
1522A
  8
0
 10
276.72007226385199
 20
49.528276063501799
 30
0.0
  0
VERTEX
  5
1522B
  8
0
 10
276.58008330501639
 20
49.279860667884321
 30
0.0
  0
VERTEX
  5
1522C
  8
0
 10
276.53129690326767
 20
49.000001028180087
 30
0.0
  0
SEQEND
  5
1522D
  8
0
  0
CIRCLE
  5
CCD5
  8
0
 10
277.37986349638823
 20
49.002320065378662
 30
0.0
 40
1.1327415615275569
  0
POLYLINE
  5
CCD6
  8
0
 66
     1
 10
0.0
 20
0.0
 30
0.0
 70
   128
  0
VERTEX
  5
1522E
  8
0
 10
276.53129690326767
 20
54.000001382082672
 30
0.0
  0
VERTEX
  5
1522F
  8
0
 10
276.58143186010437
 20
53.716403646394582
 30
0.0
  0
VERTEX
  5
15230
  8
0
 10
276.72897570766531
 20
53.460895996540749
 30
0.0
  0
VERTEX
  5
15231
  8
0
 10
276.95873671211331
 20
53.265901729464503
 30
0.0
  0
VERTEX
  5
15232
  8
0
 10
277.24219405092322
 20
53.156762365251751
 30
0.0
  0
VERTEX
  5
15233
  8
0
 10
277.54315280355542
 20
53.146049827337229
 30
0.0
  0
VERTEX
  5
15234
  8
0
 10
277.8252243343743
 20
53.232207875698769
 30
0.0
  0
VERTEX
  5
15235
  8
0
 10
278.05795812048041
 20
53.401902765035601
 30
0.0
  0
VERTEX
  5
15236
  8
0
 10
278.22041057981568
 20
53.636204898357363
 30
0.0
  0
VERTEX
  5
15237
  8
0
 10
278.29695039428788
 20
53.911741105839582
 30
0.0
  0
VERTEX
  5
15238
  8
0
 10
278.2964288536462
 20
54.093162044882739
 30
0.0
  0
VERTEX
  5
15239
  8
0
 10
278.21684175170981
 20
54.371305489912601
 30
0.0
  0
VERTEX
  5
1523A
  8
0
 10
278.04557525552832
 20
54.610526170581551
 30
0.0
  0
VERTEX
  5
1523B
  8
0
 10
277.80009352602087
 20
54.779866691678727
 30
0.0
  0
VERTEX
  5
1523C
  8
0
 10
277.50974440015881
 20
54.857716644182773
 30
0.0
  0
VERTEX
  5
1523D
  8
0
 10
277.210275763646
 20
54.836143255233729
 30
0.0
  0
VERTEX
  5
1523E
  8
0
 10
276.93720453418808
 20
54.72093772143122
 30
0.0
  0
VERTEX
  5
1523F
  8
0
 10
276.72007226385199
 20
54.528275718912447
 30
0.0
  0
VERTEX
  5
15240
  8
0
 10
276.58008330501639
 20
54.279860788956249
 30
0.0
  0
VERTEX
  5
15241
  8
0
 10
276.53129690326767
 20
54.000001382082672
 30
0.0
  0
SEQEND
  5
15242
  8
0
  0
CIRCLE
  5
CCD7
  8
0
 10
277.37986368465448
 20
54.002320451589952
 30
0.0
 40
1.132741749859677
  0
POLYLINE
  5
CCDA
  8
0
 66
     1
 10
0.0
 20
0.0
 30
0.0
 70
   128
  0
VERTEX
  5
15243
  8
0
 10
272.93706231750571
 20
50.806473456323118
 30
0.0
  0
VERTEX
  5
15244
  8
0
 10
272.95372926630102
 20
50.904026702046359
 30
0.0
  0
VERTEX
  5
15245
  8
0
 10
272.93706231750571
 20
51.193529721349449
 30
0.0
  0
SEQEND
  5
15246
  8
0
  0
POLYLINE
  5
CCDC
  8
0
 66
     1
 10
0.0
 20
0.0
 30
0.0
 70
   128
  0
VERTEX
  5
15247
  8
0
 10
273.23592000640951
 20
51.254643574356997
 30
0.0
  0
VERTEX
  5
15248
  8
0
 10
273.25720631517493
 20
50.873719137161942
 30
0.0
  0
VERTEX
  5
15249
  8
0
 10
273.23592000640951
 20
50.745359137654269
 30
0.0
  0
SEQEND
  5
1524A
  8
0
  0
POLYLINE
  5
CCDF
  8
0
 66
     1
 10
0.0
 20
0.0
 30
0.0
 70
   128
  0
VERTEX
  5
1524B
  8
0
 10
272.93706231750571
 20
51.193529721349449
 30
0.0
  0
VERTEX
  5
1524C
  8
0
 10
272.91523956693732
 20
51.273539178073371
 30
0.0
  0
VERTEX
  5
1524D
  8
0
 10
272.78321527875983
 20
51.52834950014946
 30
0.0
  0
VERTEX
  5
1524E
  8
0
 10
272.57730358280259
 20
51.723497901111813
 30
0.0
  0
VERTEX
  5
1524F
  8
0
 10
272.32045971788489
 20
51.837446615099878
 30
0.0
  0
VERTEX
  5
15250
  8
0
 10
272.04112255014502
 20
51.857467722147668
 30
0.0
  0
VERTEX
  5
15251
  8
0
 10
271.77041315473639
 20
51.780964694917166
 30
0.0
  0
VERTEX
  5
15252
  8
0
 10
271.53901302255713
 20
51.616085674613679
 30
0.0
  0
VERTEX
  5
15253
  8
0
 10
271.37355797924118
 20
51.381257344037259
 30
0.0
  0
VERTEX
  5
15254
  8
0
 10
271.29316621460038
 20
51.103255227208109
 30
0.0
  0
VERTEX
  5
15255
  8
0
 10
271.3069348875436
 20
50.8137238025665
 30
0.0
  0
VERTEX
  5
15256
  8
0
 10
271.4127778355035
 20
50.546018853783579
 30
0.0
  0
VERTEX
  5
15257
  8
0
 10
271.59839414991461
 20
50.329564586281741
 30
0.0
  0
VERTEX
  5
15258
  8
0
 10
271.84272103942948
 20
50.188453383743727
 30
0.0
  0
VERTEX
  5
15259
  8
0
 10
272.11853408254711
 20
50.138333793729508
 30
0.0
  0
VERTEX
  5
1525A
  8
0
 10
272.39511453546612
 20
50.185068957507582
 30
0.0
  0
VERTEX
  5
1525B
  8
0
 10
272.64137112535559
 20
50.323876533657277
 30
0.0
  0
VERTEX
  5
1525C
  8
0
 10
272.82913320697872
 20
50.539223924279177
 30
0.0
  0
VERTEX
  5
1525D
  8
0
 10
272.93706231750571
 20
50.806473456323118
 30
0.0
  0
SEQEND
  5
1525E
  8
0
  0
POLYLINE
  5
CCE0
  8
0
 66
     1
 10
0.0
 20
0.0
 30
0.0
 70
   128
  0
VERTEX
  5
1525F
  8
0
 10
273.23592000640951
 20
50.745359137654269
 30
0.0
  0
VERTEX
  5
15260
  8
0
 10
273.09339039959042
 20
50.39371501654383
 30
0.0
  0
VERTEX
  5
15261
  8
0
 10
272.84544997848587
 20
50.110363848507369
 30
0.0
  0
VERTEX
  5
15262
  8
0
 10
272.52026938833319
 20
49.927722178399527
 30
0.0
  0
VERTEX
  5
15263
  8
0
 10
272.15503447689139
 20
49.866227880120249
 30
0.0
  0
VERTEX
  5
15264
  8
0
 10
271.79082029499142
 20
49.932174831628771
 30
0.0
  0
VERTEX
  5
15265
  8
0
 10
271.46818035282217
 20
50.117847491055699
 30
0.0
  0
VERTEX
  5
15266
  8
0
 10
271.22307115234457
 20
50.402656178921433
 30
0.0
  0
VERTEX
  5
15267
  8
0
 10
271.0832535568627
 20
50.75512917712328
 30
0.0
  0
VERTEX
  5
15268
  8
0
 10
271.06511884368979
 20
51.135861296206677
 30
0.0
  0
VERTEX
  5
15269
  8
0
 10
271.17128216661541
 20
51.501653604209388
 30
0.0
  0
VERTEX
  5
1526A
  8
0
 10
271.3897704426202
 20
51.810638494789572
 30
0.0
  0
VERTEX
  5
1526B
  8
0
 10
271.69533365406119
 20
52.02758496627208
 30
0.0
  0
VERTEX
  5
1526C
  8
0
 10
272.05281251110159
 20
52.128246501088107
 30
0.0
  0
VERTEX
  5
1526D
  8
0
 10
272.42168330587469
 20
52.101902645081253
 30
0.0
  0
VERTEX
  5
1526E
  8
0
 10
272.76084863580792
 20
51.951970420777769
 30
0.0
  0
VERTEX
  5
1526F
  8
0
 10
273.0327575746926
 20
51.695195939391823
 30
0.0
  0
VERTEX
  5
15270
  8
0
 10
273.20710116066061
 20
51.359919346868963
 30
0.0
  0
VERTEX
  5
15271
  8
0
 10
273.23592000640951
 20
51.254643574356997
 30
0.0
  0
SEQEND
  5
15272
  8
0
  0
ARC
  5
CCE3
  8
0
 10
277.26672421113238
 20
49.08136994245023
 30
0.0
 40
1.56594484491386
 50
236.25295502735111
 51
304.87354451965899
  0
POLYLINE
  5
CCE4
  8
0
 66
     1
 10
0.0
 20
0.0
 30
0.0
 70
   128
  0
VERTEX
  5
15273
  8
0
 10
276.39679902233212
 20
47.779289521276922
 30
0.0
  0
VERTEX
  5
15274
  8
0
 10
276.13791369833081
 20
48.02963182330128
 30
0.0
  0
VERTEX
  5
15275
  8
0
 10
275.88585310615622
 20
48.474600985646219
 30
0.0
  0
VERTEX
  5
15276
  8
0
 10
275.80323361791687
 20
48.827434405684443
 30
0.0
  0
VERTEX
  5
15277
  8
0
 10
275.82913183607178
 20
49.329339042305911
 30
0.0
  0
VERTEX
  5
15278
  8
0
 10
276.01399564184271
 20
49.794087633490527
 30
0.0
  0
VERTEX
  5
15279
  8
0
 10
276.33703046478348
 20
50.172907281666959
 30
0.0
  0
VERTEX
  5
1527A
  8
0
 10
276.76549100317078
 20
50.425701290368998
 30
0.0
  0
VERTEX
  5
1527B
  8
0
 10
277.25085907615738
 20
50.520440079271758
 30
0.0
  0
VERTEX
  5
1527C
  8
0
 10
277.73550444282608
 20
50.443435534834833
 30
0.0
  0
VERTEX
  5
1527D
  8
0
 10
278.16386067308508
 20
50.201891437172861
 30
0.0
  0
VERTEX
  5
1527E
  8
0
 10
278.48831855691992
 20
49.822531621903153
 30
0.0
  0
VERTEX
  5
1527F
  8
0
 10
278.6738976184281
 20
49.35126516968009
 30
0.0
  0
VERTEX
  5
15280
  8
0
 10
278.71179872192471
 20
49.000001028180087
 30
0.0
  0
VERTEX
  5
15281
  8
0
 10
278.70460891164862
 20
48.846137225627871
 30
0.0
  0
VERTEX
  5
15282
  8
0
 10
278.58266525901882
 20
48.36293075233695
 30
0.0
  0
VERTEX
  5
15283
  8
0
 10
278.32072519697272
 20
47.949077077209921
 30
0.0
  0
VERTEX
  5
15284
  8
0
 10
278.16207998432242
 20
47.7966437861323
 30
0.0
  0
SEQEND
  5
15285
  8
0
  0
POLYLINE
  5
CCE5
  8
0
 66
     1
 10
0.0
 20
0.0
 30
0.0
 70
   128
  0
VERTEX
  5
15286
  8
0
 10
277.1971925441178
 20
55.518405260518158
 30
0.0
  0
VERTEX
  5
15287
  8
0
 10
276.65073716081702
 20
55.36377986893055
 30
0.0
  0
VERTEX
  5
15288
  8
0
 10
276.28264122642599
 20
55.124812740832539
 30
0.0
  0
SEQEND
  5
15289
  8
0
  0
POLYLINE
  5
CCE6
  8
0
 66
     1
 10
0.0
 20
0.0
 30
0.0
 70
   128
  0
VERTEX
  5
1528A
  8
0
 10
277.1971925441178
 20
55.518405260518158
 30
0.0
  0
VERTEX
  5
1528B
  8
0
 10
277.25085907615738
 20
55.5204402003437
 30
0.0
  0
VERTEX
  5
1528C
  8
0
 10
277.73550444282608
 20
55.443435423076117
 30
0.0
  0
VERTEX
  5
1528D
  8
0
 10
278.16386067308508
 20
55.201891558244789
 30
0.0
  0
VERTEX
  5
1528E
  8
0
 10
278.48831855691992
 20
54.822531510144437
 30
0.0
  0
VERTEX
  5
1528F
  8
0
 10
278.6738976184281
 20
54.351265290752018
 30
0.0
  0
VERTEX
  5
15290
  8
0
 10
278.71179872192471
 20
54.000001382082672
 30
0.0
  0
VERTEX
  5
15291
  8
0
 10
278.70460891164862
 20
53.846137113869162
 30
0.0
  0
VERTEX
  5
15292
  8
0
 10
278.58266525901882
 20
53.362930174916947
 30
0.0
  0
VERTEX
  5
15293
  8
0
 10
278.32072519697272
 20
52.949076965451212
 30
0.0
  0
VERTEX
  5
15294
  8
0
 10
277.94047736562811
 20
52.64722647145387
 30
0.0
  0
VERTEX
  5
15295
  8
0
 10
277.47834020294272
 20
52.493763137608731
 30
0.0
  0
VERTEX
  5
15296
  8
0
 10
276.98575996793829
 20
52.509627286344731
 30
0.0
  0
VERTEX
  5
15297
  8
0
 10
276.52038925327378
 20
52.694862689822877
 30
0.0
  0
VERTEX
  5
15298
  8
0
 10
276.13791369833081
 20
53.029632177203858
 30
0.0
  0
VERTEX
  5
15299
  8
0
 10
275.88585310615622
 20
53.47460087388751
 30
0.0
  0
VERTEX
  5
1529A
  8
0
 10
275.80323361791687
 20
53.82743406109509
 30
0.0
  0
VERTEX
  5
1529B
  8
0
 10
275.82913183607178
 20
54.329339163377853
 30
0.0
  0
VERTEX
  5
1529C
  8
0
 10
276.01399564184271
 20
54.794087521731818
 30
0.0
  0
VERTEX
  5
1529D
  8
0
 10
276.28264122642599
 20
55.124812740832539
 30
0.0
  0
SEQEND
  5
1529E
  8
0
  0
ARC
  5
CCE7
  8
0
 10
272.19373612545292
 20
51.000001588836277
 30
0.0
 40
1.556833237172863
 50
305.49494371396668
 51
54.505056286033302
  0
LINE
  5
CCEA
  8
0
 10
275.15199326910101
 20
56.901148327160598
 30
0.0
 11
275.79801076091849
 21
57.25331003079188
 31
0.0
  0
POLYLINE
  5
CCEE
  8
0
 66
     1
 10
0.0
 20
0.0
 30
0.0
 70
   128
  0
VERTEX
  5
1529F
  8
0
 10
277.7939691487702
 20
45.81099607050416
 30
0.0
  0
VERTEX
  5
152A0
  8
0
 10
276.9003763142976
 20
45.750889442861052
 30
0.0
  0
VERTEX
  5
152A1
  8
0
 10
275.97151243127911
 20
45.78830160200593
 30
0.0
  0
SEQEND
  5
152A2
  8
0
  0
POLYLINE
  5
CCF0
  8
0
 66
     1
 10
0.0
 20
0.0
 30
0.0
 70
   128
  0
VERTEX
  5
152A3
  8
0
 10
275.6806417647752
 20
47.85832714289424
 30
0.0
  0
VERTEX
  5
152A4
  8
0
 10
276.01239376701437
 20
47.8154136613011
 30
0.0
  0
VERTEX
  5
152A5
  8
0
 10
276.39679902233212
 20
47.779289521276922
 30
0.0
  0
SEQEND
  5
152A6
  8
0
  0
POLYLINE
  5
CCF1
  8
0
 66
     1
 10
0.0
 20
0.0
 30
0.0
 70
   128
  0
VERTEX
  5
152A7
  8
0
 10
275.97151243127911
 20
45.78830160200593
 30
0.0
  0
VERTEX
  5
152A8
  8
0
 10
275.5746572557839
 20
45.835541076958151
 30
0.0
  0
VERTEX
  5
152A9
  8
0
 10
275.23216151632391
 20
45.891658850014181
 30
0.0
  0
SEQEND
  5
152AA
  8
0
  0
POLYLINE
  5
CCF3
  8
0
 66
     1
 10
0.0
 20
0.0
 30
0.0
 70
   128
  0
VERTEX
  5
152AB
  8
0
 10
273.09768193401419
 20
48.221582993864978
 30
0.0
  0
VERTEX
  5
152AC
  8
0
 10
274.36937683261948
 20
48.0461739748716
 30
0.0
  0
VERTEX
  5
152AD
  8
0
 10
275.6806417647752
 20
47.85832714289424
 30
0.0
  0
SEQEND
  5
152AE
  8
0
  0
POLYLINE
  5
CCF4
  8
0
 66
     1
 10
0.0
 20
0.0
 30
0.0
 70
   128
  0
VERTEX
  5
152AF
  8
0
 10
275.23216151632391
 20
45.891658850014181
 30
0.0
  0
VERTEX
  5
152B0
  8
0
 10
274.22900044359289
 20
46.073753833770724
 30
0.0
  0
VERTEX
  5
152B1
  8
0
 10
273.21870916523062
 20
46.250330731272669
 30
0.0
  0
SEQEND
  5
152B2
  8
0
  0
ARC
  5
CCF5
  8
0
 10
276.77758071941071
 20
54.249895927201372
 30
0.0
 40
8.4998868363468283
 50
276.86767344732561
 51
337.1372426940415
  0
ARC
  5
CCF6
  8
0
 10
265.77845489020001
 20
80.888425636382493
 30
0.0
 40
27.822682832859648
 50
285.2521195251922
 51
292.18141130613412
  0
LINE
  5
CCF7
  8
0
 10
278.5268902126702
 20
56.16666817106303
 30
0.0
 11
277.1971925441178
 21
55.518405260518158
 31
0.0
  0
ARC
  5
CCF8
  8
0
 10
267.34007960769168
 20
72.000207555199751
 30
0.0
 40
17.000223075746572
 50
289.09776718398808
 51
297.35602885515073
  0
ARC
  5
CCF9
  8
0
 10
279.77718748724061
 20
53.251889750237837
 30
0.0
 40
5.498249555590542
 50
30.01868844120126
 51
123.56540688395221
  0
LINE
  5
CCFB
  8
0
 10
275.79801076091849
 20
57.25331003079188
 30
0.0
 11
276.73726820386969
 21
57.833334819879347
 31
0.0
  0
LINE
  5
CCFD
  8
0
 10
253.77751433290561
 20
55.000001545995417
 30
0.0
 11
267.34017127193528
 21
55.000001545995417
 31
0.0
  0
POLYLINE
  5
CCFE
  8
0
 66
     1
 10
0.0
 20
0.0
 30
0.0
 70
   128
  0
VERTEX
  5
152B3
  8
0
 10
232.44669579900821
 20
61.09883448109025
 30
0.0
  0
VERTEX
  5
152B4
  8
0
 10
231.60608404316031
 20
62.772395070642169
 30
0.0
  0
VERTEX
  5
152B5
  8
0
 10
230.4986371938142
 20
64.282696675509158
 30
0.0
  0
VERTEX
  5
152B6
  8
0
 10
229.14915078319629
 20
65.583253726363125
 30
0.0
  0
VERTEX
  5
152B7
  8
0
 10
227.59842419065561
 20
66.635652892291489
 30
0.0
  0
VERTEX
  5
152B8
  8
0
 10
225.92071735300149
 20
67.391424886882248
 30
0.0
  0
VERTEX
  5
152B9
  8
0
 10
224.13906746543969
 20
67.850673086941185
 30
0.0
  0
VERTEX
  5
152BA
  8
0
 10
222.34126844443401
 20
67.993182204663697
 30
0.0
  0
VERTEX
  5
152BB
  8
0
 10
220.5457269493493
 20
67.82773740589613
 30
0.0
  0
VERTEX
  5
152BC
  8
0
 10
218.84004318155371
 20
67.364443540573063
 30
0.0
  0
VERTEX
  5
152BD
  8
0
 10
217.2383881453427
 20
66.617797575890961
 30
0.0
  0
VERTEX
  5
152BE
  8
0
 10
215.8185160998257
 20
65.625696890056076
 30
0.0
  0
VERTEX
  5
152BF
  8
0
 10
214.5884364191445
 20
64.406623113900366
 30
0.0
  0
VERTEX
  5
152C0
  8
0
 10
213.60804804600801
 20
63.021161109208997
 30
0.0
  0
VERTEX
  5
152C1
  8
0
 10
212.87801408208929
 20
61.489131748676243
 30
0.0
  0
VERTEX
  5
152C2
  8
0
 10
212.43407123722159
 20
59.887345163151558
 30
0.0
  0
VERTEX
  5
152C3
  8
0
 10
212.270080232993
 20
58.233340193983139
 30
0.0
  0
VERTEX
  5
152C4
  8
0
 10
212.3923889640721
 20
56.613999400287831
 30
0.0
  0
VERTEX
  5
152C5
  8
0
 10
212.78944530524339
 20
55.039369482546988
 30
0.0
  0
VERTEX
  5
152C6
  8
0
 10
213.43751543201529
 20
53.592022955417569
 30
0.0
  0
VERTEX
  5
152C7
  8
0
 10
214.3232181016358
 20
52.276712823659118
 30
0.0
  0
VERTEX
  5
152C8
  8
0
 10
215.39720066823091
 20
51.161354389041627
 30
0.0
  0
VERTEX
  5
152C9
  8
0
 10
216.6457838658246
 20
50.245966743677819
 30
0.0
  0
VERTEX
  5
152CA
  8
0
 10
218.00111153163039
 20
49.576624743640387
 30
0.0
  0
VERTEX
  5
152CB
  8
0
 10
219.45061453618129
 20
49.148780740797491
 30
0.0
  0
VERTEX
  5
152CC
  8
0
 10
220.6003397051247
 20
48.99707574397322
 30
0.0
  0
VERTEX
  5
152CD
  8
0
 10
221.76005237735831
 20
49.000001028180087
 30
0.0
  0
SEQEND
  5
152CE
  8
0
  0
POLYLINE
  5
CD00
  8
0
 66
     1
 10
0.0
 20
0.0
 30
0.0
 70
   128
  0
VERTEX
  5
152CF
  8
0
 10
221.7775128129872
 20
48.500001877546282
 30
0.0
  0
VERTEX
  5
152D0
  8
0
 10
221.7774494830521
 20
48.499997220933409
 30
0.0
  0
VERTEX
  5
152D1
  8
0
 10
220.57039954699599
 20
48.49715575575825
 30
0.0
  0
VERTEX
  5
152D2
  8
0
 10
219.35185709036909
 20
48.658631257712813
 30
0.0
  0
VERTEX
  5
152D3
  8
0
 10
217.84151636995401
 20
49.100827872753108
 30
0.0
  0
VERTEX
  5
152D4
  8
0
 10
216.38665639795391
 20
49.818353708833421
 30
0.0
  0
VERTEX
  5
152D5
  8
0
 10
215.08604579605191
 20
50.767362564802141
 30
0.0
  0
VERTEX
  5
152D6
  8
0
 10
213.93445798195921
 20
51.962285749614182
 30
0.0
  0
VERTEX
  5
152D7
  8
0
 10
213.01159181632119
 20
53.326460514217558
 30
0.0
  0
VERTEX
  5
152D8
  8
0
 10
212.31711202301111
 20
54.875350771471801
 30
0.0
  0
VERTEX
  5
152D9
  8
0
 10
211.9020513538274
 20
56.508084041997733
 30
0.0
  0
VERTEX
  5
152DA
  8
0
 10
211.77011274732669
 20
58.239133660681489
 30
0.0
  0
VERTEX
  5
152DB
  8
0
 10
211.93702065385901
 20
59.953324245288911
 30
0.0
  0
VERTEX
  5
152DC
  8
0
 10
212.4095774535092
 20
61.663972660899098
 30
0.0
  0
VERTEX
  5
152DD
  8
0
 10
213.16248842515071
 20
63.251105118542853
 30
0.0
  0
VERTEX
  5
152DE
  8
0
 10
214.20667984522899
 20
64.729518704116288
 30
0.0
  0
VERTEX
  5
152DF
  8
0
 10
215.47645249404039
 20
65.992416329681816
 30
0.0
  0
VERTEX
  5
152E0
  8
0
 10
216.98816039599501
 20
67.050678171217385
 30
0.0
  0
VERTEX
  5
152E1
  8
0
 10
218.64131757058229
 20
67.825260087847653
 30
0.0
  0
VERTEX
  5
152E2
  8
0
 10
220.456416839734
 20
68.319696448743287
 30
0.0
  0
VERTEX
  5
152E3
  8
0
 10
222.30926075018971
 20
68.494431190192643
 30
0.0
  0
VERTEX
  5
152E4
  8
0
 10
224.221150511876
 20
68.343888483941498
 30
0.0
  0
VERTEX
  5
152E5
  8
0
 10
226.0594024602326
 20
67.874420881271305
 30
0.0
  0
VERTEX
  5
152E6
  8
0
 10
227.8422593418511
 20
67.072166576981488
 30
0.0
  0
VERTEX
  5
152E7
  8
0
 10
229.44227897562109
 20
65.991221442818585
 30
0.0
  0
VERTEX
  5
152E8
  8
0
 10
230.875368351117
 20
64.611443765461388
 30
0.0
  0
VERTEX
  5
152E9
  8
0
 10
231.48947500623791
 20
63.844472616910878
 30
0.0
  0
VERTEX
  5
152EA
  8
0
 10
232.2753845993432
 20
62.619706597179118
 30
0.0
  0
VERTEX
  5
152EB
  8
0
 10
232.91090422309961
 20
61.284604230895582
 30
0.0
  0
SEQEND
  5
152EC
  8
0
  0
ARC
  5
CD03
  8
0
 10
242.55948723230219
 20
64.743258891153403
 30
0.0
 40
10.74943625749591
 50
199.81803127930399
 51
268.05725478903668
  0
POLYLINE
  5
CD04
  8
0
 66
     1
 10
0.0
 20
0.0
 30
0.0
 70
   128
  0
VERTEX
  5
152ED
  8
0
 10
253.77751433290561
 20
53.000001683831158
 30
0.0
  0
VERTEX
  5
152EE
  8
0
 10
251.6154527012261
 20
53.091526012867632
 30
0.0
  0
VERTEX
  5
152EF
  8
0
 10
249.45339852012719
 20
53.314066007733288
 30
0.0
  0
VERTEX
  5
152F0
  8
0
 10
247.2913443390282
 20
53.589569386094752
 30
0.0
  0
VERTEX
  5
152F1
  8
0
 10
244.74320852197729
 20
53.87609752826387
 30
0.0
  0
VERTEX
  5
152F2
  8
0
 10
242.19507270492639
 20
54.000001382082637
 30
0.0
  0
SEQEND
  5
152F3
  8
0
  0
POLYLINE
  5
CD05
  8
0
 66
     1
 10
0.0
 20
0.0
 30
0.0
 70
   128
  0
VERTEX
  5
152F4
  8
0
 10
246.77750759758081
 20
50.000001657754147
 30
0.0
  0
VERTEX
  5
152F5
  8
0
 10
248.52316373027881
 20
50.0684790126979
 30
0.0
  0
VERTEX
  5
152F6
  8
0
 10
250.2732380572709
 20
50.211387667804921
 30
0.0
  0
VERTEX
  5
152F7
  8
0
 10
252.0254507008942
 20
50.33494390547272
 30
0.0
  0
VERTEX
  5
152F8
  8
0
 10
253.77751433290561
 20
50.345363076776231
 30
0.0
  0
SEQEND
  5
152F9
  8
0
  0
POLYLINE
  5
CD06
  8
0
 66
     1
 10
0.0
 20
0.0
 30
0.0
 70
   128
  0
VERTEX
  5
152FA
  8
0
 10
221.76005237735831
 20
49.000001028180087
 30
0.0
  0
VERTEX
  5
152FB
  8
0
 10
226.4299794379624
 20
49.091009870171519
 30
0.0
  0
VERTEX
  5
152FC
  8
0
 10
231.0999064985665
 20
49.313451610505552
 30
0.0
  0
VERTEX
  5
152FD
  8
0
 10
235.76982610859
 20
49.589114710688563
 30
0.0
  0
VERTEX
  5
152FE
  8
0
 10
241.27366685308539
 20
49.875939246267052
 30
0.0
  0
VERTEX
  5
152FF
  8
0
 10
246.77750759758081
 20
50.000001657754147
 30
0.0
  0
SEQEND
  5
15300
  8
0
  0
CIRCLE
  5
CD07
  8
0
 10
221.77751111425479
 20
57.500001490116091
 30
0.0
 40
6.5
  0
ARC
  5
CD09
  8
0
 10
246.77746701575421
 20
-108.0130823921364
 30
0.0
 40
156.51308426968791
 50
87.468957600872727
 51
89.999985143939924
  0
ARC
  5
CD0A
  8
0
 10
242.1950664489095
 20
64.999989249606884
 30
0.0
 40
9.9999877036134315
 50
201.81056020150859
 51
270.00003584438429
  0
LINE
  5
CD0C
  8
0
 10
246.77750759758081
 20
48.500001877546282
 30
0.0
 11
221.7775128129872
 21
48.500001877546282
 31
0.0
  0
LINE
  5
CD0D
  8
0
 10
242.19507270492639
 20
55.000001545995417
 30
0.0
 11
253.77751433290561
 21
55.000001545995417
 31
0.0
  0
CIRCLE
  5
CD0E
  8
0
 10
221.77751111425479
 20
57.500001490116063
 30
0.0
 40
6.0
  0
ARC
  5
CD0F
  8
0
 10
246.73883699532189
 20
-108.23135267586341
 30
0.0
 40
156.0347244658889
 50
79.729770169135335
 51
80.360511995767226
  0
ARC
  5
CD10
  8
0
 10
267.34000952019119
 20
72.00042333115573
 30
0.0
 40
16.30045060920812
 50
289.51693893692482
 51
295.39560426089878
  0
ARC
  5
CD11
  8
0
 10
251.74007574362119
 20
-73.152000293293085
 30
0.0
 40
120.6012264525796
 50
81.490803157690834
 51
82.30467281679212
  0
ARC
  5
CD12
  8
0
 10
276.77760118681613
 20
54.24965901454064
 30
0.0
 40
9.1996471950719041
 50
278.31645623500032
 51
289.67882775815582
  0
ARC
  5
CD14
  8
0
 10
279.77749293695177
 20
53.250068993558209
 30
0.0
 40
6.1999302213615302
 50
91.193939305107975
 51
108.55463822458501
  0
ARC
  5
CD15
  8
0
 10
267.35078243333851
 20
71.879946341513232
 30
0.0
 40
16.17963516526105
 50
272.10233764934429
 51
278.00211392376622
  0
LINE
  5
CD16
  8
0
 10
267.88924925960617
 20
46.363103650510233
 30
0.0
 11
267.88922690786438
 21
46.36310644447795
 31
0.0
  0
LINE
  5
CD17
  8
0
 10
267.88924925960617
 20
46.363103650510233
 30
0.0
 11
267.88922690786438
 21
46.36310644447795
 31
0.0
  0
CIRCLE
  5
CD19
  8
0
 10
221.77751111425479
 20
57.500001490116063
 30
0.0
 40
5.9999999999999956
  0
LINE
  5
CD1B
  8
0
 10
159.50000158511119
 20
80.000002384185777
 30
0.0
 11
160.27751111425479
 21
80.000002384185777
 31
0.0
  0
LINE
  5
CD1C
  8
0
 10
160.27751111425479
 20
35.000000596046419
 30
0.0
 11
159.50000158511119
 21
35.000000596046419
 31
0.0
  0
LINE
  5
CD1D
  8
0
 10
157.50000149011629
 20
37.000000923871973
 30
0.0
 11
159.50000158511119
 21
35.000000596046419
 31
0.0
  0
LINE
  5
CD20
  8
0
 10
158.5000015376138
 20
79.000002220272989
 30
0.0
 11
158.500001537614
 21
36.000000759959022
 31
0.0
  0
LINE
  5
CD21
  8
0
 10
159.50000158511119
 20
80.000002384185777
 30
0.0
 11
157.50000149011629
 21
78.000002056360216
 31
0.0
  0
LINE
  5
CD22
  8
0
 10
157.50000149011629
 20
37.000000923871973
 30
0.0
 11
157.50000149011629
 21
50.000001657754147
 31
0.0
  0
LINE
  5
CD23
  8
0
 10
157.50000149011629
 20
50.000001657754147
 30
0.0
 11
158.5000015376138
 21
51.00000135600564
 31
0.0
  0
LINE
  5
CD25
  8
0
 10
157.50000149011629
 20
65.000001322478013
 30
0.0
 11
157.50000149011629
 21
78.000002056360216
 31
0.0
  0
LINE
  5
CD27
  8
0
 10
158.5000015376138
 20
64.000001624226542
 30
0.0
 11
157.50000149011629
 21
65.000001322478013
 31
0.0
  0
LINE
  5
CD28
  8
0
 10
210.1874939445409
 20
49.500001110136417
 30
0.0
 11
210.1874939445409
 21
65.500001870095673
 31
0.0
  0
LINE
  5
CD29
  8
0
 10
210.68749495781981
 20
65.000001322477999
 30
0.0
 11
210.68749495781981
 21
50.000001657754098
 31
0.0
  0
LINE
  5
CD3F
  8
0
 10
175.27751077897869
 20
20.0
 30
0.0
 11
165.27751100249611
 21
20.0
 31
0.0
  0
ARC
  5
CD41
  8
0
 10
165.27751111425479
 20
25.000001490116119
 30
0.0
 40
5.0
 50
180.0
 51
270.0
  0
ARC
  5
CD44
  8
0
 10
175.27751111425459
 20
25.000001490116119
 30
0.0
 40
5.0
 50
270.0
 51
0.0
  0
ARC
  5
CD46
  8
0
 10
172.27751111425459
 20
27.200001490116112
 30
0.0
 40
3.0
 50
270.0
 51
0.0
  0
LINE
  5
CD48
  8
0
 10
168.2775114942344
 20
24.200000315904621
 30
0.0
 11
172.27751121856289
 21
24.200000315904621
 31
0.0
  0
ARC
  5
CD4A
  8
0
 10
168.27751111425479
 20
27.200001490116112
 30
0.0
 40
3.0
 50
180.0
 51
270.0
  0
LINE
  5
CD4C
  8
0
 10
160.27751111425479
 20
25.000002682209011
 30
0.0
 11
160.27751111425479
 21
90.000001490116148
 31
0.0
  0
LINE
  5
CD4F
  8
0
 10
180.27751066722001
 20
27.928933948278431
 30
0.0
 11
180.27751066722001
 21
25.000002682209011
 31
0.0
  0
LINE
  5
CD50
  8
0
 10
175.27751077897869
 20
27.20000080764294
 30
0.0
 11
175.27751077897869
 21
27.80000165104866
 31
0.0
  0
LINE
  5
CD52
  8
0
 10
165.27751100249611
 20
27.80000165104866
 30
0.0
 11
165.27751100249611
 21
27.20000080764294
 31
0.0
  0
ARC
  5
CD54
  8
0
 10
172.27751111425459
 20
27.800001490116099
 30
0.0
 40
3.0000000000000031
 50
0.0
 51
90.0
  0
ARC
  5
CD57
  8
0
 10
168.27751111425479
 20
27.800001490116099
 30
0.0
 40
3.0
 50
90.0
 51
180.0
  0
ARC
  5
CD59
  8
0
 10
185.27751111425459
 20
27.92893367825064
 30
0.0
 40
5.0
 50
134.99999999999599
 51
180.0
  0
LINE
  5
CD5A
  8
0
 10
172.27751121856289
 20
30.80000214278698
 30
0.0
 11
168.2775114942344
 21
30.80000214278698
 31
0.0
  0
LINE
  5
CD5C
  8
0
 10
183.81304585374909
 20
33.535534963011742
 30
0.0
 11
181.74197630025469
 21
31.464467272162441
 31
0.0
  0
ARC
  5
CD5E
  8
0
 10
187.3485789261201
 20
30.000001490116119
 30
0.0
 40
5.0000000000000009
 50
90.0
 51
134.99999999999599
  0
ARC
  5
CD5F
  8
0
 10
206.27751111425459
 20
37.000001490116119
 30
0.0
 40
2.0
 50
270.0
 51
0.0
  0
LINE
  5
CD62
  8
0
 10
206.27751120366179
 20
35.000000596046448
 30
0.0
 11
187.3485791776331
 21
35.000000596046448
 31
0.0
  0
LINE
  5
CD65
  8
0
 10
208.27751153148731
 20
50.000001657754183
 30
0.0
 11
160.27751111425479
 21
50.000001657754183
 31
0.0
  0
LINE
  5
CD68
  8
0
 10
208.27751153148731
 20
78.000002056360273
 30
0.0
 11
208.27751153148731
 21
37.000001490116119
 31
0.0
  0
LINE
  5
CD6B
  8
0
 10
208.27751153148731
 20
65.000001322478056
 30
0.0
 11
160.27751111425479
 21
65.000001322478056
 31
0.0
  0
ARC
  5
CD81
  8
0
 10
206.27751111425459
 20
78.000001490116091
 30
0.0
 40
2.0
 50
0.0
 51
90.0
  0
LINE
  5
CD83
  8
0
 10
187.3485791776331
 20
80.000002384185819
 30
0.0
 11
206.27751120366179
 21
80.000002384185819
 31
0.0
  0
ARC
  5
CD85
  8
0
 10
187.3485789261201
 20
85.000001490116105
 30
0.0
 40
5.0
 50
225.00000000000401
 51
270.0
  0
LINE
  5
CD87
  8
0
 10
181.74197630025469
 20
83.53553570806983
 30
0.0
 11
183.81304585374909
 21
81.464468017220526
 31
0.0
  0
ARC
  5
CD89
  8
0
 10
185.27751111425459
 20
87.071069301981566
 30
0.0
 40
5.0
 50
180.0
 51
225.00000000000401
  0
LINE
  5
CD8B
  8
0
 10
168.2775114942344
 20
84.200000837445288
 30
0.0
 11
172.27751121856289
 21
84.200000837445288
 31
0.0
  0
ARC
  5
CD8E
  8
0
 10
168.27751111425479
 20
87.200001490116094
 30
0.0
 40
3.0
 50
180.0
 51
270.0
  0
ARC
  5
CD90
  8
0
 10
172.27751111425459
 20
87.200001490116094
 30
0.0
 40
3.0
 50
270.0
 51
0.0
  0
LINE
  5
CD92
  8
0
 10
180.27751066722001
 20
90.000000298023252
 30
0.0
 11
180.27751066722001
 21
87.07106903195384
 31
0.0
  0
LINE
  5
CD95
  8
0
 10
165.27751100249611
 20
87.80000217258933
 30
0.0
 11
165.27751100249611
 21
87.200001329183607
 31
0.0
  0
LINE
  5
CD96
  8
0
 10
175.27751077897869
 20
87.200001329183607
 30
0.0
 11
175.27751077897869
 21
87.80000217258933
 31
0.0
  0
ARC
  5
CD99
  8
0
 10
168.27751111425479
 20
87.800001490116117
 30
0.0
 40
3.0000000000000142
 50
90.0
 51
180.0
  0
ARC
  5
CD9A
  8
0
 10
172.27751111425459
 20
87.800001490116117
 30
0.0
 40
3.0000000000000142
 50
0.0
 51
90.0
  0
ARC
  5
CD9C
  8
0
 10
175.27751111425459
 20
90.000001490116148
 30
0.0
 40
5.0
 50
0.0
 51
90.0
  0
ARC
  5
CD9E
  8
0
 10
165.27751111425479
 20
90.000001490116148
 30
0.0
 40
5.0
 50
90.0
 51
180.0
  0
LINE
  5
CDA0
  8
0
 10
172.27751121856289
 20
90.80000266432765
 30
0.0
 11
168.2775114942344
 21
90.80000266432765
 31
0.0
  0
LINE
  5
CDA1
  8
0
 10
165.27751100249611
 20
95.000002980232267
 30
0.0
 11
175.27751077897869
 21
95.000002980232267
 31
0.0
  0
CIRCLE
  5
CDA2
  8
0
 10
190.27751111425459
 20
57.500001490116112
 30
0.0
 40
2.5000000000000071
  0
CIRCLE
  5
CDA5
  8
0
 10
190.27751111425459
 20
57.500001490116112
 30
0.0
 40
1.999999999999992
  0
POLYLINE
  5
CDA6
  8
0
 66
     1
 10
0.0
 20
0.0
 30
0.0
 70
   128
  0
VERTEX
  5
15301
  8
0
 10
278.16207998432242
 20
47.7966437861323
 30
0.0
  0
VERTEX
  5
15302
  8
0
 10
278.45552855171292
 20
47.828786522150011
 30
0.0
  0
VERTEX
  5
15303
  8
0
 10
279.55683612264721
 20
48.02733611315486
 30
0.0
  0
VERTEX
  5
15304
  8
0
 10
280.595305496827
 20
48.336509130895109
 30
0.0
  0
VERTEX
  5
15305
  8
0
 10
281.75074153579789
 20
48.844941407442057
 30
0.0
  0
VERTEX
  5
15306
  8
0
 10
282.7511309925469
 20
49.465859755873652
 30
0.0
  0
VERTEX
  5
15307
  8
0
 10
283.67809497751318
 20
50.260998755693379
 30
0.0
  0
VERTEX
  5
15308
  8
0
 10
284.351850980893
 20
51.061018351465407
 30
0.0
  0
VERTEX
  5
15309
  8
0
 10
284.57374417223059
 20
51.394388992339309
 30
0.0
  0
VERTEX
  5
1530A
  8
0
 10
284.7201406303796
 20
51.643960624933179
 30
0.0
  0
VERTEX
  5
1530B
  8
0
 10
284.77224254049378
 20
51.740040518343392
 30
0.0
  0
VERTEX
  5
1530C
  8
0
 10
284.77224254049378
 20
51.740040518343392
 30
0.0
  0
SEQEND
  5
1530D
  8
0
  0
POLYLINE
  5
CDA7
  8
0
 66
     1
 10
0.0
 20
0.0
 30
0.0
 70
   128
  0
VERTEX
  5
1530E
  8
0
 10
284.77485769428341
 20
55.056263441219869
 30
0.0
  0
VERTEX
  5
1530F
  8
0
 10
284.77485769428341
 20
55.056263441219869
 30
0.0
  0
VERTEX
  5
15310
  8
0
 10
284.71123718656622
 20
55.137109225615802
 30
0.0
  0
VERTEX
  5
15311
  8
0
 10
284.5000802818688
 20
55.375133156776371
 30
0.0
  0
VERTEX
  5
15312
  8
0
 10
284.1450228635224
 20
55.69880849681789
 30
0.0
  0
VERTEX
  5
15313
  8
0
 10
283.50615792907797
 20
56.124853882938567
 30
0.0
  0
VERTEX
  5
15314
  8
0
 10
282.63229423202603
 20
56.497045191936138
 30
0.0
  0
VERTEX
  5
15315
  8
0
 10
281.90926008857809
 20
56.67182871140534
 30
0.0
  0
VERTEX
  5
15316
  8
0
 10
281.07513778843008
 20
56.749152815900707
 30
0.0
  0
VERTEX
  5
15317
  8
0
 10
280.46146326698391
 20
56.726209160406107
 30
0.0
  0
VERTEX
  5
15318
  8
0
 10
279.81014841236203
 20
56.626485700253369
 30
0.0
  0
VERTEX
  5
15319
  8
0
 10
279.17232655920111
 20
56.446711746975751
 30
0.0
  0
VERTEX
  5
1531A
  8
0
 10
278.5268902126702
 20
56.16666817106303
 30
0.0
  0
SEQEND
  5
1531B
  8
0
  0
POLYLINE
  5
CDA8
  8
0
 66
     1
 10
0.0
 20
0.0
 30
0.0
 70
   128
  0
VERTEX
  5
1531C
  8
0
 10
272.59849566718191
 20
56.099351447004828
 30
0.0
  0
VERTEX
  5
1531D
  8
0
 10
272.60519110597693
 20
56.101712263189199
 30
0.0
  0
VERTEX
  5
1531E
  8
0
 10
272.66054146923148
 20
56.119098309427443
 30
0.0
  0
VERTEX
  5
1531F
  8
0
 10
272.84490608610241
 20
56.17890726309264
 30
0.0
  0
VERTEX
  5
15320
  8
0
 10
273.12691801227652
 20
56.276125116273697
 30
0.0
  0
VERTEX
  5
15321
  8
0
 10
273.47340726293652
 20
56.405266495421472
 30
0.0
  0
VERTEX
  5
15322
  8
0
 10
273.84684526361548
 20
56.556794366333577
 30
0.0
  0
VERTEX
  5
15323
  8
0
 10
274.2069392744454
 20
56.715460126288178
 30
0.0
  0
VERTEX
  5
15324
  8
0
 10
274.513083631173
 20
56.860416526906128
 30
0.0
  0
VERTEX
  5
15325
  8
0
 10
274.73029785789572
 20
56.969070264603879
 30
0.0
  0
VERTEX
  5
15326
  8
0
 10
274.83491891063773
 20
57.023166078142758
 30
0.0
  0
VERTEX
  5
15327
  8
0
 10
274.84266006387787
 20
57.027213082183088
 30
0.0
  0
SEQEND
  5
15328
  8
0
  0
ARC
  5
CDA9
  8
0
 10
252.0061537305632
 20
-78.220965484373593
 30
0.0
 40
126.02365965617111
 50
79.525246698163855
 51
80.602220891144455
  0
POLYLINE
  5
CDAA
  8
0
 66
     1
 10
0.0
 20
0.0
 30
0.0
 70
   128
  0
VERTEX
  5
15329
  8
0
 10
274.99737882055371
 20
45.688232854008639
 30
0.0
  0
VERTEX
  5
1532A
  8
0
 10
274.99737882055371
 20
45.688232854008639
 30
0.0
  0
VERTEX
  5
1532B
  8
0
 10
274.91753839887701
 20
45.702523998916121
 30
0.0
  0
SEQEND
  5
1532C
  8
0
  0
ARC
  5
CDAB
  8
0
 10
238.19078124577871
 20
-156.93454249519249
 30
0.0
 40
205.6560565949564
 50
79.729709876391922
 51
80.356772775720529
  0
POLYLINE
  5
CDAC
  8
0
 66
     1
 10
0.0
 20
0.0
 30
0.0
 70
   128
  0
VERTEX
  5
1532D
  8
0
 10
274.65690963901602
 20
57.229892390314433
 30
0.0
  0
VERTEX
  5
1532E
  8
0
 10
274.65690963901602
 20
57.229892157483789
 30
0.0
  0
VERTEX
  5
1532F
  8
0
 10
274.59822886623471
 20
57.202143139438647
 30
0.0
  0
VERTEX
  5
15330
  8
0
 10
274.42860894836508
 20
57.123118003364588
 30
0.0
  0
VERTEX
  5
15331
  8
0
 10
274.16748845018469
 20
57.004895100835647
 30
0.0
  0
VERTEX
  5
15332
  8
0
 10
273.8460704032334
 20
56.864986352156791
 30
0.0
  0
VERTEX
  5
15333
  8
0
 10
273.5015406552705
 20
56.721758428029659
 30
0.0
  0
VERTEX
  5
15334
  8
0
 10
273.17133837379538
 20
56.590899107977691
 30
0.0
  0
VERTEX
  5
15335
  8
0
 10
272.89020561613171
 20
56.484340089373227
 30
0.0
  0
VERTEX
  5
15336
  8
0
 10
272.6890548411759
 20
56.410796921700182
 30
0.0
  0
VERTEX
  5
15337
  8
0
 10
272.59271883405768
 20
56.376364296302143
 30
0.0
  0
VERTEX
  5
15338
  8
0
 10
272.58681633223841
 20
56.375213628098322
 30
0.0
  0
SEQEND
  5
15339
  8
0
  0
POLYLINE
  5
CDAD
  8
0
 66
     1
 10
0.0
 20
0.0
 30
0.0
 70
   128
  0
VERTEX
  5
1533A
  8
0
 10
270.01176897627869
 20
46.519731989624461
 30
0.0
  0
VERTEX
  5
1533B
  8
0
 10
270.00513964332657
 20
46.521011255681458
 30
0.0
  0
VERTEX
  5
1533C
  8
0
 10
269.95186054147803
 20
46.529110036790307
 30
0.0
  0
VERTEX
  5
1533D
  8
0
 10
269.7624146286401
 20
46.557719334959948
 30
0.0
  0
VERTEX
  5
1533E
  8
0
 10
269.46470432914822
 20
46.602081023156607
 30
0.0
  0
VERTEX
  5
1533F
  8
0
 10
269.09213059581839
 20
46.65657550096509
 30
0.0
  0
VERTEX
  5
15340
  8
0
 10
268.68634962476813
 20
46.714633218944037
 30
0.0
  0
VERTEX
  5
15341
  8
0
 10
268.29289936460577
 20
46.7696417868137
 30
0.0
  0
VERTEX
  5
15342
  8
0
 10
267.95623742975317
 20
46.815706863999338
 30
0.0
  0
VERTEX
  5
15343
  8
0
 10
267.71466725505911
 20
46.848191395401898
 30
0.0
  0
VERTEX
  5
15344
  8
0
 10
267.59571873582922
 20
46.864010840654309
 30
0.0
  0
VERTEX
  5
15345
  8
0
 10
267.58596592582791
 20
46.865302585065308
 30
0.0
  0
SEQEND
  5
15346
  8
0
  0
ARC
  5
CDAE
  8
0
 10
277.17570415563608
 20
52.653021238175342
 30
0.0
 40
7.096068298419377
 50
274.03695520796651
 51
294.08812323978361
  0
ARC
  5
CDAF
  8
0
 10
239.85515930033901
 20
-156.6419199979623
 30
0.0
 40
205.10582252697009
 50
81.58231255898751
 51
82.211066700143178
  0
ARC
  5
CDB0
  8
0
 10
276.12804292875848
 20
56.854870066462162
 30
0.0
 40
11.710927808281809
 50
278.32157714204561
 51
289.64656794868858
  0
ARC
  5
CDB1
  8
0
 10
279.59482199562808
 20
54.298935810515957
 30
0.0
 40
4.6772162269809288
 50
84.604520947537011
 51
115.35350910369399
  0
ARC
  5
CDB2
  8
0
 10
267.6292797119026
 20
68.722235097672382
 30
0.0
 40
13.467572939709269
 50
269.99995315259741
 51
280.21360556178939
  0
LINE
  5
CDB3
  8
0
 10
267.5982072297486
 20
55.25466215796763
 30
0.0
 11
267.62926870025723
 21
55.25466215796763
 31
0.0
  0
POLYLINE
  5
CDB4
  8
0
 66
     1
 10
0.0
 20
0.0
 30
0.0
 70
   128
  0
VERTEX
  5
15347
  8
0
 10
269.90075700916373
 20
55.717060090973909
 30
0.0
  0
VERTEX
  5
15348
  8
0
 10
269.89265077747427
 20
55.715925856493357
 30
0.0
  0
VERTEX
  5
15349
  8
0
 10
269.78414052166067
 20
55.701032611541393
 30
0.0
  0
VERTEX
  5
1534A
  8
0
 10
269.56044428981858
 20
55.672077327035311
 30
0.0
  0
VERTEX
  5
1534B
  8
0
 10
269.24889081157772
 20
55.635654348879989
 30
0.0
  0
VERTEX
  5
1534C
  8
0
 10
268.88746314682089
 20
55.59906757436687
 30
0.0
  0
VERTEX
  5
1534D
  8
0
 10
268.51752691902237
 20
55.567894228734019
 30
0.0
  0
VERTEX
  5
1534E
  8
0
 10
268.17837649025051
 20
55.544868558645192
 30
0.0
  0
VERTEX
  5
1534F
  8
0
 10
267.90521585382538
 20
55.530173219740327
 30
0.0
  0
VERTEX
  5
15350
  8
0
 10
267.72816025652008
 20
55.522479796782079
 30
0.0
  0
VERTEX
  5
15351
  8
0
 10
267.67634891904908
 20
55.520500503480378
 30
0.0
  0
VERTEX
  5
15352
  8
0
 10
267.67383826442511
 20
55.51993074059331
 30
0.0
  0
SEQEND
  5
15353
  8
0
  0
ARC
  5
CDB5
  8
0
 10
280.0754988292133
 20
51.538982823032967
 30
0.0
 40
7.7630898884174098
 50
91.204174348587614
 51
108.5016790485703
  0
LINE
  5
11F47
  8
0
 10
37.707107588648803
 20
172.00000368058679
 30
0.0
 11
37.707107588648803
 21
173.29979471862319
 31
0.0
  0
LINE
  5
11F4C
  8
0
 10
77.292895391583443
 20
173.29979471862319
 30
0.0
 11
77.292895391583443
 21
172.00000368058679
 31
0.0
  0
ARC
  5
11F4F
  8
0
 10
76.103634015912576
 20
173.1407822237216
 30
0.0
 40
1.1998448204655681
 50
7.6156743050980209
 51
66.306270843807084
  0
LINE
  5
11F51
  8
0
 10
38.414214253425598
 20
174.23948802053931
 30
0.0
 11
76.585788726806641
 21
174.23948802053931
 31
0.0
  0
ARC
  5
11F52
  8
0
 10
38.896368964320118
 20
173.1407822237216
 30
0.0
 40
1.199844820465608
 50
113.6937291561929
 51
172.384325694902
  0
LINE
  5
11F53
  8
0
 10
76.585788726806641
 20
174.23948802053931
 30
0.0
 11
79.000002220273004
 21
175.11819086968899
 31
0.0
  0
LINE
  5
11F58
  8
0
 10
36.000000759959221
 20
175.11819086968899
 30
0.0
 11
38.414214253425598
 21
174.23948802053931
 31
0.0
  0
LINE
  5
11F5B
  8
0
 10
79.000002220273004
 20
175.86234554648399
 30
0.0
 11
77.551797479391084
 21
176.69846460223201
 31
0.0
  0
LINE
  5
11F5C
  8
0
 10
79.000002220273004
 20
175.11819086968899
 30
0.0
 11
79.000002220273004
 21
175.86234554648399
 31
0.0
  0
LINE
  5
11F5D
  8
0
 10
36.000000759959221
 20
175.86234554648399
 30
0.0
 11
36.000000759959221
 21
175.11819086968899
 31
0.0
  0
LINE
  5
11F5E
  8
0
 10
37.448205500841141
 20
176.69846460223201
 30
0.0
 11
36.000000759959221
 21
175.86234554648399
 31
0.0
  0
ARC
  5
11F60
  8
0
 10
35.97075916256108
 20
174.1473737842694
 30
0.0
 40
0.9712573728733458
 50
88.274738112355948
 51
178.1636517519579
  0
ARC
  5
11F62
  8
0
 10
79.029243817671613
 20
174.1473737842694
 30
0.0
 40
0.9712573728733351
 50
1.8363482480420961
 51
91.725261887644066
  0
ARC
  5
11F66
  8
0
 10
35.846694633566131
 20
175.1692309305208
 30
0.0
 40
0.7098666348345211
 50
77.527870419574541
 51
119.23493217202309
  0
ARC
  5
11F67
  8
0
 10
79.153308346666563
 20
175.1692309305208
 30
0.0
 40
0.7098666348344724
 50
60.765067827977667
 51
102.4721295804389
  0
POLYLINE
  5
11F6A
  8
0
 66
     1
 10
0.0
 20
0.0
 30
0.0
 70
   128
  0
VERTEX
  5
15354
  8
0
 10
37.866026610136032
 20
177.00000450015071
 30
0.0
  0
VERTEX
  5
15355
  8
0
 10
37.819181084632874
 20
176.9661937654019
 30
0.0
  0
VERTEX
  5
15356
  8
0
 10
37.679275944828987
 20
176.8652272224426
 30
0.0
  0
VERTEX
  5
15357
  8
0
 10
37.448205500841141
 20
176.69846460223201
 30
0.0
  0
SEQEND
  5
15358
  8
0
  0
POLYLINE
  5
11F6B
  8
0
 66
     1
 10
0.0
 20
0.0
 30
0.0
 70
   128
  0
VERTEX
  5
15359
  8
0
 10
77.551797479391084
 20
176.69846460223201
 30
0.0
  0
VERTEX
  5
1535A
  8
0
 10
77.320727035403252
 20
176.8652272224426
 30
0.0
  0
VERTEX
  5
1535B
  8
0
 10
77.180821895599365
 20
176.9661937654019
 30
0.0
  0
VERTEX
  5
1535C
  8
0
 10
77.133976370096207
 20
177.00000450015071
 30
0.0
  0
SEQEND
  5
1535D
  8
0
  0
LINE
  5
13484
  8
0
 10
384.52751273745997
 20
163.72168840543881
 30
0.0
 11
383.27751153148728
 21
164.44337849197149
 31
0.0
  0
LINE
  5
13485
  8
0
 10
383.27751153148728
 20
164.44337849197149
 30
0.0
 11
382.02751419752298
 21
163.72169511194119
 31
0.0
  0
LINE
  5
13486
  8
0
 10
382.02750898355288
 20
163.7216951119411
 30
0.0
 11
382.02750630264501
 21
162.2783245229152
 31
0.0
  0
LINE
  5
13487
  8
0
 10
382.0275096997043
 20
162.27831863896679
 30
0.0
 11
383.27751153148728
 21
161.55662746849299
 31
0.0
  0
LINE
  5
13488
  8
0
 10
383.27751153148728
 20
161.55662746849299
 30
0.0
 11
384.52750886545118
 21
162.27831084852261
 31
0.0
  0
LINE
  5
13489
  8
0
 10
384.52751156580172
 20
162.27831552564899
 30
0.0
 11
384.52751273745997
 21
163.7216884054387
 31
0.0
  0
LINE
  5
1348D
  8
0
 10
354.52751273745997
 20
163.72168840543881
 30
0.0
 11
353.27751153148728
 21
164.44337849197149
 31
0.0
  0
LINE
  5
1348E
  8
0
 10
353.27751153148728
 20
164.44337849197149
 30
0.0
 11
352.02751419752298
 21
163.72169511194119
 31
0.0
  0
LINE
  5
1348F
  8
0
 10
352.02750898355288
 20
163.7216951119411
 30
0.0
 11
352.02750630264501
 21
162.2783245229152
 31
0.0
  0
LINE
  5
13490
  8
0
 10
352.0275096997043
 20
162.27831863896679
 30
0.0
 11
353.27751153148728
 21
161.55662746849299
 31
0.0
  0
LINE
  5
13491
  8
0
 10
353.27751153148728
 20
161.55662746849299
 30
0.0
 11
354.52750886545118
 21
162.27831084852261
 31
0.0
  0
LINE
  5
13492
  8
0
 10
354.52751156580172
 20
162.27831552564899
 30
0.0
 11
354.52751273745997
 21
163.7216884054387
 31
0.0
  0
LINE
  5
13B93
  8
0
 10
277.47799002565472
 20
276.24782536178827
 30
0.0
 11
277.28133805852599
 21
276.22295765399213
 31
0.0
  0
LINE
  5
13B94
  8
0
 10
280.24489724077313
 20
275.51065281033522
 30
0.0
 11
280.29955325390819
 21
275.45866573658282
 31
0.0
  0
LINE
  5
13B95
  8
0
 10
280.1973476354035
 20
263.2388016255573
 30
0.0
 11
280.24005436338513
 21
263.26949021779001
 31
0.0
  0
LINE
  5
13B96
  8
0
 10
274.91467737592762
 20
265.04235074855399
 30
0.0
 11
274.84266006387821
 21
264.9727943981996
 31
0.0
  0
LINE
  5
13B97
  8
0
 10
274.65679748799272
 20
264.77001939860719
 30
0.0
 11
274.65734983292077
 21
264.77050276406658
 31
0.0
  0
LINE
  5
13B98
  8
0
 10
272.78575415851128
 20
265.36345590726478
 30
0.0
 11
272.79027842916639
 21
265.3618510277006
 31
0.0
  0
LINE
  5
13B99
  8
0
 10
272.49618911184388
 20
266.17026434279978
 30
0.0
 11
272.41897948286032
 21
266.22359041556501
 31
0.0
  0
LINE
  5
13BA1
  8
0
 10
272.62927883304678
 20
276.18999116122723
 30
0.0
 11
272.62813948196617
 21
276.18617861958643
 31
0.0
  0
LINE
  5
13BA2
  8
0
 10
272.86643826402752
 20
276.39968682080507
 30
0.0
 11
272.87116938270538
 21
276.4004905521868
 31
0.0
  0
LINE
  5
13BA3
  8
0
 10
274.85760592855542
 20
276.573610380292
 30
0.0
 11
274.85779449627881
 21
276.5733376585215
 31
0.0
  0
LINE
  5
13BA4
  8
0
 10
278.10824185693878
 20
276.85325481056589
 30
0.0
 11
278.10897969640808
 21
276.85314778238541
 31
0.0
  0
LINE
  5
13BA5
  8
0
 10
279.87100475467719
 20
276.4143178984524
 30
0.0
 11
279.87556228962779
 21
276.41269068753093
 31
0.0
  0
LINE
  5
13BA6
  8
0
 10
280.0710470548529
 20
276.17582302935313
 30
0.0
 11
280.07115678581499
 21
276.17518523511808
 31
0.0
  0
LINE
  5
13BA7
  8
0
 10
279.64721166528813
 20
262.55137543659657
 30
0.0
 11
279.64830707482128
 21
262.55137543659657
 31
0.0
  0
LINE
  5
13BA8
  8
0
 10
277.80462027440649
 20
262.87227668921071
 30
0.0
 11
277.80973457731312
 21
262.87056331522763
 31
0.0
  0
LINE
  5
13BA9
  8
0
 10
277.60585666658881
 20
263.09802913833039
 30
0.0
 11
277.60599674679202
 21
263.09740873372289
 31
0.0
  0
LINE
  5
13BAA
  8
0
 10
274.84266006387821
 20
264.9727943981996
 30
0.0
 11
274.84229329916201
 21
264.97229369688569
 31
0.0
  0
LINE
  5
13BAB
  8
0
 10
270.0173287931832
 20
266.53193182311958
 30
0.0
 11
270.01728464420131
 21
266.53179666505167
 31
0.0
  0
LINE
  5
13BBB
  8
0
 10
201.6435365180391
 20
176.33012999915451
 30
0.0
 11
207.77751111425459
 21
172.78867811482709
 31
0.0
  0
LINE
  5
13BFC
  8
0
 10
271.05911326342829
 20
153.6656089722766
 30
0.0
 11
271.05949848220212
 21
153.66427104920149
 31
0.0
  0
LINE
  5
13BFD
  8
0
 10
271.28767996356351
 20
153.44351593405011
 30
0.0
 11
271.2937149338461
 21
153.4422223269942
 31
0.0
  0
LINE
  5
13C05
  8
0
 10
271.05972199962002
 20
172.33663395047191
 30
0.0
 11
271.05895868470128
 21
172.3336125673749
 31
0.0
  0
LINE
  5
13C06
  8
0
 10
271.02817607799329
 20
172.0404579174423
 30
0.0
 11
271.02819114253379
 21
172.03814134001729
 31
0.0
  0
LINE
  5
13C2A
  8
0
 10
272.50277450857152
 20
55.827544770910663
 30
0.0
 11
272.4322522669338
 21
55.780577225306132
 31
0.0
  0
LINE
  5
13C2B
  8
0
 10
275.11978652682001
 20
56.909139888387188
 30
0.0
 11
275.18412756552539
 21
56.918665606053402
 31
0.0
  0
LINE
  5
13C2C
  8
0
 10
280.19258467661052
 20
58.760318005680752
 30
0.0
 11
280.46357737671269
 21
58.707066048929789
 31
0.0
  0
LINE
  5
13C2D
  8
0
 10
277.4787650521971
 20
45.75652250296875
 30
0.0
 11
277.27740756931138
 21
45.776250072871363
 31
0.0
  0
LINE
  5
13C3C
  8
0
 10
379.39961531199521
 20
171.86487808823611
 30
0.0
 11
379.5568747166547
 21
171.70095041394251
 31
0.0
  0
LINE
  5
13C3D
  8
0
 10
366.35330875404202
 20
167.24633954465389
 30
0.0
 11
366.35194168891758
 21
167.2061268985268
 31
0.0
  0
ARC
  5
13C40
  8
0
 10
371.54056377736879
 20
171.73290889004269
 30
0.0
 40
1.412045244566567
 50
115.4344884525009
 51
129.020142118834
  0
ARC
  5
13C41
  8
0
 10
376.5405637848242
 20
171.73290914590299
 30
0.0
 40
1.412045050476191
 50
115.43448663716531
 51
129.02014889024539
  0
ARC
  5
13C42
  8
0
 10
377.01393435672941
 20
154.27930864692459
 30
0.0
 40
1.423997600420589
 50
295.22316103966227
 51
308.54932525485151
  0
CIRCLE
  5
14380
  8
0
 10
42.500001490116112
 20
163.00000298023221
 30
0.0
 40
1.6209999999999991
  0
CIRCLE
  5
14381
  8
3
 10
42.500001490116112
 20
163.00000298023221
 30
0.0
 40
2.0
  0
LINE
  5
14382
  8
1
 10
42.500001490116112
 20
168.00000298023221
 30
0.0
 11
42.500001490116112
 21
158.00000298023221
 31
0.0
  0
LINE
  5
14383
  8
1
 10
37.500001490116119
 20
163.00000298023221
 30
0.0
 11
47.500001490116112
 21
163.00000298023221
 31
0.0
  0
CIRCLE
  5
14384
  8
0
 10
72.500001490116105
 20
163.00000298023221
 30
0.0
 40
1.6209999999999991
  0
CIRCLE
  5
14385
  8
3
 10
72.500001490116105
 20
163.00000298023221
 30
0.0
 40
2.0
  0
LINE
  5
14386
  8
1
 10
72.500001490116105
 20
168.00000298023221
 30
0.0
 11
72.500001490116105
 21
158.00000298023221
 31
0.0
  0
LINE
  5
14387
  8
1
 10
67.500001490116105
 20
163.00000298023221
 30
0.0
 11
77.500001490116105
 21
163.00000298023221
 31
0.0
  0
LINE
  5
143AE
  8
1
 10
234.7235931118305
 20
264.50000599026691
 30
0.0
 11
153.500001537614
 21
264.50000599026691
 31
0.0
  0
LINE
  5
143AF
  8
1
 10
168.77751135639869
 20
300.80000716447842
 30
0.0
 11
168.77751135639869
 21
288.20000533759611
 31
0.0
  0
LINE
  5
143B0
  8
1
 10
171.7775116320702
 20
300.80000716447842
 30
0.0
 11
171.7775116320702
 21
288.20000533759611
 31
0.0
  0
LINE
  5
143B1
  8
1
 10
221.77751111425479
 20
277.49952164292341
 30
0.0
 11
221.77751111425479
 21
251.5004903376103
 31
0.0
  0
LINE
  5
143B2
  8
1
 10
178.2775111589583
 20
294.50000625103718
 30
0.0
 11
162.27751138247569
 21
294.50000625103718
 31
0.0
  0
LINE
  5
143B3
  8
1
 10
168.77751135639869
 20
240.8000066429378
 30
0.0
 11
168.77751135639869
 21
228.20000481605541
 31
0.0
  0
LINE
  5
143B4
  8
1
 10
171.7775116320702
 20
240.8000066429378
 30
0.0
 11
171.7775116320702
 21
228.20000481605541
 31
0.0
  0
LINE
  5
143B5
  8
1
 10
178.2775111589583
 20
234.50000572949659
 30
0.0
 11
162.27751138247569
 21
234.50000572949659
 31
0.0
  0
LINE
  5
143BF
  8
1
 10
234.7235931118305
 20
57.500001490116013
 30
0.0
 11
153.500001537614
 21
57.500001490116013
 31
0.0
  0
LINE
  5
143C0
  8
1
 10
168.77751135639869
 20
93.800002664327494
 30
0.0
 11
168.77751135639869
 21
81.200000837445145
 31
0.0
  0
LINE
  5
143C1
  8
1
 10
171.7775116320702
 20
93.800002664327494
 30
0.0
 11
171.7775116320702
 21
81.200000837445145
 31
0.0
  0
LINE
  5
143C2
  8
1
 10
221.77751111425479
 20
70.499517142772447
 30
0.0
 11
221.77751111425479
 21
44.500485837459337
 31
0.0
  0
LINE
  5
143C3
  8
1
 10
178.2775111589583
 20
87.500001750886327
 30
0.0
 11
162.27751138247569
 21
87.500001750886327
 31
0.0
  0
LINE
  5
143C4
  8
1
 10
168.77751135639869
 20
33.800002142786873
 30
0.0
 11
168.77751135639869
 21
21.2000003159045
 31
0.0
  0
LINE
  5
143C5
  8
1
 10
171.7775116320702
 20
33.800002142786873
 30
0.0
 11
171.7775116320702
 21
21.2000003159045
 31
0.0
  0
LINE
  5
143C6
  8
1
 10
178.2775111589583
 20
27.500001229345688
 30
0.0
 11
162.27751138247569
 21
27.500001229345688
 31
0.0
  0
CIRCLE
  5
14419
  8
0
 10
221.77751111425479
 20
264.5000059902668
 30
0.0
 40
2.0000000000064229
  0
CIRCLE
  5
1441A
  8
3
 10
221.77751111425479
 20
264.50000599026691
 30
0.0
 40
1.621000000007597
  0
CIRCLE
  5
1441F
  8
0
 10
221.77751111425479
 20
57.500001490115828
 30
0.0
 40
2.0000000000064229
  0
CIRCLE
  5
14420
  8
3
 10
221.77751111425479
 20
57.500001490115892
 30
0.0
 40
1.621000000007597
  0
LINE
  5
14422
  8
1
 10
57.500001490116112
 20
182.00000450015071
 30
0.0
 11
57.500001490116112
 21
140.50000300398091
 31
0.0
  0
LINE
  5
14423
  8
1
 10
27.500001229345798
 20
142.0000029802321
 30
0.0
 11
27.500001229345798
 21
156.00000336021171
 31
0.0
  0
LINE
  5
14424
  8
1
 10
87.50000175088644
 20
142.00000298023221
 30
0.0
 11
87.50000175088644
 21
156.00000315665119
 31
0.0
  0
LINE
  5
14426
  8
1
 10
368.27751153148739
 20
182.00000450015071
 30
0.0
 11
368.27751153148739
 21
140.50000300398091
 31
0.0
  0
LINE
  5
14427
  8
1
 10
338.27751127071701
 20
142.0000029802321
 30
0.0
 11
338.27751127071701
 21
156.00000336021171
 31
0.0
  0
LINE
  5
14428
  8
1
 10
398.27751179225771
 20
142.00000298023221
 30
0.0
 11
398.27751179225771
 21
156.00000315665119
 31
0.0
  0
LINE
  5
14429
  8
1
 10
287.77696138172928
 20
163.00000298023241
 30
0.0
 11
153.500001537614
 21
163.00000298023241
 31
0.0
  0
LINE
  5
1442A
  8
1
 10
168.77751097641911
 20
156.00000309712621
 30
0.0
 11
168.77751097641911
 21
142.0000029802323
 31
0.0
  0
LINE
  5
1442B
  8
1
 10
171.77751125209051
 20
156.0000031639228
 30
0.0
 11
171.77751125209051
 21
142.0000029802323
 31
0.0
  0
LINE
  5
1442C
  8
1
 10
221.77751111425479
 20
173.0000033527613
 30
0.0
 11
221.77751111425479
 21
153.00000292062759
 31
0.0
  0
LINE
  5
14A4B
  8
0
 10
211.78750985302051
 20
169.3000047268531
 30
0.0
 11
211.78750985302051
 21
156.70000163902529
 31
0.0
  0
LINE
  5
14A51
  8
0
 10
211.76999091431961
 20
156.682482790005
 30
0.0
 11
211.76999091431961
 21
156.50000300258401
 31
0.0
  0
TEXT
  5
14B34
  8
0
 62
     3
 10
0.0
 20
0.0
 30
0.0
 40
10.0
  1
QLSCH32
  7
STANDARD1
  0
ENDSEC
  0
EOF
