  0
SECTION
  2
HEADER
  9
$ACADVER
  1
AC1009
  9
$INSBASE
 10
0.0
 20
0.0
 30
0.0
  9
$EXTMIN
 10
0.0
 20
-2.960436562073669
 30
0.0
  9
$EXTMAX
 10
400.00339046120638
 20
360.00000132620329
 30
0.0
  9
$LIMMIN
 10
0.0
 20
0.0
  9
$LIMMAX
 10
375.0
 20
270.0
  9
$ORTHOMODE
 70
     1
  9
$REGENMODE
 70
     1
  9
$FILLMODE
 70
     1
  9
$QTEXTMODE
 70
     0
  9
$MIRRTEXT
 70
     0
  9
$DRAGMODE
 70
     2
  9
$LTSCALE
 40
10.0
  9
$OSMODE
 70
  3071
  9
$ATTMODE
 70
     1
  9
$TEXTSIZE
 40
6.0
  9
$TRACEWID
 40
0.05
  9
$TEXTSTYLE
  7
STANDARD
  9
$CLAYER
  8
0
  9
$CELTYPE
  6
BYLAYER
  9
$CECOLOR
 62
   256
  9
$DIMSCALE
 40
1.0
  9
$DIMASZ
 40
3.0
  9
$DIMEXO
 40
2.0
  9
$DIMDLI
 40
0.3799999999999999
  9
$DIMRND
 40
0.0
  9
$DIMDLE
 40
0.0
  9
$DIMEXE
 40
2.0
  9
$DIMTP
 40
0.0
  9
$DIMTM
 40
0.0
  9
$DIMTXT
 40
3.2000000000000002
  9
$DIMCEN
 40
0.09
  9
$DIMTSZ
 40
0.0
  9
$DIMTOL
 70
     0
  9
$DIMLIM
 70
     0
  9
$DIMTIH
 70
     0
  9
$DIMTOH
 70
     0
  9
$DIMSE1
 70
     0
  9
$DIMSE2
 70
     0
  9
$DIMTAD
 70
     1
  9
$DIMZIN
 70
     9
  9
$DIMBLK
  1

  9
$DIMASO
 70
     0
  9
$DIMSHO
 70
     0
  9
$DIMPOST
  1

  9
$DIMAPOST
  1

  9
$DIMALT
 70
     0
  9
$DIMALTD
 70
     2
  9
$DIMALTF
 40
25.399999999999999
  9
$DIMLFAC
 40
1.0
  9
$DIMTOFL
 70
     0
  9
$DIMTVP
 40
0.0
  9
$DIMTIX
 70
     0
  9
$DIMSOXD
 70
     0
  9
$DIMSAH
 70
     0
  9
$DIMBLK1
  1

  9
$DIMBLK2
  1

  9
$DIMSTYLE
  2
STANDARD
  9
$DIMCLRD
 70
     0
  9
$DIMCLRE
 70
     0
  9
$DIMCLRT
 70
     0
  9
$DIMTFAC
 40
1.0
  9
$DIMGAP
 40
0.09
  9
$LUNITS
 70
     2
  9
$LUPREC
 70
     4
  9
$SKETCHINC
 40
0.1
  9
$FILLETRAD
 40
20.0
  9
$AUNITS
 70
     0
  9
$AUPREC
 70
     3
  9
$MENU
  1
E:\r13\win\SUPPORT\ACAD
  9
$ELEVATION
 40
0.0
  9
$PELEVATION
 40
0.0
  9
$THICKNESS
 40
0.0
  9
$LIMCHECK
 70
     0
  9
$BLIPMODE
 70
     0
  9
$CHAMFERA
 40
0.0
  9
$CHAMFERB
 40
0.0
  9
$SKPOLY
 70
     0
  9
$TDCREATE
 40
2449840.6320370371
  9
$TDUPDATE
 40
2456598.4297385542
  9
$TDINDWG
 40
1.0494129860999999
  9
$TDUSRTIMER
 40
1.0494129860999999
  9
$USRTIMER
 70
     1
  9
$ANGBASE
 50
0.0
  9
$ANGDIR
 70
     0
  9
$PDMODE
 70
     0
  9
$PDSIZE
 40
0.0
  9
$PLINEWID
 40
0.0
  9
$COORDS
 70
     1
  9
$SPLFRAME
 70
     0
  9
$SPLINETYPE
 70
     6
  9
$SPLINESEGS
 70
     8
  9
$ATTDIA
 70
     0
  9
$ATTREQ
 70
     1
  9
$HANDLING
 70
     1
  9
$HANDSEED
  5
15BBE
  9
$SURFTAB1
 70
     6
  9
$SURFTAB2
 70
     6
  9
$SURFTYPE
 70
     6
  9
$SURFU
 70
     6
  9
$SURFV
 70
     6
  9
$UCSNAME
  2

  9
$UCSORG
 10
0.0
 20
0.0
 30
0.0
  9
$UCSXDIR
 10
1.0
 20
0.0
 30
0.0
  9
$UCSYDIR
 10
0.0
 20
1.0
 30
0.0
  9
$PUCSNAME
  2

  9
$PUCSORG
 10
0.0
 20
0.0
 30
0.0
  9
$PUCSXDIR
 10
1.0
 20
0.0
 30
0.0
  9
$PUCSYDIR
 10
0.0
 20
1.0
 30
0.0
  9
$USERI1
 70
     0
  9
$USERI2
 70
     1
  9
$USERI3
 70
     0
  9
$USERI4
 70
     0
  9
$USERI5
 70
     0
  9
$USERR1
 40
0.0
  9
$USERR2
 40
0.0
  9
$USERR3
 40
0.0
  9
$USERR4
 40
0.0
  9
$USERR5
 40
0.0
  9
$WORLDVIEW
 70
     1
  9
$SHADEDGE
 70
     3
  9
$SHADEDIF
 70
    70
  9
$TILEMODE
 70
     1
  9
$MAXACTVP
 70
    16
  9
$PLIMCHECK
 70
     0
  9
$PEXTMIN
 10
1.0000000000000000E+020
 20
1.0000000000000000E+020
 30
1.0000000000000000E+020
  9
$PEXTMAX
 10
-1.0000000000000000E+020
 20
-1.0000000000000000E+020
 30
-1.0000000000000000E+020
  9
$PLIMMIN
 10
0.0
 20
0.0
  9
$PLIMMAX
 10
12.0
 20
9.0
  9
$UNITMODE
 70
     0
  9
$VISRETAIN
 70
     0
  9
$PLINEGEN
 70
     0
  9
$PSLTSCALE
 70
     0
  0
ENDSEC
  0
SECTION
  2
TABLES
  0
TABLE
  2
VPORT
 70
     1
  0
VPORT
  2
*ACTIVE
 70
     0
 10
0.0
 20
0.0
 11
1.0
 21
1.0
 12
200.00169616193381
 22
201.9837084875777
 13
0.0
 23
0.0
 14
10.0
 24
10.0
 15
10.0
 25
10.0
 16
0.0
 26
0.0
 36
1.0
 17
0.0
 27
0.0
 37
0.0
 40
414.60572494675642
 41
2.304913294797688
 42
50.0
 43
0.0
 44
0.0
 50
0.0
 51
0.0
 71
     0
 72
   500
 73
     1
 74
     0
 75
     0
 76
     0
 77
     0
 78
     0
  0
ENDTAB
  0
TABLE
  2
LTYPE
 70
     3
  0
LTYPE
  2
CONTINUOUS
 70
     0
  3
Solid Line
 72
    65
 73
     0
 40
0.0
  0
LTYPE
  2
CENTER
 70
     0
  3
____ _ ____ _ ____ _ ____ _ ____ _ ____ _ ____
 72
    65
 73
     4
 40
2.0
 49
1.25
 49
-0.25
 49
0.25
 49
-0.25
  0
LTYPE
  2
PHANTOM2
 70
     0
  3
___ _ _ ___ _ _ ___ _ _ ___ _ _
 72
    65
 73
     6
 40
1.25
 49
0.625
 49
-0.125
 49
0.125
 49
-0.125
 49
0.125
 49
-0.125
  0
ENDTAB
  0
TABLE
  2
LAYER
 70
     4
  0
LAYER
  2
0
 70
     0
 62
     7
  6
CONTINUOUS
  0
LAYER
  2
1
 70
     0
 62
     1
  6
CENTER
  0
LAYER
  2
DEFPOINTS
 70
     0
 62
     7
  6
CONTINUOUS
  0
LAYER
  2
3
 70
     0
 62
     3
  6
CONTINUOUS
  0
ENDTAB
  0
TABLE
  2
STYLE
 70
     2
  0
STYLE
  2
STANDARD
 70
     0
 40
0.0
 41
1.0
 50
0.0
 71
     0
 42
6.0
  3
TXT
  4
BIGFONT
  0
STYLE
  2
STANDARD1
 70
     0
 40
0.0
 41
1.0
 50
0.0
 71
     0
 42
3.0
  3
txt
  4

  0
ENDTAB
  0
TABLE
  2
VIEW
 70
     1
  0
VIEW
  2
ALL
 70
     0
 40
270.0
 10
213.25689075630251
 20
135.0
 41
0.0
 11
0.0
 21
0.0
 31
1.0
 12
0.0
 22
0.0
 32
0.0
 42
0.0
 43
0.0
 44
0.0
 50
0.0
 71
     0
  0
ENDTAB
  0
TABLE
  2
UCS
 70
     0
  0
ENDTAB
  0
TABLE
  2
APPID
 70
     6
  0
APPID
  2
ACAD
 70
     0
  0
APPID
  2
ACAD_EXEMPT_FROM_CAD_STANDARDS
 70
     0
  0
APPID
  2
ACAD_MLEADERVER
 70
     0
  0
APPID
  2
ACAD_DSTYLE_DIMJAG
 70
     0
  0
APPID
  2
ACAD_DSTYLE_DIMTALN
 70
     0
  0
APPID
  2
ACAD_NAV_VCDISPLAY
 70
     0
  0
ENDTAB
  0
TABLE
  2
DIMSTYLE
 70
     1
  0
DIMSTYLE
  2
STANDARD
 70
     0
  3

  4

  5

  6

  7

 40
1.0
 41
0.18
 42
0.0625
 43
0.38
 44
0.18
 45
0.0
 46
0.0
 47
0.0
 48
0.0
140
0.18
141
0.09
142
0.0
143
25.399999999999999
144
1.0
145
0.0
146
1.0
147
0.09
 71
     0
 72
     0
 73
     1
 74
     1
 75
     0
 76
     0
 77
     0
 78
     0
170
     0
171
     2
172
     0
173
     0
174
     0
175
     0
176
     0
177
     0
178
     0
  0
ENDTAB
  0
ENDSEC
  0
SECTION
  2
BLOCKS
  0
BLOCK
  8
0
  2
$MODEL_SPACE
 70
     0
 10
0.0
 20
0.0
 30
0.0
  3
$MODEL_SPACE
  1

  0
ENDBLK
  5
126
  8
0
  0
BLOCK
 67
     1
  8
0
  2
$PAPER_SPACE
 70
     0
 10
0.0
 20
0.0
 30
0.0
  3
$PAPER_SPACE
  1

  0
ENDBLK
  5
124
 67
     1
  8
0
  0
ENDSEC
  0
SECTION
  2
ENTITIES
  0
ARC
  5
E0B0
  8
0
 10
220.87416588939999
 20
298.64712893538763
 30
0.0
 40
3.6708949320047939
 50
142.50323145985189
 51
170.7510319717548
  0
LINE
  5
E0B1
  8
0
 10
212.98887848854071
 20
299.23389485478401
 30
0.0
 11
214.1685177385807
 21
299.23479078710079
 31
0.0
  0
LINE
  5
E0B2
  8
0
 10
214.1685177385807
 20
299.23479078710079
 30
0.0
 11
214.16613355278969
 21
302.37735953554511
 31
0.0
  0
ARC
  5
E0B3
  8
0
 10
214.80614328732921
 20
293.49554969444108
 30
0.0
 40
4.9144986940676301
 50
71.49648327665416
 51
81.129597981796337
  0
ARC
  5
E0B4
  8
0
 10
220.7404774833071
 20
298.86178711459399
 30
0.0
 40
4.4312250364783452
 50
186.60803002292181
 51
189.1650058665879
  0
ARC
  5
E0B5
  8
0
 10
208.4534023443648
 20
298.93862387223459
 30
0.0
 40
3.6708949320047939
 50
322.50323145985197
 51
350.75103197175548
  0
LINE
  5
E0B6
  8
0
 10
212.07657352089879
 20
298.34861966222519
 30
0.0
 11
210.65261855721471
 21
298.34753839671612
 31
0.0
  0
ARC
  5
E0B7
  8
0
 10
214.66742328172899
 20
294.00139394584562
 30
0.0
 40
1.1794421759882301
 50
270.04356074218799
 51
90.043445193005752
  0
LINE
  5
E0B8
  8
0
 10
214.17400881648061
 20
292.0107097029686
 30
0.0
 11
214.17339041829109
 21
292.8215768784284
 31
0.0
  0
LINE
  5
E0B9
  8
0
 10
214.66893598437309
 20
292.01108595728869
 30
0.0
 11
214.17400881648061
 21
292.0107097029686
 31
0.0
  0
ARC
  5
E0BA
  8
0
 10
214.7827879479164
 20
294.1462358614728
 30
0.0
 40
2.1381833060541009
 50
266.94772457242192
 51
344.10813616549922
  0
LINE
  5
E0BB
  8
0
 10
217.7629870176315
 20
293.56145492196077
 30
0.0
 11
216.83924913406369
 21
293.56075270473963
 31
0.0
  0
ARC
  5
E0BC
  8
0
 10
214.8318731155114
 20
294.19452457540581
 30
0.0
 40
2.9987014733234161
 50
266.8970350705693
 51
347.8123147831717
  0
LINE
  5
E0BD
  8
0
 10
214.17462348937991
 20
291.19984439015388
 30
0.0
 11
214.6695506572724
 21
291.20021878182888
 31
0.0
  0
LINE
  5
E0BE
  8
0
 10
214.1752381622791
 20
290.38897721469402
 30
0.0
 11
214.17462348937991
 21
291.19984439015388
 31
0.0
  0
LINE
  5
E0BF
  8
0
 10
214.67016905546191
 20
290.38935346901411
 30
0.0
 11
214.1752381622791
 21
290.38897721469402
 31
0.0
  0
ARC
  5
E0C0
  8
0
 10
214.88056133494459
 20
294.24281298779511
 30
0.0
 40
3.8591989789486632
 50
266.8748350593836
 51
349.8413737440066
  0
LINE
  5
E0C1
  8
0
 10
219.5922386646271
 20
293.5628444552421
 30
0.0
 11
218.67925941944119
 21
293.56215155124659
 31
0.0
  0
ARC
  5
E0C2
  8
0
 10
214.7081472035629
 20
293.88518281061852
 30
0.0
 40
4.8947152082258212
 50
149.16608930843901
 51
356.22408712698518
  0
ARC
  5
E0C3
  8
0
 10
214.6635675213347
 20
299.0779983015388
 30
0.0
 40
4.9492871999505441
 50
327.2463569769028
 51
212.84069356854511
  0
ARC
  5
E0C4
  8
0
 10
215.15065779656109
 20
293.83288104879023
 30
0.0
 40
4.4832268969305584
 50
7.8787040467284442
 51
34.936701865269292
  0
LINE
  5
E0C5
  8
0
 10
218.6785888671875
 20
294.44673197716469
 30
0.0
 11
219.59156438708311
 21
294.44742581248278
 31
0.0
  0
ARC
  5
E0C6
  8
0
 10
214.88092788125641
 20
293.76029900702417
 30
0.0
 40
3.8591989789486951
 50
10.245676801441631
 51
93.212215486044869
  0
LINE
  5
E0C7
  8
0
 10
214.16975080966949
 20
297.61305829882622
 30
0.0
 11
214.66468170285231
 21
297.61343455314631
 31
0.0
  0
LINE
  5
E0C8
  8
0
 10
214.1691920161247
 20
298.35020942986012
 30
0.0
 11
214.16975080966949
 21
297.61305829882622
 31
0.0
  0
LINE
  5
E0C9
  8
0
 10
212.9895490407944
 20
298.34931349754328
 30
0.0
 11
214.1691920161247
 21
298.35020942986012
 31
0.0
  0
ARC
  5
E0CA
  8
0
 10
208.53479533481089
 20
298.97537147991488
 30
0.0
 40
4.4985312950308067
 50
320.07115526316238
 51
352.00021456259373
  0
ARC
  5
E0CB
  8
0
 10
214.5209103440379
 20
299.16853809925078
 30
0.0
 40
3.9903602024184819
 50
230.53217560829779
 51
272.09133621753341
  0
ARC
  5
E0CC
  8
0
 10
214.27511819356459
 20
298.64211590635881
 30
0.0
 40
3.6708949320048219
 50
142.503231459852
 51
170.7510319717548
  0
ARC
  5
E0CD
  8
0
 10
220.7927728989539
 20
298.61038132770722
 30
0.0
 40
4.4985312950305953
 50
140.07115526316079
 51
172.00021456259259
  0
LINE
  5
E0CE
  8
0
 10
215.1559878885746
 20
302.37811157852411
 30
0.0
 11
215.15837579965589
 21
299.23554329574108
 31
0.0
  0
LINE
  5
E0CF
  8
0
 10
218.6756198108196
 20
298.3536329716444
 30
0.0
 11
217.2516685724259
 21
298.35255170613527
 31
0.0
  0
ARC
  5
E0D0
  8
0
 10
220.84504586676351
 20
298.8903824895259
 30
0.0
 40
3.6334050091969048
 50
188.51243141081969
 51
199.49913084382209
  0
ARC
  5
E0D1
  8
0
 10
215.0033914148807
 20
293.60000058114531
 30
0.0
 40
4.7399138344492791
 50
47.233819826908842
 51
59.346264167647909
  0
ARC
  5
E0D2
  8
0
 10
215.0526786447613
 20
298.64270658751371
 30
0.0
 40
3.6708949320048001
 50
9.3360185736959451
 51
37.583819085590662
  0
LINE
  5
E0D3
  8
0
 10
217.25099429488179
 20
299.23713306337589
 30
0.0
 11
218.6749492585659
 21
299.23821432888508
 31
0.0
  0
ARC
  5
E0D4
  8
0
 10
215.06614502913769
 20
298.92160508700118
 30
0.0
 40
3.6538891997954299
 50
329.72905831653452
 51
351.05750239331672
  0
LINE
  5
E0D5
  8
0
 10
215.15837579965589
 20
299.23554329574108
 30
0.0
 11
216.3380187749863
 21
299.2364392280578
 31
0.0
  0
LINE
  5
E0D6
  8
0
 10
216.33868932723999
 20
298.35185787081718
 30
0.0
 11
215.56395933032039
 21
298.35126927495003
 31
0.0
  0
LINE
  5
E0D7
  8
0
 10
214.17339041829109
 20
292.8215768784284
 30
0.0
 11
214.6683213114739
 21
292.8219512701034
 31
0.0
  0
LINE
  5
E0D8
  8
0
 10
210.65194800496101
 20
299.23211975395679
 30
0.0
 11
212.0758992433548
 21
299.23320101946592
 31
0.0
  0
ARC
  5
E0D9
  8
0
 10
208.53507967673431
 20
298.60106965505622
 30
0.0
 40
4.4985312950306104
 50
8.086835982857103
 51
40.015895282291488
  0
ARC
  5
E0DA
  8
0
 10
214.495161036582
 20
298.41859552752447
 30
0.0
 40
3.9724141444699992
 50
94.75116182225679
 51
129.27684809874501
  0
ARC
  5
E0DB
  8
0
 10
214.8329756542548
 20
298.4188521515955
 30
0.0
 40
3.9724141444700471
 50
50.810202446710981
 51
85.335888723185377
  0
ARC
  5
E0DC
  8
0
 10
214.274889589004
 20
298.94304622010861
 30
0.0
 40
3.670894932004789
 50
189.3360185736974
 51
217.58381908559099
  0
ARC
  5
E0DD
  8
0
 10
208.45363094892539
 20
298.63769355848478
 30
0.0
 40
3.670894932004773
 50
9.3360185736959451
 51
37.583819085589028
  0
ARC
  5
E0DE
  8
0
 10
214.7830078757033
 20
293.85672747300879
 30
0.0
 40
2.138183306054009
 50
15.978914379956761
 51
93.139325973021144
  0
ARC
  5
E0DF
  8
0
 10
214.83216635256031
 20
293.80851339079021
 30
0.0
 40
2.9987014733234418
 50
12.27473576227667
 51
93.190015474874514
  0
LINE
  5
E0E0
  8
0
 10
216.83857858181
 20
294.44533406198019
 30
0.0
 11
217.76231646537781
 21
294.44603627920151
 31
0.0
  0
LINE
  5
E0E1
  8
0
 10
214.17098388075831
 20
295.99132581055159
 30
0.0
 11
214.6659110486508
 21
295.99170206487179
 31
0.0
  0
LINE
  5
E0E2
  8
0
 10
214.1703692078591
 20
296.80219205468887
 30
0.0
 11
214.17098388075831
 21
295.99132581055159
 31
0.0
  0
LINE
  5
E0E3
  8
0
 10
214.6652963757515
 20
296.80256830900908
 30
0.0
 11
214.1703692078591
 21
296.80219205468887
 31
0.0
  0
LINE
  5
E0E4
  8
0
 10
213.93537044525149
 20
307.53575969859958
 30
0.0
 11
218.50658476352689
 21
307.53923236764967
 31
0.0
  0
ARC
  5
E0E5
  8
0
 10
213.8021005930959
 20
310.39466126709948
 30
0.0
 40
2.8620060885596228
 50
144.68909744645171
 51
272.66896989130709
  0
LINE
  5
E0E6
  8
0
 10
218.5013619065285
 20
314.41930966824287
 30
0.0
 11
218.4997265040875
 21
316.5693339556455
 31
0.0
  0
LINE
  5
E0E7
  8
0
 10
213.93014386296269
 20
314.41583723202348
 30
0.0
 11
218.5013619065285
 21
314.41930966824287
 31
0.0
  0
ARC
  5
E0E8
  8
0
 10
213.930634714528
 20
313.77082988836281
 30
0.0
 40
0.6450074399935698
 50
90.043525272713381
 51
270.0435252727134
  0
LINE
  5
E0E9
  8
0
 10
218.502341657877
 20
313.12929518893361
 30
0.0
 11
213.93112361431119
 21
313.12582251988351
 31
0.0
  0
LINE
  5
E0EA
  8
0
 10
218.50397333502769
 20
310.9792710179463
 30
0.0
 11
218.502341657877
 21
313.12929518893361
 31
0.0
  0
LINE
  5
E0EB
  8
0
 10
213.9327590167523
 20
310.97579846531153
 30
0.0
 11
218.50397333502769
 21
310.9792710179463
 31
0.0
  0
ARC
  5
E0EC
  8
0
 10
213.9332479724699
 20
310.33079120099012
 30
0.0
 40
0.6450074399935414
 50
90.043525272713381
 51
270.0435252727134
  0
ARC
  5
E0ED
  8
0
 10
213.7995845254641
 20
313.70676064138928
 30
0.0
 40
2.862006088559629
 50
87.418080654135196
 51
215.39795309898969
  0
LINE
  5
E0EE
  8
0
 10
218.4997265040875
 20
316.5693339556455
 30
0.0
 11
213.928512185812
 21
316.56586151942611
 31
0.0
  0
LINE
  5
E0EF
  8
0
 10
218.50495308637619
 20
309.6892565095331
 30
0.0
 11
213.9337387681008
 21
309.68578395689838
 31
0.0
  0
LINE
  5
E0F0
  8
0
 10
218.50658476352689
 20
307.53923236764967
 30
0.0
 11
218.50495308637619
 21
309.6892565095331
 31
0.0
  0
LINE
  5
E0F1
  8
0
 10
218.5088720917702
 20
304.52919850498438
 30
0.0
 11
218.5072404146195
 21
306.67922255955631
 31
0.0
  0
LINE
  5
E0F2
  8
0
 10
210.80998599529269
 20
304.52334979921579
 30
0.0
 11
218.5088720917702
 21
304.52919850498438
 31
0.0
  0
LINE
  5
E0F3
  8
0
 10
210.8083505928517
 20
306.67337408661842
 30
0.0
 11
210.80998599529269
 21
304.52334979921579
 31
0.0
  0
LINE
  5
E0F4
  8
0
 10
218.5072404146195
 20
306.67922255955631
 30
0.0
 11
210.8083505928517
 21
306.67337408661842
 31
0.0
  0
ARC
  5
E0F5
  8
0
 10
213.92573425233789
 20
320.22090242672812
 30
0.0
 40
0.6450074399938451
 50
90.043471659631649
 51
270.04357888579523
  0
LINE
  5
E0F6
  8
0
 10
213.9262248575688
 20
319.57589561492199
 30
0.0
 11
214.888586550951
 21
319.57662670314312
 31
0.0
  0
LINE
  5
E0F7
  8
0
 10
214.888586550951
 20
319.57662670314312
 30
0.0
 11
214.88760679960251
 21
320.8666407167911
 31
0.0
  0
LINE
  5
E0F8
  8
0
 10
214.88760679960251
 20
320.8666407167911
 30
0.0
 11
213.9252451062203
 21
320.86590962857008
 31
0.0
  0
LINE
  5
E0F9
  8
0
 10
216.81232646107671
 20
320.8681028932333
 30
0.0
 11
218.4964594244957
 21
320.86938253045082
 31
0.0
  0
LINE
  5
E0FA
  8
0
 10
218.49907457828519
 20
317.42934376373893
 30
0.0
 11
218.49743917584419
 21
319.57936758548021
 31
0.0
  0
LINE
  5
E0FB
  8
0
 10
213.9278565347195
 20
317.42587086185807
 30
0.0
 11
218.49907457828519
 21
317.42934376373893
 31
0.0
  0
ARC
  5
E0FC
  8
0
 10
213.92573425233789
 20
320.22090242672812
 30
0.0
 40
2.795032239972099
 50
90.043512900469779
 51
270.04353764495698
  0
LINE
  5
E0FD
  8
0
 10
218.494827747345
 20
323.01940681785339
 30
0.0
 11
213.92361342906949
 21
323.01593391597271
 31
0.0
  0
LINE
  5
E0FE
  8
0
 10
218.4964594244957
 20
320.86938253045082
 30
0.0
 11
218.494827747345
 21
323.01940681785339
 31
0.0
  0
LINE
  5
E0FF
  8
0
 10
216.8133099377155
 20
319.57808794826269
 30
0.0
 11
216.81232646107671
 21
320.8681028932333
 31
0.0
  0
LINE
  5
E100
  8
0
 10
218.49743917584419
 20
319.57936758548021
 30
0.0
 11
216.8133099377155
 21
319.57808794826269
 31
0.0
  0
CIRCLE
  5
E101
  8
0
 10
214.88760599233231
 20
327.49510686581931
 30
0.0
 40
1.290014879987154
  0
CIRCLE
  5
E102
  8
0
 10
214.88760599233231
 20
327.49510686581931
 30
0.0
 40
3.6692040000000068
  0
LINE
  5
E15F
  8
0
 10
186.22758973389861
 20
335.90192353725428
 30
0.0
 11
223.8694158196449
 21
335.90192353725428
 31
0.0
  0
LINE
  5
E164
  8
0
 10
223.8694158196449
 20
335.90192353725428
 30
0.0
 11
223.8694158196449
 21
284.09807762503618
 31
0.0
  0
LINE
  5
E165
  8
0
 10
223.8694158196449
 20
284.09807762503618
 30
0.0
 11
186.22758973389861
 21
284.09807762503618
 31
0.0
  0
LINE
  5
E166
  8
0
 10
186.22758973389861
 20
335.90192353725428
 30
0.0
 11
186.22758973389861
 21
284.09807762503618
 31
0.0
  0
POLYLINE
  5
E16F
  8
0
 10
223.86941681866529
 20
335.90192436979208
 30
0.0
 66
     1
 70
     8
  0
VERTEX
  8
0
  5
158B2
 10
223.869
 20
335.902
 30
0.000000
  70
    32
  0
VERTEX
  8
0
  5
158B3
 10
223.894
 20
335.902
 30
0.000000
  70
    32
  0
VERTEX
  8
0
  5
158B4
 10
223.919
 20
335.902
 30
0.000000
  70
    32
  0
VERTEX
  8
0
  5
158B5
 10
223.943
 20
335.903
 30
0.000000
  70
    32
  0
VERTEX
  8
0
  5
158B6
 10
223.968
 20
335.903
 30
0.000000
  70
    32
  0
VERTEX
  8
0
  5
158B7
 10
223.992
 20
335.904
 30
0.000000
  70
    32
  0
VERTEX
  8
0
  5
158B8
 10
224.017
 20
335.905
 30
0.000000
  70
    32
  0
VERTEX
  8
0
  5
158B9
 10
224.041
 20
335.906
 30
0.000000
  70
    32
  0
VERTEX
  8
0
  5
158BA
 10
224.066
 20
335.907
 30
0.000000
  70
    32
  0
VERTEX
  8
0
  5
158BB
 10
224.090
 20
335.909
 30
0.000000
  70
    32
  0
VERTEX
  8
0
  5
158BC
 10
224.115
 20
335.911
 30
0.000000
  70
    32
  0
VERTEX
  8
0
  5
158BD
 10
224.139
 20
335.912
 30
0.000000
  70
    32
  0
VERTEX
  8
0
  5
158BE
 10
224.164
 20
335.914
 30
0.000000
  70
    32
  0
VERTEX
  8
0
  5
158BF
 10
224.188
 20
335.917
 30
0.000000
  70
    32
  0
VERTEX
  8
0
  5
158C0
 10
224.213
 20
335.919
 30
0.000000
  70
    32
  0
VERTEX
  8
0
  5
158C1
 10
224.237
 20
335.921
 30
0.000000
  70
    32
  0
VERTEX
  8
0
  5
158C2
 10
224.262
 20
335.924
 30
0.000000
  70
    32
  0
VERTEX
  8
0
  5
158C3
 10
224.286
 20
335.927
 30
0.000000
  70
    32
  0
VERTEX
  8
0
  5
158C4
 10
224.311
 20
335.930
 30
0.000000
  70
    32
  0
VERTEX
  8
0
  5
158C5
 10
224.335
 20
335.933
 30
0.000000
  70
    32
  0
VERTEX
  8
0
  5
158C6
 10
224.360
 20
335.937
 30
0.000000
  70
    32
  0
VERTEX
  8
0
  5
158C7
 10
224.384
 20
335.940
 30
0.000000
  70
    32
  0
VERTEX
  8
0
  5
158C8
 10
224.409
 20
335.944
 30
0.000000
  70
    32
  0
VERTEX
  8
0
  5
158C9
 10
224.433
 20
335.948
 30
0.000000
  70
    32
  0
VERTEX
  8
0
  5
158CA
 10
224.458
 20
335.952
 30
0.000000
  70
    32
  0
VERTEX
  8
0
  5
158CB
 10
224.482
 20
335.956
 30
0.000000
  70
    32
  0
VERTEX
  8
0
  5
158CC
 10
224.506
 20
335.961
 30
0.000000
  70
    32
  0
VERTEX
  8
0
  5
158CD
 10
224.531
 20
335.965
 30
0.000000
  70
    32
  0
VERTEX
  8
0
  5
158CE
 10
224.555
 20
335.970
 30
0.000000
  70
    32
  0
VERTEX
  8
0
  5
158CF
 10
224.580
 20
335.975
 30
0.000000
  70
    32
  0
VERTEX
  8
0
  5
158D0
 10
224.604
 20
335.980
 30
0.000000
  70
    32
  0
VERTEX
  8
0
  5
158D1
 10
224.628
 20
335.985
 30
0.000000
  70
    32
  0
VERTEX
  8
0
  5
158D2
 10
224.653
 20
335.991
 30
0.000000
  70
    32
  0
VERTEX
  8
0
  5
158D3
 10
224.677
 20
335.996
 30
0.000000
  70
    32
  0
VERTEX
  8
0
  5
158D4
 10
224.701
 20
336.002
 30
0.000000
  70
    32
  0
VERTEX
  8
0
  5
158D5
 10
224.726
 20
336.008
 30
0.000000
  70
    32
  0
VERTEX
  8
0
  5
158D6
 10
224.750
 20
336.014
 30
0.000000
  70
    32
  0
VERTEX
  8
0
  5
158D7
 10
224.774
 20
336.021
 30
0.000000
  70
    32
  0
VERTEX
  8
0
  5
158D8
 10
224.798
 20
336.027
 30
0.000000
  70
    32
  0
VERTEX
  8
0
  5
158D9
 10
224.823
 20
336.034
 30
0.000000
  70
    32
  0
VERTEX
  8
0
  5
158DA
 10
224.847
 20
336.041
 30
0.000000
  70
    32
  0
VERTEX
  8
0
  5
158DB
 10
224.871
 20
336.048
 30
0.000000
  70
    32
  0
VERTEX
  8
0
  5
158DC
 10
224.895
 20
336.055
 30
0.000000
  70
    32
  0
VERTEX
  8
0
  5
158DD
 10
224.919
 20
336.062
 30
0.000000
  70
    32
  0
VERTEX
  8
0
  5
158DE
 10
224.944
 20
336.070
 30
0.000000
  70
    32
  0
VERTEX
  8
0
  5
158DF
 10
224.968
 20
336.077
 30
0.000000
  70
    32
  0
VERTEX
  8
0
  5
158E0
 10
224.992
 20
336.085
 30
0.000000
  70
    32
  0
VERTEX
  8
0
  5
158E1
 10
225.016
 20
336.093
 30
0.000000
  70
    32
  0
VERTEX
  8
0
  5
158E2
 10
225.040
 20
336.102
 30
0.000000
  70
    32
  0
VERTEX
  8
0
  5
158E3
 10
225.064
 20
336.110
 30
0.000000
  70
    32
  0
VERTEX
  8
0
  5
158E4
 10
225.088
 20
336.119
 30
0.000000
  70
    32
  0
VERTEX
  8
0
  5
158E5
 10
225.112
 20
336.127
 30
0.000000
  70
    32
  0
VERTEX
  8
0
  5
158E6
 10
225.136
 20
336.136
 30
0.000000
  70
    32
  0
VERTEX
  8
0
  5
158E7
 10
225.160
 20
336.145
 30
0.000000
  70
    32
  0
VERTEX
  8
0
  5
158E8
 10
225.184
 20
336.154
 30
0.000000
  70
    32
  0
VERTEX
  8
0
  5
158E9
 10
225.208
 20
336.164
 30
0.000000
  70
    32
  0
VERTEX
  8
0
  5
158EA
 10
225.232
 20
336.173
 30
0.000000
  70
    32
  0
VERTEX
  8
0
  5
158EB
 10
225.256
 20
336.183
 30
0.000000
  70
    32
  0
VERTEX
  8
0
  5
158EC
 10
225.280
 20
336.193
 30
0.000000
  70
    32
  0
VERTEX
  8
0
  5
158ED
 10
225.303
 20
336.203
 30
0.000000
  70
    32
  0
VERTEX
  8
0
  5
158EE
 10
225.327
 20
336.213
 30
0.000000
  70
    32
  0
VERTEX
  8
0
  5
158EF
 10
225.351
 20
336.224
 30
0.000000
  70
    32
  0
VERTEX
  8
0
  5
158F0
 10
225.375
 20
336.234
 30
0.000000
  70
    32
  0
VERTEX
  8
0
  5
158F1
 10
225.399
 20
336.245
 30
0.000000
  70
    32
  0
VERTEX
  8
0
  5
158F2
 10
225.422
 20
336.256
 30
0.000000
  70
    32
  0
VERTEX
  8
0
  5
158F3
 10
225.446
 20
336.267
 30
0.000000
  70
    32
  0
VERTEX
  8
0
  5
158F4
 10
225.470
 20
336.278
 30
0.000000
  70
    32
  0
VERTEX
  8
0
  5
158F5
 10
225.493
 20
336.290
 30
0.000000
  70
    32
  0
VERTEX
  8
0
  5
158F6
 10
225.517
 20
336.301
 30
0.000000
  70
    32
  0
VERTEX
  8
0
  5
158F7
 10
225.541
 20
336.313
 30
0.000000
  70
    32
  0
VERTEX
  8
0
  5
158F8
 10
225.564
 20
336.325
 30
0.000000
  70
    32
  0
VERTEX
  8
0
  5
158F9
 10
225.588
 20
336.337
 30
0.000000
  70
    32
  0
VERTEX
  8
0
  5
158FA
 10
225.611
 20
336.349
 30
0.000000
  70
    32
  0
VERTEX
  8
0
  5
158FB
 10
225.635
 20
336.362
 30
0.000000
  70
    32
  0
VERTEX
  8
0
  5
158FC
 10
225.658
 20
336.374
 30
0.000000
  70
    32
  0
VERTEX
  8
0
  5
158FD
 10
225.681
 20
336.387
 30
0.000000
  70
    32
  0
VERTEX
  8
0
  5
158FE
 10
225.705
 20
336.400
 30
0.000000
  70
    32
  0
VERTEX
  8
0
  5
158FF
 10
225.728
 20
336.413
 30
0.000000
  70
    32
  0
VERTEX
  8
0
  5
15900
 10
225.752
 20
336.426
 30
0.000000
  70
    32
  0
VERTEX
  8
0
  5
15901
 10
225.775
 20
336.440
 30
0.000000
  70
    32
  0
VERTEX
  8
0
  5
15902
 10
225.798
 20
336.453
 30
0.000000
  70
    32
  0
VERTEX
  8
0
  5
15903
 10
225.821
 20
336.467
 30
0.000000
  70
    32
  0
VERTEX
  8
0
  5
15904
 10
225.844
 20
336.481
 30
0.000000
  70
    32
  0
VERTEX
  8
0
  5
15905
 10
225.868
 20
336.495
 30
0.000000
  70
    32
  0
VERTEX
  8
0
  5
15906
 10
225.891
 20
336.509
 30
0.000000
  70
    32
  0
VERTEX
  8
0
  5
15907
 10
225.914
 20
336.524
 30
0.000000
  70
    32
  0
VERTEX
  8
0
  5
15908
 10
225.937
 20
336.538
 30
0.000000
  70
    32
  0
VERTEX
  8
0
  5
15909
 10
225.960
 20
336.553
 30
0.000000
  70
    32
  0
VERTEX
  8
0
  5
1590A
 10
225.983
 20
336.568
 30
0.000000
  70
    32
  0
VERTEX
  8
0
  5
1590B
 10
226.006
 20
336.583
 30
0.000000
  70
    32
  0
VERTEX
  8
0
  5
1590C
 10
226.029
 20
336.598
 30
0.000000
  70
    32
  0
VERTEX
  8
0
  5
1590D
 10
226.052
 20
336.614
 30
0.000000
  70
    32
  0
VERTEX
  8
0
  5
1590E
 10
226.075
 20
336.629
 30
0.000000
  70
    32
  0
VERTEX
  8
0
  5
1590F
 10
226.097
 20
336.645
 30
0.000000
  70
    32
  0
VERTEX
  8
0
  5
15910
 10
226.120
 20
336.661
 30
0.000000
  70
    32
  0
VERTEX
  8
0
  5
15911
 10
226.143
 20
336.677
 30
0.000000
  70
    32
  0
VERTEX
  8
0
  5
15912
 10
226.166
 20
336.693
 30
0.000000
  70
    32
  0
VERTEX
  8
0
  5
15913
 10
226.188
 20
336.709
 30
0.000000
  70
    32
  0
VERTEX
  8
0
  5
15914
 10
226.211
 20
336.726
 30
0.000000
  70
    32
  0
VERTEX
  8
0
  5
15915
 10
226.233
 20
336.743
 30
0.000000
  70
    32
  0
VERTEX
  8
0
  5
15916
 10
226.256
 20
336.759
 30
0.000000
  70
    32
  0
VERTEX
  8
0
  5
15917
 10
226.278
 20
336.776
 30
0.000000
  70
    32
  0
VERTEX
  8
0
  5
15918
 10
226.301
 20
336.793
 30
0.000000
  70
    32
  0
VERTEX
  8
0
  5
15919
 10
226.323
 20
336.811
 30
0.000000
  70
    32
  0
VERTEX
  8
0
  5
1591A
 10
226.346
 20
336.828
 30
0.000000
  70
    32
  0
VERTEX
  8
0
  5
1591B
 10
226.368
 20
336.846
 30
0.000000
  70
    32
  0
VERTEX
  8
0
  5
1591C
 10
226.390
 20
336.864
 30
0.000000
  70
    32
  0
VERTEX
  8
0
  5
1591D
 10
226.413
 20
336.882
 30
0.000000
  70
    32
  0
VERTEX
  8
0
  5
1591E
 10
226.435
 20
336.900
 30
0.000000
  70
    32
  0
VERTEX
  8
0
  5
1591F
 10
226.457
 20
336.918
 30
0.000000
  70
    32
  0
VERTEX
  8
0
  5
15920
 10
226.479
 20
336.936
 30
0.000000
  70
    32
  0
VERTEX
  8
0
  5
15921
 10
226.501
 20
336.955
 30
0.000000
  70
    32
  0
VERTEX
  8
0
  5
15922
 10
226.523
 20
336.974
 30
0.000000
  70
    32
  0
VERTEX
  8
0
  5
15923
 10
226.545
 20
336.993
 30
0.000000
  70
    32
  0
VERTEX
  8
0
  5
15924
 10
226.567
 20
337.012
 30
0.000000
  70
    32
  0
VERTEX
  8
0
  5
15925
 10
226.589
 20
337.031
 30
0.000000
  70
    32
  0
VERTEX
  8
0
  5
15926
 10
226.611
 20
337.050
 30
0.000000
  70
    32
  0
VERTEX
  8
0
  5
15927
 10
226.633
 20
337.070
 30
0.000000
  70
    32
  0
VERTEX
  8
0
  5
15928
 10
226.654
 20
337.089
 30
0.000000
  70
    32
  0
VERTEX
  8
0
  5
15929
 10
226.676
 20
337.109
 30
0.000000
  70
    32
  0
VERTEX
  8
0
  5
1592A
 10
226.698
 20
337.129
 30
0.000000
  70
    32
  0
VERTEX
  8
0
  5
1592B
 10
226.719
 20
337.149
 30
0.000000
  70
    32
  0
VERTEX
  8
0
  5
1592C
 10
226.741
 20
337.169
 30
0.000000
  70
    32
  0
VERTEX
  8
0
  5
1592D
 10
226.763
 20
337.190
 30
0.000000
  70
    32
  0
VERTEX
  8
0
  5
1592E
 10
226.784
 20
337.210
 30
0.000000
  70
    32
  0
VERTEX
  8
0
  5
1592F
 10
226.805
 20
337.231
 30
0.000000
  70
    32
  0
VERTEX
  8
0
  5
15930
 10
226.827
 20
337.252
 30
0.000000
  70
    32
  0
VERTEX
  8
0
  5
15931
 10
226.848
 20
337.273
 30
0.000000
  70
    32
  0
VERTEX
  8
0
  5
15932
 10
226.869
 20
337.294
 30
0.000000
  70
    32
  0
SEQEND
  8
0
  5
15933
  0
POLYLINE
  5
E171
  8
0
 10
186.22758995765889
 20
284.09807679249855
 30
0.0
 66
     1
 70
     8
  0
VERTEX
  8
0
  5
15934
 10
186.228
 20
284.098
 30
0.000000
  70
    32
  0
VERTEX
  8
0
  5
15935
 10
186.211
 20
284.098
 30
0.000000
  70
    32
  0
VERTEX
  8
0
  5
15936
 10
186.195
 20
284.098
 30
0.000000
  70
    32
  0
VERTEX
  8
0
  5
15937
 10
186.179
 20
284.098
 30
0.000000
  70
    32
  0
VERTEX
  8
0
  5
15938
 10
186.162
 20
284.097
 30
0.000000
  70
    32
  0
VERTEX
  8
0
  5
15939
 10
186.146
 20
284.097
 30
0.000000
  70
    32
  0
VERTEX
  8
0
  5
1593A
 10
186.129
 20
284.097
 30
0.000000
  70
    32
  0
VERTEX
  8
0
  5
1593B
 10
186.113
 20
284.096
 30
0.000000
  70
    32
  0
VERTEX
  8
0
  5
1593C
 10
186.097
 20
284.096
 30
0.000000
  70
    32
  0
VERTEX
  8
0
  5
1593D
 10
186.080
 20
284.095
 30
0.000000
  70
    32
  0
VERTEX
  8
0
  5
1593E
 10
186.064
 20
284.094
 30
0.000000
  70
    32
  0
VERTEX
  8
0
  5
1593F
 10
186.048
 20
284.093
 30
0.000000
  70
    32
  0
VERTEX
  8
0
  5
15940
 10
186.031
 20
284.093
 30
0.000000
  70
    32
  0
VERTEX
  8
0
  5
15941
 10
186.015
 20
284.092
 30
0.000000
  70
    32
  0
VERTEX
  8
0
  5
15942
 10
185.999
 20
284.091
 30
0.000000
  70
    32
  0
VERTEX
  8
0
  5
15943
 10
185.982
 20
284.089
 30
0.000000
  70
    32
  0
VERTEX
  8
0
  5
15944
 10
185.966
 20
284.088
 30
0.000000
  70
    32
  0
VERTEX
  8
0
  5
15945
 10
185.950
 20
284.087
 30
0.000000
  70
    32
  0
VERTEX
  8
0
  5
15946
 10
185.933
 20
284.086
 30
0.000000
  70
    32
  0
VERTEX
  8
0
  5
15947
 10
185.917
 20
284.084
 30
0.000000
  70
    32
  0
VERTEX
  8
0
  5
15948
 10
185.901
 20
284.083
 30
0.000000
  70
    32
  0
VERTEX
  8
0
  5
15949
 10
185.884
 20
284.081
 30
0.000000
  70
    32
  0
VERTEX
  8
0
  5
1594A
 10
185.868
 20
284.079
 30
0.000000
  70
    32
  0
VERTEX
  8
0
  5
1594B
 10
185.852
 20
284.078
 30
0.000000
  70
    32
  0
VERTEX
  8
0
  5
1594C
 10
185.835
 20
284.076
 30
0.000000
  70
    32
  0
VERTEX
  8
0
  5
1594D
 10
185.819
 20
284.074
 30
0.000000
  70
    32
  0
VERTEX
  8
0
  5
1594E
 10
185.803
 20
284.072
 30
0.000000
  70
    32
  0
VERTEX
  8
0
  5
1594F
 10
185.786
 20
284.070
 30
0.000000
  70
    32
  0
VERTEX
  8
0
  5
15950
 10
185.770
 20
284.068
 30
0.000000
  70
    32
  0
VERTEX
  8
0
  5
15951
 10
185.754
 20
284.066
 30
0.000000
  70
    32
  0
VERTEX
  8
0
  5
15952
 10
185.737
 20
284.063
 30
0.000000
  70
    32
  0
VERTEX
  8
0
  5
15953
 10
185.721
 20
284.061
 30
0.000000
  70
    32
  0
VERTEX
  8
0
  5
15954
 10
185.705
 20
284.059
 30
0.000000
  70
    32
  0
VERTEX
  8
0
  5
15955
 10
185.688
 20
284.056
 30
0.000000
  70
    32
  0
VERTEX
  8
0
  5
15956
 10
185.672
 20
284.053
 30
0.000000
  70
    32
  0
VERTEX
  8
0
  5
15957
 10
185.656
 20
284.051
 30
0.000000
  70
    32
  0
VERTEX
  8
0
  5
15958
 10
185.639
 20
284.048
 30
0.000000
  70
    32
  0
VERTEX
  8
0
  5
15959
 10
185.623
 20
284.045
 30
0.000000
  70
    32
  0
VERTEX
  8
0
  5
1595A
 10
185.607
 20
284.042
 30
0.000000
  70
    32
  0
VERTEX
  8
0
  5
1595B
 10
185.591
 20
284.039
 30
0.000000
  70
    32
  0
VERTEX
  8
0
  5
1595C
 10
185.574
 20
284.036
 30
0.000000
  70
    32
  0
VERTEX
  8
0
  5
1595D
 10
185.558
 20
284.033
 30
0.000000
  70
    32
  0
VERTEX
  8
0
  5
1595E
 10
185.542
 20
284.030
 30
0.000000
  70
    32
  0
VERTEX
  8
0
  5
1595F
 10
185.526
 20
284.027
 30
0.000000
  70
    32
  0
VERTEX
  8
0
  5
15960
 10
185.509
 20
284.023
 30
0.000000
  70
    32
  0
VERTEX
  8
0
  5
15961
 10
185.493
 20
284.020
 30
0.000000
  70
    32
  0
VERTEX
  8
0
  5
15962
 10
185.477
 20
284.016
 30
0.000000
  70
    32
  0
VERTEX
  8
0
  5
15963
 10
185.461
 20
284.013
 30
0.000000
  70
    32
  0
VERTEX
  8
0
  5
15964
 10
185.444
 20
284.009
 30
0.000000
  70
    32
  0
VERTEX
  8
0
  5
15965
 10
185.428
 20
284.005
 30
0.000000
  70
    32
  0
VERTEX
  8
0
  5
15966
 10
185.412
 20
284.002
 30
0.000000
  70
    32
  0
VERTEX
  8
0
  5
15967
 10
185.396
 20
283.998
 30
0.000000
  70
    32
  0
VERTEX
  8
0
  5
15968
 10
185.380
 20
283.994
 30
0.000000
  70
    32
  0
VERTEX
  8
0
  5
15969
 10
185.363
 20
283.990
 30
0.000000
  70
    32
  0
VERTEX
  8
0
  5
1596A
 10
185.347
 20
283.986
 30
0.000000
  70
    32
  0
VERTEX
  8
0
  5
1596B
 10
185.331
 20
283.981
 30
0.000000
  70
    32
  0
VERTEX
  8
0
  5
1596C
 10
185.315
 20
283.977
 30
0.000000
  70
    32
  0
VERTEX
  8
0
  5
1596D
 10
185.299
 20
283.973
 30
0.000000
  70
    32
  0
VERTEX
  8
0
  5
1596E
 10
185.283
 20
283.968
 30
0.000000
  70
    32
  0
VERTEX
  8
0
  5
1596F
 10
185.266
 20
283.964
 30
0.000000
  70
    32
  0
VERTEX
  8
0
  5
15970
 10
185.250
 20
283.959
 30
0.000000
  70
    32
  0
VERTEX
  8
0
  5
15971
 10
185.234
 20
283.955
 30
0.000000
  70
    32
  0
VERTEX
  8
0
  5
15972
 10
185.218
 20
283.950
 30
0.000000
  70
    32
  0
VERTEX
  8
0
  5
15973
 10
185.202
 20
283.945
 30
0.000000
  70
    32
  0
VERTEX
  8
0
  5
15974
 10
185.186
 20
283.940
 30
0.000000
  70
    32
  0
VERTEX
  8
0
  5
15975
 10
185.170
 20
283.935
 30
0.000000
  70
    32
  0
VERTEX
  8
0
  5
15976
 10
185.153
 20
283.930
 30
0.000000
  70
    32
  0
VERTEX
  8
0
  5
15977
 10
185.137
 20
283.925
 30
0.000000
  70
    32
  0
VERTEX
  8
0
  5
15978
 10
185.121
 20
283.920
 30
0.000000
  70
    32
  0
VERTEX
  8
0
  5
15979
 10
185.105
 20
283.915
 30
0.000000
  70
    32
  0
VERTEX
  8
0
  5
1597A
 10
185.089
 20
283.909
 30
0.000000
  70
    32
  0
VERTEX
  8
0
  5
1597B
 10
185.073
 20
283.904
 30
0.000000
  70
    32
  0
VERTEX
  8
0
  5
1597C
 10
185.057
 20
283.898
 30
0.000000
  70
    32
  0
VERTEX
  8
0
  5
1597D
 10
185.041
 20
283.893
 30
0.000000
  70
    32
  0
VERTEX
  8
0
  5
1597E
 10
185.025
 20
283.887
 30
0.000000
  70
    32
  0
VERTEX
  8
0
  5
1597F
 10
185.009
 20
283.881
 30
0.000000
  70
    32
  0
VERTEX
  8
0
  5
15980
 10
184.993
 20
283.876
 30
0.000000
  70
    32
  0
VERTEX
  8
0
  5
15981
 10
184.977
 20
283.870
 30
0.000000
  70
    32
  0
VERTEX
  8
0
  5
15982
 10
184.961
 20
283.864
 30
0.000000
  70
    32
  0
VERTEX
  8
0
  5
15983
 10
184.945
 20
283.858
 30
0.000000
  70
    32
  0
VERTEX
  8
0
  5
15984
 10
184.929
 20
283.852
 30
0.000000
  70
    32
  0
VERTEX
  8
0
  5
15985
 10
184.913
 20
283.846
 30
0.000000
  70
    32
  0
VERTEX
  8
0
  5
15986
 10
184.897
 20
283.839
 30
0.000000
  70
    32
  0
VERTEX
  8
0
  5
15987
 10
184.881
 20
283.833
 30
0.000000
  70
    32
  0
VERTEX
  8
0
  5
15988
 10
184.865
 20
283.827
 30
0.000000
  70
    32
  0
VERTEX
  8
0
  5
15989
 10
184.849
 20
283.820
 30
0.000000
  70
    32
  0
VERTEX
  8
0
  5
1598A
 10
184.833
 20
283.814
 30
0.000000
  70
    32
  0
VERTEX
  8
0
  5
1598B
 10
184.817
 20
283.807
 30
0.000000
  70
    32
  0
VERTEX
  8
0
  5
1598C
 10
184.801
 20
283.800
 30
0.000000
  70
    32
  0
VERTEX
  8
0
  5
1598D
 10
184.786
 20
283.793
 30
0.000000
  70
    32
  0
VERTEX
  8
0
  5
1598E
 10
184.770
 20
283.787
 30
0.000000
  70
    32
  0
VERTEX
  8
0
  5
1598F
 10
184.754
 20
283.780
 30
0.000000
  70
    32
  0
VERTEX
  8
0
  5
15990
 10
184.738
 20
283.773
 30
0.000000
  70
    32
  0
VERTEX
  8
0
  5
15991
 10
184.722
 20
283.766
 30
0.000000
  70
    32
  0
VERTEX
  8
0
  5
15992
 10
184.706
 20
283.758
 30
0.000000
  70
    32
  0
VERTEX
  8
0
  5
15993
 10
184.690
 20
283.751
 30
0.000000
  70
    32
  0
VERTEX
  8
0
  5
15994
 10
184.675
 20
283.744
 30
0.000000
  70
    32
  0
VERTEX
  8
0
  5
15995
 10
184.659
 20
283.737
 30
0.000000
  70
    32
  0
VERTEX
  8
0
  5
15996
 10
184.643
 20
283.729
 30
0.000000
  70
    32
  0
VERTEX
  8
0
  5
15997
 10
184.627
 20
283.722
 30
0.000000
  70
    32
  0
VERTEX
  8
0
  5
15998
 10
184.612
 20
283.714
 30
0.000000
  70
    32
  0
VERTEX
  8
0
  5
15999
 10
184.596
 20
283.706
 30
0.000000
  70
    32
  0
VERTEX
  8
0
  5
1599A
 10
184.580
 20
283.699
 30
0.000000
  70
    32
  0
VERTEX
  8
0
  5
1599B
 10
184.564
 20
283.691
 30
0.000000
  70
    32
  0
VERTEX
  8
0
  5
1599C
 10
184.549
 20
283.683
 30
0.000000
  70
    32
  0
VERTEX
  8
0
  5
1599D
 10
184.533
 20
283.675
 30
0.000000
  70
    32
  0
VERTEX
  8
0
  5
1599E
 10
184.517
 20
283.667
 30
0.000000
  70
    32
  0
VERTEX
  8
0
  5
1599F
 10
184.502
 20
283.659
 30
0.000000
  70
    32
  0
VERTEX
  8
0
  5
159A0
 10
184.486
 20
283.651
 30
0.000000
  70
    32
  0
VERTEX
  8
0
  5
159A1
 10
184.470
 20
283.642
 30
0.000000
  70
    32
  0
VERTEX
  8
0
  5
159A2
 10
184.455
 20
283.634
 30
0.000000
  70
    32
  0
VERTEX
  8
0
  5
159A3
 10
184.439
 20
283.626
 30
0.000000
  70
    32
  0
VERTEX
  8
0
  5
159A4
 10
184.423
 20
283.617
 30
0.000000
  70
    32
  0
VERTEX
  8
0
  5
159A5
 10
184.408
 20
283.609
 30
0.000000
  70
    32
  0
VERTEX
  8
0
  5
159A6
 10
184.392
 20
283.600
 30
0.000000
  70
    32
  0
VERTEX
  8
0
  5
159A7
 10
184.377
 20
283.591
 30
0.000000
  70
    32
  0
VERTEX
  8
0
  5
159A8
 10
184.361
 20
283.582
 30
0.000000
  70
    32
  0
VERTEX
  8
0
  5
159A9
 10
184.345
 20
283.574
 30
0.000000
  70
    32
  0
VERTEX
  8
0
  5
159AA
 10
184.330
 20
283.565
 30
0.000000
  70
    32
  0
VERTEX
  8
0
  5
159AB
 10
184.314
 20
283.556
 30
0.000000
  70
    32
  0
VERTEX
  8
0
  5
159AC
 10
184.299
 20
283.547
 30
0.000000
  70
    32
  0
VERTEX
  8
0
  5
159AD
 10
184.283
 20
283.537
 30
0.000000
  70
    32
  0
VERTEX
  8
0
  5
159AE
 10
184.268
 20
283.528
 30
0.000000
  70
    32
  0
VERTEX
  8
0
  5
159AF
 10
184.253
 20
283.519
 30
0.000000
  70
    32
  0
VERTEX
  8
0
  5
159B0
 10
184.237
 20
283.510
 30
0.000000
  70
    32
  0
VERTEX
  8
0
  5
159B1
 10
184.222
 20
283.500
 30
0.000000
  70
    32
  0
VERTEX
  8
0
  5
159B2
 10
184.206
 20
283.491
 30
0.000000
  70
    32
  0
VERTEX
  8
0
  5
159B3
 10
184.191
 20
283.481
 30
0.000000
  70
    32
  0
VERTEX
  8
0
  5
159B4
 10
184.175
 20
283.471
 30
0.000000
  70
    32
  0
SEQEND
  8
0
  5
159B5
  0
LINE
  5
E173
  8
0
 10
207.75339275598529
 20
325.0000002458691
 30
0.0
 11
207.75339275598529
 21
295.00000091642141
 31
0.0
  0
ARC
  5
E174
  8
0
 10
215.0033914148807
 20
295.00000058114529
 30
0.0
 40
7.250000000000056
 50
180.0
 51
0.0
  0
LINE
  5
E175
  8
0
 10
222.2533923387528
 20
295.00000091642141
 30
0.0
 11
222.2533923387528
 21
325.0000002458691
 31
0.0
  0
ARC
  5
E176
  8
0
 10
215.0033914148807
 20
325.00000058114529
 30
0.0
 40
7.250000000000056
 50
0.0
 51
180.0
  0
POLYLINE
  5
E177
  8
0
 10
184.17546909770491
 20
336.52865703901278
 30
0.0
 66
     1
 70
     8
  0
VERTEX
  8
0
  5
159B6
 10
184.175
 20
336.529
 30
0.000000
  70
    32
  0
VERTEX
  8
0
  5
159B7
 10
184.191
 20
336.519
 30
0.000000
  70
    32
  0
VERTEX
  8
0
  5
159B8
 10
184.206
 20
336.509
 30
0.000000
  70
    32
  0
VERTEX
  8
0
  5
159B9
 10
184.222
 20
336.500
 30
0.000000
  70
    32
  0
VERTEX
  8
0
  5
159BA
 10
184.237
 20
336.490
 30
0.000000
  70
    32
  0
VERTEX
  8
0
  5
159BB
 10
184.253
 20
336.481
 30
0.000000
  70
    32
  0
VERTEX
  8
0
  5
159BC
 10
184.268
 20
336.472
 30
0.000000
  70
    32
  0
VERTEX
  8
0
  5
159BD
 10
184.283
 20
336.463
 30
0.000000
  70
    32
  0
VERTEX
  8
0
  5
159BE
 10
184.299
 20
336.453
 30
0.000000
  70
    32
  0
VERTEX
  8
0
  5
159BF
 10
184.314
 20
336.444
 30
0.000000
  70
    32
  0
VERTEX
  8
0
  5
159C0
 10
184.330
 20
336.435
 30
0.000000
  70
    32
  0
VERTEX
  8
0
  5
159C1
 10
184.345
 20
336.426
 30
0.000000
  70
    32
  0
VERTEX
  8
0
  5
159C2
 10
184.361
 20
336.418
 30
0.000000
  70
    32
  0
VERTEX
  8
0
  5
159C3
 10
184.377
 20
336.409
 30
0.000000
  70
    32
  0
VERTEX
  8
0
  5
159C4
 10
184.392
 20
336.400
 30
0.000000
  70
    32
  0
VERTEX
  8
0
  5
159C5
 10
184.408
 20
336.391
 30
0.000000
  70
    32
  0
VERTEX
  8
0
  5
159C6
 10
184.423
 20
336.383
 30
0.000000
  70
    32
  0
VERTEX
  8
0
  5
159C7
 10
184.439
 20
336.374
 30
0.000000
  70
    32
  0
VERTEX
  8
0
  5
159C8
 10
184.455
 20
336.366
 30
0.000000
  70
    32
  0
VERTEX
  8
0
  5
159C9
 10
184.470
 20
336.358
 30
0.000000
  70
    32
  0
VERTEX
  8
0
  5
159CA
 10
184.486
 20
336.349
 30
0.000000
  70
    32
  0
VERTEX
  8
0
  5
159CB
 10
184.502
 20
336.341
 30
0.000000
  70
    32
  0
VERTEX
  8
0
  5
159CC
 10
184.517
 20
336.333
 30
0.000000
  70
    32
  0
VERTEX
  8
0
  5
159CD
 10
184.533
 20
336.325
 30
0.000000
  70
    32
  0
VERTEX
  8
0
  5
159CE
 10
184.549
 20
336.317
 30
0.000000
  70
    32
  0
VERTEX
  8
0
  5
159CF
 10
184.564
 20
336.309
 30
0.000000
  70
    32
  0
VERTEX
  8
0
  5
159D0
 10
184.580
 20
336.301
 30
0.000000
  70
    32
  0
VERTEX
  8
0
  5
159D1
 10
184.596
 20
336.294
 30
0.000000
  70
    32
  0
VERTEX
  8
0
  5
159D2
 10
184.612
 20
336.286
 30
0.000000
  70
    32
  0
VERTEX
  8
0
  5
159D3
 10
184.627
 20
336.278
 30
0.000000
  70
    32
  0
VERTEX
  8
0
  5
159D4
 10
184.643
 20
336.271
 30
0.000000
  70
    32
  0
VERTEX
  8
0
  5
159D5
 10
184.659
 20
336.263
 30
0.000000
  70
    32
  0
VERTEX
  8
0
  5
159D6
 10
184.675
 20
336.256
 30
0.000000
  70
    32
  0
VERTEX
  8
0
  5
159D7
 10
184.690
 20
336.249
 30
0.000000
  70
    32
  0
VERTEX
  8
0
  5
159D8
 10
184.706
 20
336.242
 30
0.000000
  70
    32
  0
VERTEX
  8
0
  5
159D9
 10
184.722
 20
336.234
 30
0.000000
  70
    32
  0
VERTEX
  8
0
  5
159DA
 10
184.738
 20
336.227
 30
0.000000
  70
    32
  0
VERTEX
  8
0
  5
159DB
 10
184.754
 20
336.220
 30
0.000000
  70
    32
  0
VERTEX
  8
0
  5
159DC
 10
184.770
 20
336.213
 30
0.000000
  70
    32
  0
VERTEX
  8
0
  5
159DD
 10
184.786
 20
336.207
 30
0.000000
  70
    32
  0
VERTEX
  8
0
  5
159DE
 10
184.801
 20
336.200
 30
0.000000
  70
    32
  0
VERTEX
  8
0
  5
159DF
 10
184.817
 20
336.193
 30
0.000000
  70
    32
  0
VERTEX
  8
0
  5
159E0
 10
184.833
 20
336.186
 30
0.000000
  70
    32
  0
VERTEX
  8
0
  5
159E1
 10
184.849
 20
336.180
 30
0.000000
  70
    32
  0
VERTEX
  8
0
  5
159E2
 10
184.865
 20
336.173
 30
0.000000
  70
    32
  0
VERTEX
  8
0
  5
159E3
 10
184.881
 20
336.167
 30
0.000000
  70
    32
  0
VERTEX
  8
0
  5
159E4
 10
184.897
 20
336.161
 30
0.000000
  70
    32
  0
VERTEX
  8
0
  5
159E5
 10
184.913
 20
336.154
 30
0.000000
  70
    32
  0
VERTEX
  8
0
  5
159E6
 10
184.929
 20
336.148
 30
0.000000
  70
    32
  0
VERTEX
  8
0
  5
159E7
 10
184.945
 20
336.142
 30
0.000000
  70
    32
  0
VERTEX
  8
0
  5
159E8
 10
184.961
 20
336.136
 30
0.000000
  70
    32
  0
VERTEX
  8
0
  5
159E9
 10
184.977
 20
336.130
 30
0.000000
  70
    32
  0
VERTEX
  8
0
  5
159EA
 10
184.993
 20
336.124
 30
0.000000
  70
    32
  0
VERTEX
  8
0
  5
159EB
 10
185.009
 20
336.119
 30
0.000000
  70
    32
  0
VERTEX
  8
0
  5
159EC
 10
185.025
 20
336.113
 30
0.000000
  70
    32
  0
VERTEX
  8
0
  5
159ED
 10
185.041
 20
336.107
 30
0.000000
  70
    32
  0
VERTEX
  8
0
  5
159EE
 10
185.057
 20
336.102
 30
0.000000
  70
    32
  0
VERTEX
  8
0
  5
159EF
 10
185.073
 20
336.096
 30
0.000000
  70
    32
  0
VERTEX
  8
0
  5
159F0
 10
185.089
 20
336.091
 30
0.000000
  70
    32
  0
VERTEX
  8
0
  5
159F1
 10
185.105
 20
336.085
 30
0.000000
  70
    32
  0
VERTEX
  8
0
  5
159F2
 10
185.121
 20
336.080
 30
0.000000
  70
    32
  0
VERTEX
  8
0
  5
159F3
 10
185.137
 20
336.075
 30
0.000000
  70
    32
  0
VERTEX
  8
0
  5
159F4
 10
185.153
 20
336.070
 30
0.000000
  70
    32
  0
VERTEX
  8
0
  5
159F5
 10
185.170
 20
336.065
 30
0.000000
  70
    32
  0
VERTEX
  8
0
  5
159F6
 10
185.186
 20
336.060
 30
0.000000
  70
    32
  0
VERTEX
  8
0
  5
159F7
 10
185.202
 20
336.055
 30
0.000000
  70
    32
  0
VERTEX
  8
0
  5
159F8
 10
185.218
 20
336.050
 30
0.000000
  70
    32
  0
VERTEX
  8
0
  5
159F9
 10
185.234
 20
336.045
 30
0.000000
  70
    32
  0
VERTEX
  8
0
  5
159FA
 10
185.250
 20
336.041
 30
0.000000
  70
    32
  0
VERTEX
  8
0
  5
159FB
 10
185.266
 20
336.036
 30
0.000000
  70
    32
  0
VERTEX
  8
0
  5
159FC
 10
185.283
 20
336.032
 30
0.000000
  70
    32
  0
VERTEX
  8
0
  5
159FD
 10
185.299
 20
336.027
 30
0.000000
  70
    32
  0
VERTEX
  8
0
  5
159FE
 10
185.315
 20
336.023
 30
0.000000
  70
    32
  0
VERTEX
  8
0
  5
159FF
 10
185.331
 20
336.019
 30
0.000000
  70
    32
  0
VERTEX
  8
0
  5
15A00
 10
185.347
 20
336.014
 30
0.000000
  70
    32
  0
VERTEX
  8
0
  5
15A01
 10
185.363
 20
336.010
 30
0.000000
  70
    32
  0
VERTEX
  8
0
  5
15A02
 10
185.380
 20
336.006
 30
0.000000
  70
    32
  0
VERTEX
  8
0
  5
15A03
 10
185.396
 20
336.002
 30
0.000000
  70
    32
  0
VERTEX
  8
0
  5
15A04
 10
185.412
 20
335.998
 30
0.000000
  70
    32
  0
VERTEX
  8
0
  5
15A05
 10
185.428
 20
335.995
 30
0.000000
  70
    32
  0
VERTEX
  8
0
  5
15A06
 10
185.444
 20
335.991
 30
0.000000
  70
    32
  0
VERTEX
  8
0
  5
15A07
 10
185.461
 20
335.987
 30
0.000000
  70
    32
  0
VERTEX
  8
0
  5
15A08
 10
185.477
 20
335.984
 30
0.000000
  70
    32
  0
VERTEX
  8
0
  5
15A09
 10
185.493
 20
335.980
 30
0.000000
  70
    32
  0
VERTEX
  8
0
  5
15A0A
 10
185.509
 20
335.977
 30
0.000000
  70
    32
  0
VERTEX
  8
0
  5
15A0B
 10
185.526
 20
335.973
 30
0.000000
  70
    32
  0
VERTEX
  8
0
  5
15A0C
 10
185.542
 20
335.970
 30
0.000000
  70
    32
  0
VERTEX
  8
0
  5
15A0D
 10
185.558
 20
335.967
 30
0.000000
  70
    32
  0
VERTEX
  8
0
  5
15A0E
 10
185.574
 20
335.964
 30
0.000000
  70
    32
  0
VERTEX
  8
0
  5
15A0F
 10
185.591
 20
335.961
 30
0.000000
  70
    32
  0
VERTEX
  8
0
  5
15A10
 10
185.607
 20
335.958
 30
0.000000
  70
    32
  0
VERTEX
  8
0
  5
15A11
 10
185.623
 20
335.955
 30
0.000000
  70
    32
  0
VERTEX
  8
0
  5
15A12
 10
185.639
 20
335.952
 30
0.000000
  70
    32
  0
VERTEX
  8
0
  5
15A13
 10
185.656
 20
335.949
 30
0.000000
  70
    32
  0
VERTEX
  8
0
  5
15A14
 10
185.672
 20
335.947
 30
0.000000
  70
    32
  0
VERTEX
  8
0
  5
15A15
 10
185.688
 20
335.944
 30
0.000000
  70
    32
  0
VERTEX
  8
0
  5
15A16
 10
185.705
 20
335.941
 30
0.000000
  70
    32
  0
VERTEX
  8
0
  5
15A17
 10
185.721
 20
335.939
 30
0.000000
  70
    32
  0
VERTEX
  8
0
  5
15A18
 10
185.737
 20
335.937
 30
0.000000
  70
    32
  0
VERTEX
  8
0
  5
15A19
 10
185.754
 20
335.934
 30
0.000000
  70
    32
  0
VERTEX
  8
0
  5
15A1A
 10
185.770
 20
335.932
 30
0.000000
  70
    32
  0
VERTEX
  8
0
  5
15A1B
 10
185.786
 20
335.930
 30
0.000000
  70
    32
  0
VERTEX
  8
0
  5
15A1C
 10
185.803
 20
335.928
 30
0.000000
  70
    32
  0
VERTEX
  8
0
  5
15A1D
 10
185.819
 20
335.926
 30
0.000000
  70
    32
  0
VERTEX
  8
0
  5
15A1E
 10
185.835
 20
335.924
 30
0.000000
  70
    32
  0
VERTEX
  8
0
  5
15A1F
 10
185.852
 20
335.922
 30
0.000000
  70
    32
  0
VERTEX
  8
0
  5
15A20
 10
185.868
 20
335.921
 30
0.000000
  70
    32
  0
VERTEX
  8
0
  5
15A21
 10
185.884
 20
335.919
 30
0.000000
  70
    32
  0
VERTEX
  8
0
  5
15A22
 10
185.901
 20
335.917
 30
0.000000
  70
    32
  0
VERTEX
  8
0
  5
15A23
 10
185.917
 20
335.916
 30
0.000000
  70
    32
  0
VERTEX
  8
0
  5
15A24
 10
185.933
 20
335.914
 30
0.000000
  70
    32
  0
VERTEX
  8
0
  5
15A25
 10
185.950
 20
335.913
 30
0.000000
  70
    32
  0
VERTEX
  8
0
  5
15A26
 10
185.966
 20
335.912
 30
0.000000
  70
    32
  0
VERTEX
  8
0
  5
15A27
 10
185.982
 20
335.911
 30
0.000000
  70
    32
  0
VERTEX
  8
0
  5
15A28
 10
185.999
 20
335.909
 30
0.000000
  70
    32
  0
VERTEX
  8
0
  5
15A29
 10
186.015
 20
335.908
 30
0.000000
  70
    32
  0
VERTEX
  8
0
  5
15A2A
 10
186.031
 20
335.907
 30
0.000000
  70
    32
  0
VERTEX
  8
0
  5
15A2B
 10
186.048
 20
335.907
 30
0.000000
  70
    32
  0
VERTEX
  8
0
  5
15A2C
 10
186.064
 20
335.906
 30
0.000000
  70
    32
  0
VERTEX
  8
0
  5
15A2D
 10
186.080
 20
335.905
 30
0.000000
  70
    32
  0
VERTEX
  8
0
  5
15A2E
 10
186.097
 20
335.904
 30
0.000000
  70
    32
  0
VERTEX
  8
0
  5
15A2F
 10
186.113
 20
335.904
 30
0.000000
  70
    32
  0
VERTEX
  8
0
  5
15A30
 10
186.129
 20
335.903
 30
0.000000
  70
    32
  0
VERTEX
  8
0
  5
15A31
 10
186.146
 20
335.903
 30
0.000000
  70
    32
  0
VERTEX
  8
0
  5
15A32
 10
186.162
 20
335.903
 30
0.000000
  70
    32
  0
VERTEX
  8
0
  5
15A33
 10
186.179
 20
335.902
 30
0.000000
  70
    32
  0
VERTEX
  8
0
  5
15A34
 10
186.195
 20
335.902
 30
0.000000
  70
    32
  0
VERTEX
  8
0
  5
15A35
 10
186.211
 20
335.902
 30
0.000000
  70
    32
  0
VERTEX
  8
0
  5
15A36
 10
186.228
 20
335.902
 30
0.000000
  70
    32
  0
SEQEND
  8
0
  5
15A37
  0
POLYLINE
  5
E17A
  8
0
 10
226.86941681866517
 20
282.7057719470854
 30
0.0
 66
     1
 70
     8
  0
VERTEX
  8
0
  5
15A38
 10
226.869
 20
282.706
 30
0.000000
  70
    32
  0
VERTEX
  8
0
  5
15A39
 10
226.848
 20
282.727
 30
0.000000
  70
    32
  0
VERTEX
  8
0
  5
15A3A
 10
226.827
 20
282.748
 30
0.000000
  70
    32
  0
VERTEX
  8
0
  5
15A3B
 10
226.805
 20
282.769
 30
0.000000
  70
    32
  0
VERTEX
  8
0
  5
15A3C
 10
226.784
 20
282.790
 30
0.000000
  70
    32
  0
VERTEX
  8
0
  5
15A3D
 10
226.763
 20
282.810
 30
0.000000
  70
    32
  0
VERTEX
  8
0
  5
15A3E
 10
226.741
 20
282.831
 30
0.000000
  70
    32
  0
VERTEX
  8
0
  5
15A3F
 10
226.719
 20
282.851
 30
0.000000
  70
    32
  0
VERTEX
  8
0
  5
15A40
 10
226.698
 20
282.871
 30
0.000000
  70
    32
  0
VERTEX
  8
0
  5
15A41
 10
226.676
 20
282.891
 30
0.000000
  70
    32
  0
VERTEX
  8
0
  5
15A42
 10
226.654
 20
282.911
 30
0.000000
  70
    32
  0
VERTEX
  8
0
  5
15A43
 10
226.633
 20
282.930
 30
0.000000
  70
    32
  0
VERTEX
  8
0
  5
15A44
 10
226.611
 20
282.950
 30
0.000000
  70
    32
  0
VERTEX
  8
0
  5
15A45
 10
226.589
 20
282.969
 30
0.000000
  70
    32
  0
VERTEX
  8
0
  5
15A46
 10
226.567
 20
282.988
 30
0.000000
  70
    32
  0
VERTEX
  8
0
  5
15A47
 10
226.545
 20
283.007
 30
0.000000
  70
    32
  0
VERTEX
  8
0
  5
15A48
 10
226.523
 20
283.026
 30
0.000000
  70
    32
  0
VERTEX
  8
0
  5
15A49
 10
226.501
 20
283.045
 30
0.000000
  70
    32
  0
VERTEX
  8
0
  5
15A4A
 10
226.479
 20
283.064
 30
0.000000
  70
    32
  0
VERTEX
  8
0
  5
15A4B
 10
226.457
 20
283.082
 30
0.000000
  70
    32
  0
VERTEX
  8
0
  5
15A4C
 10
226.435
 20
283.100
 30
0.000000
  70
    32
  0
VERTEX
  8
0
  5
15A4D
 10
226.413
 20
283.118
 30
0.000000
  70
    32
  0
VERTEX
  8
0
  5
15A4E
 10
226.390
 20
283.136
 30
0.000000
  70
    32
  0
VERTEX
  8
0
  5
15A4F
 10
226.368
 20
283.154
 30
0.000000
  70
    32
  0
VERTEX
  8
0
  5
15A50
 10
226.346
 20
283.172
 30
0.000000
  70
    32
  0
VERTEX
  8
0
  5
15A51
 10
226.323
 20
283.189
 30
0.000000
  70
    32
  0
VERTEX
  8
0
  5
15A52
 10
226.301
 20
283.207
 30
0.000000
  70
    32
  0
VERTEX
  8
0
  5
15A53
 10
226.278
 20
283.224
 30
0.000000
  70
    32
  0
VERTEX
  8
0
  5
15A54
 10
226.256
 20
283.241
 30
0.000000
  70
    32
  0
VERTEX
  8
0
  5
15A55
 10
226.233
 20
283.257
 30
0.000000
  70
    32
  0
VERTEX
  8
0
  5
15A56
 10
226.211
 20
283.274
 30
0.000000
  70
    32
  0
VERTEX
  8
0
  5
15A57
 10
226.188
 20
283.291
 30
0.000000
  70
    32
  0
VERTEX
  8
0
  5
15A58
 10
226.166
 20
283.307
 30
0.000000
  70
    32
  0
VERTEX
  8
0
  5
15A59
 10
226.143
 20
283.323
 30
0.000000
  70
    32
  0
VERTEX
  8
0
  5
15A5A
 10
226.120
 20
283.339
 30
0.000000
  70
    32
  0
VERTEX
  8
0
  5
15A5B
 10
226.097
 20
283.355
 30
0.000000
  70
    32
  0
VERTEX
  8
0
  5
15A5C
 10
226.075
 20
283.371
 30
0.000000
  70
    32
  0
VERTEX
  8
0
  5
15A5D
 10
226.052
 20
283.386
 30
0.000000
  70
    32
  0
VERTEX
  8
0
  5
15A5E
 10
226.029
 20
283.402
 30
0.000000
  70
    32
  0
VERTEX
  8
0
  5
15A5F
 10
226.006
 20
283.417
 30
0.000000
  70
    32
  0
VERTEX
  8
0
  5
15A60
 10
225.983
 20
283.432
 30
0.000000
  70
    32
  0
VERTEX
  8
0
  5
15A61
 10
225.960
 20
283.447
 30
0.000000
  70
    32
  0
VERTEX
  8
0
  5
15A62
 10
225.937
 20
283.462
 30
0.000000
  70
    32
  0
VERTEX
  8
0
  5
15A63
 10
225.914
 20
283.476
 30
0.000000
  70
    32
  0
VERTEX
  8
0
  5
15A64
 10
225.891
 20
283.491
 30
0.000000
  70
    32
  0
VERTEX
  8
0
  5
15A65
 10
225.868
 20
283.505
 30
0.000000
  70
    32
  0
VERTEX
  8
0
  5
15A66
 10
225.844
 20
283.519
 30
0.000000
  70
    32
  0
VERTEX
  8
0
  5
15A67
 10
225.821
 20
283.533
 30
0.000000
  70
    32
  0
VERTEX
  8
0
  5
15A68
 10
225.798
 20
283.547
 30
0.000000
  70
    32
  0
VERTEX
  8
0
  5
15A69
 10
225.775
 20
283.560
 30
0.000000
  70
    32
  0
VERTEX
  8
0
  5
15A6A
 10
225.752
 20
283.574
 30
0.000000
  70
    32
  0
VERTEX
  8
0
  5
15A6B
 10
225.728
 20
283.587
 30
0.000000
  70
    32
  0
VERTEX
  8
0
  5
15A6C
 10
225.705
 20
283.600
 30
0.000000
  70
    32
  0
VERTEX
  8
0
  5
15A6D
 10
225.681
 20
283.613
 30
0.000000
  70
    32
  0
VERTEX
  8
0
  5
15A6E
 10
225.658
 20
283.626
 30
0.000000
  70
    32
  0
VERTEX
  8
0
  5
15A6F
 10
225.635
 20
283.638
 30
0.000000
  70
    32
  0
VERTEX
  8
0
  5
15A70
 10
225.611
 20
283.651
 30
0.000000
  70
    32
  0
VERTEX
  8
0
  5
15A71
 10
225.588
 20
283.663
 30
0.000000
  70
    32
  0
VERTEX
  8
0
  5
15A72
 10
225.564
 20
283.675
 30
0.000000
  70
    32
  0
VERTEX
  8
0
  5
15A73
 10
225.541
 20
283.687
 30
0.000000
  70
    32
  0
VERTEX
  8
0
  5
15A74
 10
225.517
 20
283.699
 30
0.000000
  70
    32
  0
VERTEX
  8
0
  5
15A75
 10
225.493
 20
283.710
 30
0.000000
  70
    32
  0
VERTEX
  8
0
  5
15A76
 10
225.470
 20
283.722
 30
0.000000
  70
    32
  0
VERTEX
  8
0
  5
15A77
 10
225.446
 20
283.733
 30
0.000000
  70
    32
  0
VERTEX
  8
0
  5
15A78
 10
225.422
 20
283.744
 30
0.000000
  70
    32
  0
VERTEX
  8
0
  5
15A79
 10
225.399
 20
283.755
 30
0.000000
  70
    32
  0
VERTEX
  8
0
  5
15A7A
 10
225.375
 20
283.766
 30
0.000000
  70
    32
  0
VERTEX
  8
0
  5
15A7B
 10
225.351
 20
283.776
 30
0.000000
  70
    32
  0
VERTEX
  8
0
  5
15A7C
 10
225.327
 20
283.787
 30
0.000000
  70
    32
  0
VERTEX
  8
0
  5
15A7D
 10
225.303
 20
283.797
 30
0.000000
  70
    32
  0
VERTEX
  8
0
  5
15A7E
 10
225.280
 20
283.807
 30
0.000000
  70
    32
  0
VERTEX
  8
0
  5
15A7F
 10
225.256
 20
283.817
 30
0.000000
  70
    32
  0
VERTEX
  8
0
  5
15A80
 10
225.232
 20
283.827
 30
0.000000
  70
    32
  0
VERTEX
  8
0
  5
15A81
 10
225.208
 20
283.836
 30
0.000000
  70
    32
  0
VERTEX
  8
0
  5
15A82
 10
225.184
 20
283.846
 30
0.000000
  70
    32
  0
VERTEX
  8
0
  5
15A83
 10
225.160
 20
283.855
 30
0.000000
  70
    32
  0
VERTEX
  8
0
  5
15A84
 10
225.136
 20
283.864
 30
0.000000
  70
    32
  0
VERTEX
  8
0
  5
15A85
 10
225.112
 20
283.873
 30
0.000000
  70
    32
  0
VERTEX
  8
0
  5
15A86
 10
225.088
 20
283.881
 30
0.000000
  70
    32
  0
VERTEX
  8
0
  5
15A87
 10
225.064
 20
283.890
 30
0.000000
  70
    32
  0
VERTEX
  8
0
  5
15A88
 10
225.040
 20
283.898
 30
0.000000
  70
    32
  0
VERTEX
  8
0
  5
15A89
 10
225.016
 20
283.907
 30
0.000000
  70
    32
  0
VERTEX
  8
0
  5
15A8A
 10
224.992
 20
283.915
 30
0.000000
  70
    32
  0
VERTEX
  8
0
  5
15A8B
 10
224.968
 20
283.923
 30
0.000000
  70
    32
  0
VERTEX
  8
0
  5
15A8C
 10
224.944
 20
283.930
 30
0.000000
  70
    32
  0
VERTEX
  8
0
  5
15A8D
 10
224.919
 20
283.938
 30
0.000000
  70
    32
  0
VERTEX
  8
0
  5
15A8E
 10
224.895
 20
283.945
 30
0.000000
  70
    32
  0
VERTEX
  8
0
  5
15A8F
 10
224.871
 20
283.952
 30
0.000000
  70
    32
  0
VERTEX
  8
0
  5
15A90
 10
224.847
 20
283.959
 30
0.000000
  70
    32
  0
VERTEX
  8
0
  5
15A91
 10
224.823
 20
283.966
 30
0.000000
  70
    32
  0
VERTEX
  8
0
  5
15A92
 10
224.798
 20
283.973
 30
0.000000
  70
    32
  0
VERTEX
  8
0
  5
15A93
 10
224.774
 20
283.979
 30
0.000000
  70
    32
  0
VERTEX
  8
0
  5
15A94
 10
224.750
 20
283.986
 30
0.000000
  70
    32
  0
VERTEX
  8
0
  5
15A95
 10
224.726
 20
283.992
 30
0.000000
  70
    32
  0
VERTEX
  8
0
  5
15A96
 10
224.701
 20
283.998
 30
0.000000
  70
    32
  0
VERTEX
  8
0
  5
15A97
 10
224.677
 20
284.004
 30
0.000000
  70
    32
  0
VERTEX
  8
0
  5
15A98
 10
224.653
 20
284.009
 30
0.000000
  70
    32
  0
VERTEX
  8
0
  5
15A99
 10
224.628
 20
284.015
 30
0.000000
  70
    32
  0
VERTEX
  8
0
  5
15A9A
 10
224.604
 20
284.020
 30
0.000000
  70
    32
  0
VERTEX
  8
0
  5
15A9B
 10
224.580
 20
284.025
 30
0.000000
  70
    32
  0
VERTEX
  8
0
  5
15A9C
 10
224.555
 20
284.030
 30
0.000000
  70
    32
  0
VERTEX
  8
0
  5
15A9D
 10
224.531
 20
284.035
 30
0.000000
  70
    32
  0
VERTEX
  8
0
  5
15A9E
 10
224.506
 20
284.039
 30
0.000000
  70
    32
  0
VERTEX
  8
0
  5
15A9F
 10
224.482
 20
284.044
 30
0.000000
  70
    32
  0
VERTEX
  8
0
  5
15AA0
 10
224.458
 20
284.048
 30
0.000000
  70
    32
  0
VERTEX
  8
0
  5
15AA1
 10
224.433
 20
284.052
 30
0.000000
  70
    32
  0
VERTEX
  8
0
  5
15AA2
 10
224.409
 20
284.056
 30
0.000000
  70
    32
  0
VERTEX
  8
0
  5
15AA3
 10
224.384
 20
284.060
 30
0.000000
  70
    32
  0
VERTEX
  8
0
  5
15AA4
 10
224.360
 20
284.063
 30
0.000000
  70
    32
  0
VERTEX
  8
0
  5
15AA5
 10
224.335
 20
284.067
 30
0.000000
  70
    32
  0
VERTEX
  8
0
  5
15AA6
 10
224.311
 20
284.070
 30
0.000000
  70
    32
  0
VERTEX
  8
0
  5
15AA7
 10
224.286
 20
284.073
 30
0.000000
  70
    32
  0
VERTEX
  8
0
  5
15AA8
 10
224.262
 20
284.076
 30
0.000000
  70
    32
  0
VERTEX
  8
0
  5
15AA9
 10
224.237
 20
284.079
 30
0.000000
  70
    32
  0
VERTEX
  8
0
  5
15AAA
 10
224.213
 20
284.081
 30
0.000000
  70
    32
  0
VERTEX
  8
0
  5
15AAB
 10
224.188
 20
284.083
 30
0.000000
  70
    32
  0
VERTEX
  8
0
  5
15AAC
 10
224.164
 20
284.086
 30
0.000000
  70
    32
  0
VERTEX
  8
0
  5
15AAD
 10
224.139
 20
284.088
 30
0.000000
  70
    32
  0
VERTEX
  8
0
  5
15AAE
 10
224.115
 20
284.089
 30
0.000000
  70
    32
  0
VERTEX
  8
0
  5
15AAF
 10
224.090
 20
284.091
 30
0.000000
  70
    32
  0
VERTEX
  8
0
  5
15AB0
 10
224.066
 20
284.093
 30
0.000000
  70
    32
  0
VERTEX
  8
0
  5
15AB1
 10
224.041
 20
284.094
 30
0.000000
  70
    32
  0
VERTEX
  8
0
  5
15AB2
 10
224.017
 20
284.095
 30
0.000000
  70
    32
  0
VERTEX
  8
0
  5
15AB3
 10
223.992
 20
284.096
 30
0.000000
  70
    32
  0
VERTEX
  8
0
  5
15AB4
 10
223.968
 20
284.097
 30
0.000000
  70
    32
  0
VERTEX
  8
0
  5
15AB5
 10
223.943
 20
284.097
 30
0.000000
  70
    32
  0
VERTEX
  8
0
  5
15AB6
 10
223.919
 20
284.098
 30
0.000000
  70
    32
  0
VERTEX
  8
0
  5
15AB7
 10
223.894
 20
284.098
 30
0.000000
  70
    32
  0
VERTEX
  8
0
  5
15AB8
 10
223.869
 20
284.098
 30
0.000000
  70
    32
  0
SEQEND
  8
0
  5
15AB9
  0
LINE
  5
E17B
  8
0
 10
179.4621552154421
 20
339.50000075995922
 30
0.0
 11
184.17546886950731
 21
336.52865706384182
 31
0.0
  0
LINE
  5
E17D
  8
0
 10
226.8694181740284
 20
337.29422843456268
 30
0.0
 11
229.07518863677981
 21
339.50000075995922
 31
0.0
  0
LINE
  5
E17E
  8
0
 10
184.17546886950731
 20
283.4713440984487
 30
0.0
 11
179.4621552154421
 21
280.5000004023313
 31
0.0
  0
LINE
  5
E17F
  8
0
 10
229.07518863677981
 20
280.5000004023313
 30
0.0
 11
226.8694181740284
 21
282.70577272772789
 31
0.0
  0
LINE
  5
E197
  8
0
 10
179.4621552154421
 20
339.99999991059298
 30
0.0
 11
179.4621552154421
 21
339.50000075995922
 31
0.0
  0
LINE
  5
E199
  8
0
 10
179.4621552154421
 20
280.5000004023313
 30
0.0
 11
179.4621552154421
 21
280.00000125169748
 31
0.0
  0
LINE
  5
E1A0
  8
0
 10
229.07518863677981
 20
339.99999991059298
 30
0.0
 11
229.07518863677981
 21
339.50000075995922
 31
0.0
  0
LINE
  5
E1A2
  8
0
 10
229.07518863677981
 20
280.5000004023313
 30
0.0
 11
229.07518863677981
 21
280.00000125169748
 31
0.0
  0
LINE
  5
E1A4
  8
0
 10
233.00339177250859
 20
280.00000125169748
 30
0.0
 11
169.46001851931561
 21
280.0000012516976
 31
0.0
  0
LINE
  5
E1A7
  8
0
 10
169.46001665666699
 20
339.99999991059298
 30
0.0
 11
233.00339177250859
 21
339.99999991059298
 31
0.0
  0
ARC
  5
E1AA
  8
0
 10
177.4176049772536
 20
339.00000058114529
 30
0.0
 40
1.0
 50
90.0
 51
135.00000000000259
  0
ARC
  5
E1AB
  8
0
 10
177.4176049772536
 20
281.00000058114529
 30
0.0
 40
1.0
 50
224.99999999999761
 51
270.0
  0
LINE
  5
E1AD
  8
0
 10
176.7104981746524
 20
280.29289288818831
 30
0.0
 11
174.29628462297839
 21
282.70710824429989
 31
0.0
  0
LINE
  5
E1AF
  8
0
 10
174.29628462297839
 20
337.29289291799068
 30
0.0
 11
176.7104981746524
 21
339.70710827410221
 31
0.0
  0
ARC
  5
E1B2
  8
0
 10
175.0033914148807
 20
283.41421414351839
 30
0.0
 40
1.0
 50
180.0
 51
224.9999999999975
  0
LINE
  5
E1B3
  8
0
 10
174.0033914148807
 20
283.41421490907669
 30
0.0
 11
174.0033914148807
 21
336.58578625321388
 31
0.0
  0
ARC
  5
E1B5
  8
0
 10
175.0033914148807
 20
336.58578701877218
 30
0.0
 40
1.0
 50
135.0000000000025
 51
179.9999999999992
  0
ARC
  5
E1B7
  8
0
 10
233.00339141488081
 20
284.00000058114529
 30
0.0
 40
4.0
 50
270.0
 51
0.0
  0
ARC
  5
E1B8
  8
0
 10
233.00339141488081
 20
336.00000058114529
 30
0.0
 40
4.0000000000000284
 50
0.0
 51
90.0
  0
LINE
  5
E1BA
  8
0
 10
237.00339242815971
 20
336.00000111758709
 30
0.0
 11
237.00339242815971
 21
284.00000004470348
 31
0.0
  0
ARC
  5
E1BB
  8
0
 10
209.9028863514923
 20
273.00000058114529
 30
0.0
 40
7.0000000000000284
 50
90.0
 51
135.00000000000259
  0
ARC
  5
E1C0
  8
0
 10
209.9028863514923
 20
347.00000058114529
 30
0.0
 40
7.0
 50
224.9999999999975
 51
270.0
  0
LINE
  5
E1C1
  8
0
 10
200.00339195132261
 20
353.00000204145908
 30
0.0
 11
200.00339195132261
 21
349.89949508011341
 31
0.0
  0
ARC
  5
E1C5
  8
0
 10
181.0033914148807
 20
353.00000058114529
 30
0.0
 40
7.0
 50
90.0
 51
180.0
  0
ARC
  5
E1C9
  8
0
 10
181.0033914148807
 20
267.00000058114529
 30
0.0
 40
7.0
 50
180.0
 51
270.0
  0
ARC
  5
E1CD
  8
0
 10
207.00339141488081
 20
349.89949551775692
 30
0.0
 40
6.9999999999999947
 50
180.0
 51
224.9999999999973
  0
LINE
  5
E1D0
  8
0
 10
202.0536445826292
 20
344.94974656403059
 30
0.0
 11
204.9531386047602
 21
342.05025254189968
 31
0.0
  0
ARC
  5
E1D2
  8
0
 10
193.0033914148807
 20
267.00000058114529
 30
0.0
 40
7.0000000000000284
 50
270.0
 51
0.0
  0
LINE
  5
E1D6
  8
0
 10
193.00339080393309
 20
259.99999983608723
 30
0.0
 11
181.00339163094759
 21
259.99999983608723
 31
0.0
  0
LINE
  5
E1D8
  8
0
 10
204.9531386047602
 20
277.94974862039089
 30
0.0
 11
202.0536445826292
 21
275.05025459825993
 31
0.0
  0
ARC
  5
E1DB
  8
0
 10
207.00339141488081
 20
270.1005056445336
 30
0.0
 40
6.9999999999999947
 50
135.00000000000281
 51
180.0
  0
LINE
  5
E1DE
  8
0
 10
200.00339195132261
 20
270.10050608217711
 30
0.0
 11
200.00339195132261
 21
266.99999912083149
 31
0.0
  0
ARC
  5
E1E0
  8
0
 10
193.0033914148807
 20
353.00000058114529
 30
0.0
 40
7.0000000000000284
 50
0.0
 51
90.0
  0
LINE
  5
E1E3
  8
0
 10
181.00339163094759
 20
360.00000132620329
 30
0.0
 11
193.00339080393309
 21
360.00000132620329
 31
0.0
  0
LINE
  5
E1E6
  8
0
 10
174.0033914148807
 20
266.99999912083149
 30
0.0
 11
174.0033914148807
 21
280.00000125169748
 31
0.0
  0
LINE
  5
E1E8
  8
0
 10
174.0033914148807
 20
339.99999991059298
 30
0.0
 11
174.0033914148807
 21
353.00000204145908
 31
0.0
  0
LINE
  5
E1EB
  8
0
 10
189.50339116156101
 20
274.29999975860119
 30
0.0
 11
184.50339127331969
 21
274.29999975860119
 31
0.0
  0
LINE
  5
E1ED
  8
0
 10
184.50339127331969
 20
265.69999946653837
 30
0.0
 11
189.50339116156101
 21
265.69999946653837
 31
0.0
  0
ARC
  5
E1F3
  8
0
 10
189.5033914148807
 20
350.3000005811453
 30
0.0
 40
4.0
 50
0.0
 51
90.0
  0
ARC
  5
E1FC
  8
0
 10
184.5033914148807
 20
270.3000005811453
 30
0.0
 40
4.0
 50
90.0
 51
180.0
  0
ARC
  5
E205
  8
0
 10
189.5033914148807
 20
349.70000058114522
 30
0.0
 40
4.0
 50
270.0
 51
0.0
  0
ARC
  5
E207
  8
0
 10
189.5033914148807
 20
269.70000058114528
 30
0.0
 40
4.0
 50
270.0
 51
0.0
  0
ARC
  5
E20A
  8
0
 10
189.5033914148807
 20
270.3000005811453
 30
0.0
 40
4.0
 50
0.0
 51
90.0
  0
ARC
  5
E20C
  8
0
 10
184.5033914148807
 20
350.3000005811453
 30
0.0
 40
4.0
 50
90.0
 51
180.0
  0
LINE
  5
E20E
  8
0
 10
189.50339116156101
 20
354.30000169575209
 30
0.0
 11
184.50339127331969
 21
354.30000169575209
 31
0.0
  0
LINE
  5
E20F
  8
0
 10
193.5033918172121
 20
269.70000012218952
 30
0.0
 11
193.5033918172121
 21
270.2999991029501
 31
0.0
  0
LINE
  5
E210
  8
0
 10
180.5033915489912
 20
350.30000104010099
 30
0.0
 11
180.5033915489912
 21
349.70000205934048
 31
0.0
  0
ARC
  5
E212
  8
0
 10
184.5033914148807
 20
269.70000058114528
 30
0.0
 40
4.0
 50
180.0
 51
270.0
  0
LINE
  5
E214
  8
0
 10
193.5033918172121
 20
349.70000205934048
 30
0.0
 11
193.5033918172121
 21
350.30000104010099
 31
0.0
  0
ARC
  5
E215
  8
0
 10
184.5033914148807
 20
349.70000058114522
 30
0.0
 40
4.0
 50
180.0
 51
270.0
  0
LINE
  5
E217
  8
0
 10
180.5033915489912
 20
270.2999991029501
 30
0.0
 11
180.5033915489912
 21
269.70000012218952
 31
0.0
  0
LINE
  5
E218
  8
0
 10
184.50339127331969
 20
345.70000140368938
 30
0.0
 11
189.50339116156101
 21
345.70000140368938
 31
0.0
  0
ARC
  5
E42A
  8
0
 10
199.0033914148807
 20
179.0000014752149
 30
0.0
 40
1.0
 50
0.0
 51
90.0
  0
ARC
  5
E42F
  8
0
 10
175.0033914148807
 20
179.0000014752149
 30
0.0
 40
1.0
 50
90.0
 51
180.0
  0
LINE
  5
E437
  8
0
 10
200.00339195132261
 20
179.00000108778471
 30
0.0
 11
200.00339195132261
 21
170.50000149896371
 31
0.0
  0
LINE
  5
E43A
  8
0
 10
174.0033914148807
 20
170.50000149896371
 30
0.0
 11
174.0033914148807
 21
181.00000141561031
 31
0.0
  0
LINE
  5
E43B
  8
0
 10
200.00339195132261
 20
170.50000149896371
 30
0.0
 11
199.50339093804359
 21
170.0000014752149
 31
0.0
  0
LINE
  5
E43E
  8
0
 10
174.50339143862939
 20
170.0000014752149
 30
0.0
 11
174.0033914148807
 21
170.50000149896371
 31
0.0
  0
LINE
  5
E451
  8
0
 10
209.90288525819781
 20
179.00000108778471
 30
0.0
 11
209.90288525819781
 21
170.0000014752149
 31
0.0
  0
ARC
  5
E452
  8
0
 10
204.70744721618851
 20
166.87815847504729
 30
0.0
 40
13.188314705690541
 50
66.799961418381002
 51
84.245008312566057
  0
LINE
  5
E453
  8
0
 10
175.0033914148807
 20
180.0000014752149
 30
0.0
 11
206.02990210056311
 21
180.00000125169751
 31
0.0
  0
LINE
  5
E464
  8
0
 10
176.7104981746524
 20
203.000001296401
 30
0.0
 11
176.7104981746524
 21
206.178497210145
 31
0.0
  0
ARC
  5
E468
  8
0
 10
179.2198405058611
 20
207.4944602952672
 30
0.0
 40
0.3811549935061174
 50
50.525258654118453
 51
105.1643120173173
  0
LINE
  5
E46A
  8
0
 10
237.00339242815971
 20
170.50000149896371
 30
0.0
 11
236.50339141488081
 21
170.0000014752149
 31
0.0
  0
LINE
  5
E46C
  8
0
 10
236.50339141488081
 20
170.0000014752149
 30
0.0
 11
174.50339143862939
 21
170.0000014752149
 31
0.0
  0
LINE
  5
E46F
  8
0
 10
179.4621552154421
 20
207.78867571055889
 30
0.0
 11
229.07518863677981
 21
207.78867571055889
 31
0.0
  0
ARC
  5
E475
  8
0
 10
236.0033914148807
 20
202.92265120602531
 30
0.0
 40
1.0
 50
0.0
 51
59.999999999999972
  0
ARC
  5
E478
  8
0
 10
177.4690255212181
 20
206.42456165462369
 30
0.0
 40
0.7974405597439849
 50
119.5629430796554
 51
197.97293803402081
  0
LINE
  5
E479
  8
0
 10
237.00339242815971
 20
205.25000213086599
 30
0.0
 11
237.00339242815971
 21
170.50000149896371
 31
0.0
  0
ARC
  5
E47A
  8
0
 10
229.32518914341929
 20
207.2959464791241
 30
0.0
 40
0.5525236183460971
 50
63.097715771686957
 51
116.90228422831299
  0
LINE
  5
E47D
  8
0
 10
174.66137127950779
 20
206.23948766291139
 30
0.0
 11
183.83344895437901
 21
209.57784982071621
 31
0.0
  0
ARC
  5
E488
  8
0
 10
223.86941681866529
 20
203.0000014752149
 30
0.0
 40
7.0000000000000142
 50
59.999999999999972
 51
90.0
  0
ARC
  5
E48A
  8
0
 10
175.0033914148807
 20
205.29979393700521
 30
0.0
 40
1.0
 50
109.9999999999912
 51
180.0
  0
LINE
  5
E48C
  8
0
 10
174.0033914148807
 20
203.000001296401
 30
0.0
 11
174.0033914148807
 21
205.29979436099529
 31
0.0
  0
ARC
  5
E48D
  8
0
 10
186.22758995765889
 20
203.0000014752149
 30
0.0
 40
7.0000000000000142
 50
90.0
 51
109.9999999999912
  0
LINE
  5
E4A2
  8
0
 10
186.22758973389861
 20
210.00000058114529
 30
0.0
 11
223.8694158196449
 21
210.00000058114529
 31
0.0
  0
LINE
  5
E4B8
  8
0
 10
39.460014719516039
 20
182.00000157952309
 30
0.0
 11
57.460015807300799
 21
182.00000157952309
 31
0.0
  0
LINE
  5
E4B9
  8
0
 10
57.460015807300799
 20
182.00000157952309
 30
0.0
 11
58.460015971213572
 21
181.00000141561031
 31
0.0
  0
LINE
  5
E4BB
  8
0
 10
38.460016418248408
 20
181.00000141561031
 30
0.0
 11
39.460014719516039
 21
182.00000157952309
 31
0.0
  0
LINE
  5
E4BC
  8
0
 10
96.460014749318361
 20
203.000001296401
 30
0.0
 11
95.460016448050723
 21
202.0000029951334
 31
0.0
  0
LINE
  5
E4C0
  8
0
 10
95.460016448050723
 20
182.00000157952309
 30
0.0
 11
96.460014749318361
 21
181.00000141561031
 31
0.0
  0
LINE
  5
E4C1
  8
0
 10
95.460016448050723
 20
182.00000157952309
 30
0.0
 11
95.460016448050723
 21
202.0000029951334
 31
0.0
  0
LINE
  5
E4C2
  8
0
 10
77.46001536026597
 20
202.0000029951334
 30
0.0
 11
76.460015196353197
 21
203.000001296401
 31
0.0
  0
LINE
  5
E4C3
  8
0
 10
77.46001536026597
 20
182.00000157952309
 30
0.0
 11
77.46001536026597
 21
202.0000029951334
 31
0.0
  0
LINE
  5
E4C4
  8
0
 10
76.460015196353197
 20
181.00000141561031
 30
0.0
 11
77.46001536026597
 21
182.00000157952309
 31
0.0
  0
LINE
  5
E4C5
  8
0
 10
76.460015196353197
 20
181.00000141561031
 30
0.0
 11
76.460015196353197
 21
203.000001296401
 31
0.0
  0
LINE
  5
E4C6
  8
0
 10
58.460015971213572
 20
203.000001296401
 30
0.0
 11
57.460015807300799
 21
202.0000029951334
 31
0.0
  0
LINE
  5
E4C7
  8
0
 10
58.460015971213572
 20
181.00000141561031
 30
0.0
 11
58.460015971213572
 21
203.000001296401
 31
0.0
  0
LINE
  5
E4C8
  8
0
 10
57.460015807300799
 20
182.00000157952309
 30
0.0
 11
57.460015807300799
 21
202.0000029951334
 31
0.0
  0
LINE
  5
E4C9
  8
0
 10
77.46001536026597
 20
182.00000157952309
 30
0.0
 11
95.460016448050723
 21
182.00000157952309
 31
0.0
  0
LINE
  5
E4CC
  8
0
 10
37.460016254335642
 20
203.000001296401
 30
0.0
 11
97.460014913231134
 21
203.000001296401
 31
0.0
  0
LINE
  5
E4CD
  8
0
 10
39.460014719516039
 20
202.0000029951334
 30
0.0
 11
38.460016418248408
 21
203.000001296401
 31
0.0
  0
LINE
  5
E4CE
  8
0
 10
39.460014719516039
 20
202.0000029951334
 30
0.0
 11
39.460014719516039
 21
182.00000157952309
 31
0.0
  0
LINE
  5
E4CF
  8
0
 10
97.460014913230694
 20
181.00000141561031
 30
0.0
 11
37.460016254335642
 21
181.00000141561031
 31
0.0
  0
LINE
  5
E4D0
  8
0
 10
57.460015807300799
 20
202.0000029951334
 30
0.0
 11
39.460014719516039
 21
202.0000029951334
 31
0.0
  0
LINE
  5
E4D2
  8
0
 10
95.460016448050723
 20
202.0000029951334
 30
0.0
 11
77.46001536026597
 21
202.0000029951334
 31
0.0
  0
LINE
  5
E4DC
  8
0
 10
116.9600153155625
 20
170.0000014752149
 30
0.0
 11
77.960015442222357
 21
170.0000014752149
 31
0.0
  0
LINE
  5
E4DD
  8
0
 10
77.960015442222357
 20
170.0000014752149
 30
0.0
 11
77.46001536026597
 21
170.50000149896371
 31
0.0
  0
LINE
  5
E4DF
  8
0
 10
17.96001585200429
 20
170.0000014752149
 30
0.0
 11
17.460014838725328
 21
170.50000149896371
 31
0.0
  0
LINE
  5
E4E4
  8
0
 10
116.9600153155625
 20
170.0000014752149
 30
0.0
 11
117.46001632884141
 21
170.50000149896371
 31
0.0
  0
LINE
  5
E4E5
  8
0
 10
56.960015725344412
 20
170.0000014752149
 30
0.0
 11
17.960015852003831
 21
170.0000014752149
 31
0.0
  0
LINE
  5
E4E7
  8
0
 10
57.460015807300799
 20
170.50000149896371
 30
0.0
 11
56.960015725344412
 21
170.0000014752149
 31
0.0
  0
LINE
  5
E4ED
  8
0
 10
77.46001536026597
 20
170.50000149896371
 30
0.0
 11
57.460015807300799
 21
170.50000149896371
 31
0.0
  0
LINE
  5
E4F0
  8
0
 10
117.46001632884141
 20
179.00000108778471
 30
0.0
 11
117.46001632884141
 21
170.50000149896371
 31
0.0
  0
LINE
  5
E4F2
  8
0
 10
17.460014838725328
 20
170.50000149896371
 30
0.0
 11
17.460014838725328
 21
179.00000108778471
 31
0.0
  0
ARC
  5
E4F3
  8
0
 10
18.460015583783392
 20
179.0000014752149
 30
0.0
 40
1.000000000000014
 50
90.0
 51
180.0
  0
LINE
  5
E4F6
  8
0
 10
97.460014913231134
 20
180.00000125169751
 30
0.0
 11
116.4606841904546
 21
180.00000125169751
 31
0.0
  0
LINE
  5
E4F8
  8
0
 10
18.459346977112091
 20
180.00000125169751
 30
0.0
 11
37.460016254335642
 21
180.00000125169751
 31
0.0
  0
ARC
  5
E4FA
  8
0
 10
116.4600155837834
 20
179.0000014752149
 30
0.0
 40
1.000000000000014
 50
0.0
 51
90.0
  0
LINE
  5
E4FD
  8
0
 10
94.752907920628786
 20
205.29979436099529
 30
0.0
 11
94.752907920628786
 21
203.000001296401
 31
0.0
  0
LINE
  5
E500
  8
0
 10
40.16712324693799
 20
203.000001296401
 30
0.0
 11
40.16712324693799
 21
205.29979436099529
 31
0.0
  0
ARC
  5
E503
  8
0
 10
93.563650458120719
 20
205.1407848106974
 30
0.0
 40
1.199840551580315
 50
7.6155596969764519
 51
66.306385451928804
  0
ARC
  5
E504
  8
0
 10
41.356380709445602
 20
205.1407848106974
 30
0.0
 40
1.1998405515803721
 50
113.6936145480712
 51
172.3844403030235
  0
LINE
  5
E506
  8
0
 10
40.874229911714792
 20
206.23948766291139
 30
0.0
 11
94.045801255851984
 21
206.23948766291139
 31
0.0
  0
LINE
  5
E507
  8
0
 10
94.045801255851984
 20
206.23948766291139
 30
0.0
 11
96.460014749318361
 21
207.11818678677079
 31
0.0
  0
LINE
  5
E50C
  8
0
 10
38.460016418248408
 20
207.11818678677079
 30
0.0
 11
40.874229911714792
 21
206.23948766291139
 31
0.0
  0
LINE
  5
E50F
  8
0
 10
96.460014749318361
 20
207.862343326211
 30
0.0
 11
93.488672915846095
 21
209.57785068452361
 31
0.0
  0
LINE
  5
E510
  8
0
 10
96.460014749318361
 20
207.11818678677079
 30
0.0
 11
96.460014749318361
 21
207.862343326211
 31
0.0
  0
LINE
  5
E511
  8
0
 10
38.460016418248408
 20
207.862343326211
 30
0.0
 11
38.460016418248408
 21
207.11818678677079
 31
0.0
  0
LINE
  5
E512
  8
0
 10
41.43135825172066
 20
209.57785068452361
 30
0.0
 11
38.460016418248408
 21
207.862343326211
 31
0.0
  0
ARC
  5
E514
  8
0
 10
96.489261688145234
 20
206.1473752622064
 30
0.0
 40
0.9712519753689713
 50
1.8362501179256889
 51
91.725586721045104
  0
ARC
  5
E516
  8
0
 10
38.430769479421542
 20
206.1473752622064
 30
0.0
 40
0.971251975368996
 50
88.274413278980987
 51
178.16374988204819
  0
LINE
  5
E51B
  8
0
 10
97.460014913231134
 20
206.9226500242948
 30
0.0
 11
97.460014913231134
 21
180.00000125169751
 31
0.0
  0
LINE
  5
E51D
  8
0
 10
37.460016254335642
 20
180.00000125169751
 30
0.0
 11
37.460016254335642
 21
206.9226500242948
 31
0.0
  0
ARC
  5
E51E
  8
0
 10
38.460015583783388
 20
206.92265120602539
 30
0.0
 40
1.0
 50
119.9999999999993
 51
180.0
  0
ARC
  5
E51F
  8
0
 10
38.306708415734647
 20
207.16923267799211
 30
0.0
 40
0.7098631659054404
 50
77.527653401155902
 51
119.2350876312934
  0
LINE
  5
E520
  8
0
 10
37.960015404969447
 20
207.78867571055889
 30
0.0
 11
41.558091795136527
 21
209.86602687899941
 31
0.0
  0
ARC
  5
E522
  8
0
 10
96.460015583783388
 20
206.92265120602539
 30
0.0
 40
1.0
 50
0.0
 51
60.000000000000682
  0
ARC
  5
E523
  8
0
 10
96.613322751831674
 20
207.16923267799211
 30
0.0
 40
0.709863165905407
 50
60.764912368706561
 51
102.4723465988441
  0
LINE
  5
E524
  8
0
 10
93.361939372429788
 20
209.86602687899941
 30
0.0
 11
96.960015762597322
 21
207.78867571055889
 31
0.0
  0
ARC
  5
E526
  8
0
 10
42.058091795136527
 20
209.00000147521499
 30
0.0
 40
1.000000000000008
 50
90.0
 51
119.9999999999993
  0
POLYLINE
  5
E527
  8
0
 66
     1
 10
0.0
 20
0.0
 30
0.0
 70
   128
  0
VERTEX
  5
158A4
  8
0
 10
42.058091778308153
 20
210.00000058114529
 30
0.0
  0
VERTEX
  5
158A5
  8
0
 10
41.987823490053408
 20
209.9526707679033
 30
0.0
  0
VERTEX
  5
158A6
  8
0
 10
41.77796671167016
 20
209.81131462752819
 30
0.0
  0
VERTEX
  5
158A7
  8
0
 10
41.43135825172066
 20
209.57785068452361
 30
0.0
  0
SEQEND
  5
158A8
  8
0
  0
POLYLINE
  5
E529
  8
0
 66
     1
 10
0.0
 20
0.0
 30
0.0
 70
   128
  0
VERTEX
  5
158A9
  8
0
 10
93.488672915846095
 20
209.57785068452361
 30
0.0
  0
VERTEX
  5
158AA
  8
0
 10
93.142064455896616
 20
209.81131462752819
 30
0.0
  0
VERTEX
  5
158AB
  8
0
 10
92.932207677513361
 20
209.9526707679033
 30
0.0
  0
VERTEX
  5
158AC
  8
0
 10
92.861939389258623
 20
210.00000058114529
 30
0.0
  0
SEQEND
  5
158AD
  8
0
  0
ARC
  5
E52A
  8
0
 10
92.861939372429788
 20
209.00000147521499
 30
0.0
 40
1.000000000000008
 50
60.000000000000682
 51
90.0
  0
LINE
  5
E52C
  8
0
 10
42.058091778308153
 20
210.00000058114529
 30
0.0
 11
92.861939389258623
 21
210.00000058114529
 31
0.0
  0
CIRCLE
  5
E5A1
  8
0
 10
330.00338971614838
 20
192.0000014752149
 30
0.0
 40
4.5000000000000346
  0
LINE
  5
E5DA
  8
0
 10
399.50338944792747
 20
170.0000014752145
 30
0.0
 11
360.5033895745874
 21
170.0000014752149
 31
0.0
  0
LINE
  5
E5DB
  8
0
 10
360.5033895745874
 20
170.0000014752149
 30
0.0
 11
360.00338949263102
 21
170.50000149896371
 31
0.0
  0
LINE
  5
E5DC
  8
0
 10
339.50338985770941
 20
170.0000014752149
 30
0.0
 11
300.50338998436928
 21
170.0000014752145
 31
0.0
  0
LINE
  5
E5DF
  8
0
 10
340.00338993966579
 20
170.50000149896371
 30
0.0
 11
339.50338985770941
 21
170.0000014752149
 31
0.0
  0
LINE
  5
E5E2
  8
0
 10
320.00339038670057
 20
170.50000149896371
 30
0.0
 11
320.5033895373345
 21
170.0000014752149
 31
0.0
  0
LINE
  5
E5E4
  8
0
 10
380.00338904559612
 20
170.50000149896371
 30
0.0
 11
379.50338989496231
 21
170.0000014752149
 31
0.0
  0
LINE
  5
E5EA
  8
0
 10
340.00338993966579
 20
170.50000149896371
 30
0.0
 11
360.00338949263102
 21
170.50000149896371
 31
0.0
  0
POLYLINE
  5
E5EB
  8
0
 10
376.00338971614838
 20
202.92265120602511
 30
0.0
 66
     1
 70
     8
  0
VERTEX
  8
0
  5
15ABA
 10
376.003
 20
202.923
 30
0.000000
  70
    32
  0
VERTEX
  8
0
  5
15ABB
 10
376.052
 20
202.923
 30
0.000000
  70
    32
  0
VERTEX
  8
0
  5
15ABC
 10
376.102
 20
202.923
 30
0.000000
  70
    32
  0
VERTEX
  8
0
  5
15ABD
 10
376.151
 20
202.924
 30
0.000000
  70
    32
  0
VERTEX
  8
0
  5
15ABE
 10
376.200
 20
202.925
 30
0.000000
  70
    32
  0
VERTEX
  8
0
  5
15ABF
 10
376.249
 20
202.926
 30
0.000000
  70
    32
  0
VERTEX
  8
0
  5
15AC0
 10
376.298
 20
202.927
 30
0.000000
  70
    32
  0
VERTEX
  8
0
  5
15AC1
 10
376.347
 20
202.929
 30
0.000000
  70
    32
  0
VERTEX
  8
0
  5
15AC2
 10
376.395
 20
202.931
 30
0.000000
  70
    32
  0
VERTEX
  8
0
  5
15AC3
 10
376.444
 20
202.933
 30
0.000000
  70
    32
  0
VERTEX
  8
0
  5
15AC4
 10
376.493
 20
202.936
 30
0.000000
  70
    32
  0
VERTEX
  8
0
  5
15AC5
 10
376.542
 20
202.938
 30
0.000000
  70
    32
  0
VERTEX
  8
0
  5
15AC6
 10
376.590
 20
202.941
 30
0.000000
  70
    32
  0
VERTEX
  8
0
  5
15AC7
 10
376.639
 20
202.945
 30
0.000000
  70
    32
  0
VERTEX
  8
0
  5
15AC8
 10
376.687
 20
202.948
 30
0.000000
  70
    32
  0
VERTEX
  8
0
  5
15AC9
 10
376.736
 20
202.952
 30
0.000000
  70
    32
  0
VERTEX
  8
0
  5
15ACA
 10
376.784
 20
202.956
 30
0.000000
  70
    32
  0
VERTEX
  8
0
  5
15ACB
 10
376.832
 20
202.960
 30
0.000000
  70
    32
  0
VERTEX
  8
0
  5
15ACC
 10
376.880
 20
202.965
 30
0.000000
  70
    32
  0
VERTEX
  8
0
  5
15ACD
 10
376.928
 20
202.970
 30
0.000000
  70
    32
  0
VERTEX
  8
0
  5
15ACE
 10
376.975
 20
202.975
 30
0.000000
  70
    32
  0
VERTEX
  8
0
  5
15ACF
 10
377.023
 20
202.980
 30
0.000000
  70
    32
  0
VERTEX
  8
0
  5
15AD0
 10
377.070
 20
202.985
 30
0.000000
  70
    32
  0
VERTEX
  8
0
  5
15AD1
 10
377.117
 20
202.991
 30
0.000000
  70
    32
  0
VERTEX
  8
0
  5
15AD2
 10
377.165
 20
202.997
 30
0.000000
  70
    32
  0
VERTEX
  8
0
  5
15AD3
 10
377.211
 20
203.004
 30
0.000000
  70
    32
  0
VERTEX
  8
0
  5
15AD4
 10
377.258
 20
203.010
 30
0.000000
  70
    32
  0
VERTEX
  8
0
  5
15AD5
 10
377.305
 20
203.017
 30
0.000000
  70
    32
  0
VERTEX
  8
0
  5
15AD6
 10
377.351
 20
203.024
 30
0.000000
  70
    32
  0
VERTEX
  8
0
  5
15AD7
 10
377.397
 20
203.031
 30
0.000000
  70
    32
  0
VERTEX
  8
0
  5
15AD8
 10
377.443
 20
203.039
 30
0.000000
  70
    32
  0
VERTEX
  8
0
  5
15AD9
 10
377.489
 20
203.046
 30
0.000000
  70
    32
  0
VERTEX
  8
0
  5
15ADA
 10
377.534
 20
203.054
 30
0.000000
  70
    32
  0
VERTEX
  8
0
  5
15ADB
 10
377.579
 20
203.063
 30
0.000000
  70
    32
  0
VERTEX
  8
0
  5
15ADC
 10
377.624
 20
203.071
 30
0.000000
  70
    32
  0
VERTEX
  8
0
  5
15ADD
 10
377.669
 20
203.080
 30
0.000000
  70
    32
  0
VERTEX
  8
0
  5
15ADE
 10
377.714
 20
203.089
 30
0.000000
  70
    32
  0
VERTEX
  8
0
  5
15ADF
 10
377.758
 20
203.098
 30
0.000000
  70
    32
  0
VERTEX
  8
0
  5
15AE0
 10
377.802
 20
203.108
 30
0.000000
  70
    32
  0
VERTEX
  8
0
  5
15AE1
 10
377.846
 20
203.117
 30
0.000000
  70
    32
  0
VERTEX
  8
0
  5
15AE2
 10
377.889
 20
203.127
 30
0.000000
  70
    32
  0
VERTEX
  8
0
  5
15AE3
 10
377.932
 20
203.137
 30
0.000000
  70
    32
  0
VERTEX
  8
0
  5
15AE4
 10
377.975
 20
203.148
 30
0.000000
  70
    32
  0
VERTEX
  8
0
  5
15AE5
 10
378.018
 20
203.158
 30
0.000000
  70
    32
  0
VERTEX
  8
0
  5
15AE6
 10
378.060
 20
203.169
 30
0.000000
  70
    32
  0
VERTEX
  8
0
  5
15AE7
 10
378.102
 20
203.180
 30
0.000000
  70
    32
  0
VERTEX
  8
0
  5
15AE8
 10
378.143
 20
203.191
 30
0.000000
  70
    32
  0
VERTEX
  8
0
  5
15AE9
 10
378.185
 20
203.203
 30
0.000000
  70
    32
  0
VERTEX
  8
0
  5
15AEA
 10
378.226
 20
203.215
 30
0.000000
  70
    32
  0
VERTEX
  8
0
  5
15AEB
 10
378.266
 20
203.226
 30
0.000000
  70
    32
  0
VERTEX
  8
0
  5
15AEC
 10
378.307
 20
203.239
 30
0.000000
  70
    32
  0
VERTEX
  8
0
  5
15AED
 10
378.347
 20
203.251
 30
0.000000
  70
    32
  0
VERTEX
  8
0
  5
15AEE
 10
378.386
 20
203.264
 30
0.000000
  70
    32
  0
VERTEX
  8
0
  5
15AEF
 10
378.425
 20
203.276
 30
0.000000
  70
    32
  0
VERTEX
  8
0
  5
15AF0
 10
378.464
 20
203.289
 30
0.000000
  70
    32
  0
VERTEX
  8
0
  5
15AF1
 10
378.503
 20
203.302
 30
0.000000
  70
    32
  0
VERTEX
  8
0
  5
15AF2
 10
378.541
 20
203.316
 30
0.000000
  70
    32
  0
VERTEX
  8
0
  5
15AF3
 10
378.579
 20
203.329
 30
0.000000
  70
    32
  0
VERTEX
  8
0
  5
15AF4
 10
378.616
 20
203.343
 30
0.000000
  70
    32
  0
VERTEX
  8
0
  5
15AF5
 10
378.653
 20
203.357
 30
0.000000
  70
    32
  0
VERTEX
  8
0
  5
15AF6
 10
378.690
 20
203.371
 30
0.000000
  70
    32
  0
VERTEX
  8
0
  5
15AF7
 10
378.726
 20
203.386
 30
0.000000
  70
    32
  0
VERTEX
  8
0
  5
15AF8
 10
378.762
 20
203.400
 30
0.000000
  70
    32
  0
VERTEX
  8
0
  5
15AF9
 10
378.797
 20
203.415
 30
0.000000
  70
    32
  0
VERTEX
  8
0
  5
15AFA
 10
378.832
 20
203.430
 30
0.000000
  70
    32
  0
VERTEX
  8
0
  5
15AFB
 10
378.866
 20
203.445
 30
0.000000
  70
    32
  0
VERTEX
  8
0
  5
15AFC
 10
378.900
 20
203.460
 30
0.000000
  70
    32
  0
VERTEX
  8
0
  5
15AFD
 10
378.934
 20
203.476
 30
0.000000
  70
    32
  0
VERTEX
  8
0
  5
15AFE
 10
378.967
 20
203.492
 30
0.000000
  70
    32
  0
VERTEX
  8
0
  5
15AFF
 10
379.000
 20
203.507
 30
0.000000
  70
    32
  0
VERTEX
  8
0
  5
15B00
 10
379.032
 20
203.523
 30
0.000000
  70
    32
  0
VERTEX
  8
0
  5
15B01
 10
379.064
 20
203.540
 30
0.000000
  70
    32
  0
VERTEX
  8
0
  5
15B02
 10
379.095
 20
203.556
 30
0.000000
  70
    32
  0
VERTEX
  8
0
  5
15B03
 10
379.126
 20
203.572
 30
0.000000
  70
    32
  0
VERTEX
  8
0
  5
15B04
 10
379.157
 20
203.589
 30
0.000000
  70
    32
  0
VERTEX
  8
0
  5
15B05
 10
379.187
 20
203.606
 30
0.000000
  70
    32
  0
VERTEX
  8
0
  5
15B06
 10
379.216
 20
203.623
 30
0.000000
  70
    32
  0
VERTEX
  8
0
  5
15B07
 10
379.245
 20
203.640
 30
0.000000
  70
    32
  0
VERTEX
  8
0
  5
15B08
 10
379.274
 20
203.657
 30
0.000000
  70
    32
  0
VERTEX
  8
0
  5
15B09
 10
379.302
 20
203.675
 30
0.000000
  70
    32
  0
VERTEX
  8
0
  5
15B0A
 10
379.329
 20
203.692
 30
0.000000
  70
    32
  0
VERTEX
  8
0
  5
15B0B
 10
379.356
 20
203.710
 30
0.000000
  70
    32
  0
VERTEX
  8
0
  5
15B0C
 10
379.383
 20
203.728
 30
0.000000
  70
    32
  0
VERTEX
  8
0
  5
15B0D
 10
379.409
 20
203.746
 30
0.000000
  70
    32
  0
VERTEX
  8
0
  5
15B0E
 10
379.434
 20
203.764
 30
0.000000
  70
    32
  0
VERTEX
  8
0
  5
15B0F
 10
379.459
 20
203.783
 30
0.000000
  70
    32
  0
VERTEX
  8
0
  5
15B10
 10
379.484
 20
203.801
 30
0.000000
  70
    32
  0
VERTEX
  8
0
  5
15B11
 10
379.508
 20
203.820
 30
0.000000
  70
    32
  0
VERTEX
  8
0
  5
15B12
 10
379.531
 20
203.838
 30
0.000000
  70
    32
  0
VERTEX
  8
0
  5
15B13
 10
379.554
 20
203.857
 30
0.000000
  70
    32
  0
VERTEX
  8
0
  5
15B14
 10
379.576
 20
203.876
 30
0.000000
  70
    32
  0
VERTEX
  8
0
  5
15B15
 10
379.598
 20
203.895
 30
0.000000
  70
    32
  0
VERTEX
  8
0
  5
15B16
 10
379.619
 20
203.914
 30
0.000000
  70
    32
  0
VERTEX
  8
0
  5
15B17
 10
379.640
 20
203.933
 30
0.000000
  70
    32
  0
VERTEX
  8
0
  5
15B18
 10
379.660
 20
203.953
 30
0.000000
  70
    32
  0
VERTEX
  8
0
  5
15B19
 10
379.680
 20
203.972
 30
0.000000
  70
    32
  0
VERTEX
  8
0
  5
15B1A
 10
379.699
 20
203.992
 30
0.000000
  70
    32
  0
VERTEX
  8
0
  5
15B1B
 10
379.717
 20
204.012
 30
0.000000
  70
    32
  0
VERTEX
  8
0
  5
15B1C
 10
379.735
 20
204.031
 30
0.000000
  70
    32
  0
VERTEX
  8
0
  5
15B1D
 10
379.753
 20
204.051
 30
0.000000
  70
    32
  0
VERTEX
  8
0
  5
15B1E
 10
379.770
 20
204.071
 30
0.000000
  70
    32
  0
VERTEX
  8
0
  5
15B1F
 10
379.786
 20
204.091
 30
0.000000
  70
    32
  0
VERTEX
  8
0
  5
15B20
 10
379.802
 20
204.111
 30
0.000000
  70
    32
  0
VERTEX
  8
0
  5
15B21
 10
379.817
 20
204.132
 30
0.000000
  70
    32
  0
VERTEX
  8
0
  5
15B22
 10
379.831
 20
204.152
 30
0.000000
  70
    32
  0
VERTEX
  8
0
  5
15B23
 10
379.845
 20
204.172
 30
0.000000
  70
    32
  0
VERTEX
  8
0
  5
15B24
 10
379.858
 20
204.193
 30
0.000000
  70
    32
  0
VERTEX
  8
0
  5
15B25
 10
379.871
 20
204.213
 30
0.000000
  70
    32
  0
VERTEX
  8
0
  5
15B26
 10
379.884
 20
204.234
 30
0.000000
  70
    32
  0
VERTEX
  8
0
  5
15B27
 10
379.895
 20
204.254
 30
0.000000
  70
    32
  0
VERTEX
  8
0
  5
15B28
 10
379.906
 20
204.275
 30
0.000000
  70
    32
  0
VERTEX
  8
0
  5
15B29
 10
379.917
 20
204.296
 30
0.000000
  70
    32
  0
VERTEX
  8
0
  5
15B2A
 10
379.927
 20
204.317
 30
0.000000
  70
    32
  0
VERTEX
  8
0
  5
15B2B
 10
379.936
 20
204.338
 30
0.000000
  70
    32
  0
VERTEX
  8
0
  5
15B2C
 10
379.945
 20
204.359
 30
0.000000
  70
    32
  0
VERTEX
  8
0
  5
15B2D
 10
379.953
 20
204.380
 30
0.000000
  70
    32
  0
VERTEX
  8
0
  5
15B2E
 10
379.960
 20
204.401
 30
0.000000
  70
    32
  0
VERTEX
  8
0
  5
15B2F
 10
379.967
 20
204.422
 30
0.000000
  70
    32
  0
VERTEX
  8
0
  5
15B30
 10
379.973
 20
204.443
 30
0.000000
  70
    32
  0
VERTEX
  8
0
  5
15B31
 10
379.979
 20
204.464
 30
0.000000
  70
    32
  0
VERTEX
  8
0
  5
15B32
 10
379.984
 20
204.485
 30
0.000000
  70
    32
  0
VERTEX
  8
0
  5
15B33
 10
379.989
 20
204.506
 30
0.000000
  70
    32
  0
VERTEX
  8
0
  5
15B34
 10
379.993
 20
204.527
 30
0.000000
  70
    32
  0
VERTEX
  8
0
  5
15B35
 10
379.996
 20
204.548
 30
0.000000
  70
    32
  0
VERTEX
  8
0
  5
15B36
 10
379.999
 20
204.570
 30
0.000000
  70
    32
  0
VERTEX
  8
0
  5
15B37
 10
380.001
 20
204.591
 30
0.000000
  70
    32
  0
VERTEX
  8
0
  5
15B38
 10
380.002
 20
204.612
 30
0.000000
  70
    32
  0
VERTEX
  8
0
  5
15B39
 10
380.003
 20
204.633
 30
0.000000
  70
    32
  0
VERTEX
  8
0
  5
15B3A
 10
380.003
 20
204.655
 30
0.000000
  70
    32
  0
SEQEND
  8
0
  5
15B3B
  0
LINE
  5
E5EC
  8
0
 10
380.00338971614838
 20
206.92265120602499
 30
0.0
 11
380.00338904559612
 21
170.50000149896371
 31
0.0
  0
LINE
  5
E5ED
  8
0
 10
320.00339038670057
 20
170.50000149896371
 30
0.0
 11
320.00338971614838
 21
206.92265118761469
 31
0.0
  0
POLYLINE
  5
E5EE
  8
0
 10
320.00338971614838
 20
204.654702013594
 30
0.0
 66
     1
 70
     8
  0
VERTEX
  8
0
  5
15B3C
 10
320.003
 20
204.655
 30
0.000000
  70
    32
  0
VERTEX
  8
0
  5
15B3D
 10
320.004
 20
204.633
 30
0.000000
  70
    32
  0
VERTEX
  8
0
  5
15B3E
 10
320.005
 20
204.612
 30
0.000000
  70
    32
  0
VERTEX
  8
0
  5
15B3F
 10
320.006
 20
204.591
 30
0.000000
  70
    32
  0
VERTEX
  8
0
  5
15B40
 10
320.008
 20
204.570
 30
0.000000
  70
    32
  0
VERTEX
  8
0
  5
15B41
 10
320.011
 20
204.548
 30
0.000000
  70
    32
  0
VERTEX
  8
0
  5
15B42
 10
320.014
 20
204.527
 30
0.000000
  70
    32
  0
VERTEX
  8
0
  5
15B43
 10
320.018
 20
204.506
 30
0.000000
  70
    32
  0
VERTEX
  8
0
  5
15B44
 10
320.023
 20
204.485
 30
0.000000
  70
    32
  0
VERTEX
  8
0
  5
15B45
 10
320.028
 20
204.464
 30
0.000000
  70
    32
  0
VERTEX
  8
0
  5
15B46
 10
320.033
 20
204.443
 30
0.000000
  70
    32
  0
VERTEX
  8
0
  5
15B47
 10
320.040
 20
204.422
 30
0.000000
  70
    32
  0
VERTEX
  8
0
  5
15B48
 10
320.047
 20
204.401
 30
0.000000
  70
    32
  0
VERTEX
  8
0
  5
15B49
 10
320.054
 20
204.380
 30
0.000000
  70
    32
  0
VERTEX
  8
0
  5
15B4A
 10
320.062
 20
204.359
 30
0.000000
  70
    32
  0
VERTEX
  8
0
  5
15B4B
 10
320.071
 20
204.338
 30
0.000000
  70
    32
  0
VERTEX
  8
0
  5
15B4C
 10
320.080
 20
204.317
 30
0.000000
  70
    32
  0
VERTEX
  8
0
  5
15B4D
 10
320.090
 20
204.296
 30
0.000000
  70
    32
  0
VERTEX
  8
0
  5
15B4E
 10
320.101
 20
204.275
 30
0.000000
  70
    32
  0
VERTEX
  8
0
  5
15B4F
 10
320.112
 20
204.254
 30
0.000000
  70
    32
  0
VERTEX
  8
0
  5
15B50
 10
320.123
 20
204.234
 30
0.000000
  70
    32
  0
VERTEX
  8
0
  5
15B51
 10
320.135
 20
204.213
 30
0.000000
  70
    32
  0
VERTEX
  8
0
  5
15B52
 10
320.148
 20
204.193
 30
0.000000
  70
    32
  0
VERTEX
  8
0
  5
15B53
 10
320.162
 20
204.172
 30
0.000000
  70
    32
  0
VERTEX
  8
0
  5
15B54
 10
320.176
 20
204.152
 30
0.000000
  70
    32
  0
VERTEX
  8
0
  5
15B55
 10
320.190
 20
204.132
 30
0.000000
  70
    32
  0
VERTEX
  8
0
  5
15B56
 10
320.205
 20
204.111
 30
0.000000
  70
    32
  0
VERTEX
  8
0
  5
15B57
 10
320.221
 20
204.091
 30
0.000000
  70
    32
  0
VERTEX
  8
0
  5
15B58
 10
320.237
 20
204.071
 30
0.000000
  70
    32
  0
VERTEX
  8
0
  5
15B59
 10
320.254
 20
204.051
 30
0.000000
  70
    32
  0
VERTEX
  8
0
  5
15B5A
 10
320.271
 20
204.031
 30
0.000000
  70
    32
  0
VERTEX
  8
0
  5
15B5B
 10
320.289
 20
204.012
 30
0.000000
  70
    32
  0
VERTEX
  8
0
  5
15B5C
 10
320.308
 20
203.992
 30
0.000000
  70
    32
  0
VERTEX
  8
0
  5
15B5D
 10
320.327
 20
203.972
 30
0.000000
  70
    32
  0
VERTEX
  8
0
  5
15B5E
 10
320.347
 20
203.953
 30
0.000000
  70
    32
  0
VERTEX
  8
0
  5
15B5F
 10
320.367
 20
203.933
 30
0.000000
  70
    32
  0
VERTEX
  8
0
  5
15B60
 10
320.387
 20
203.914
 30
0.000000
  70
    32
  0
VERTEX
  8
0
  5
15B61
 10
320.409
 20
203.895
 30
0.000000
  70
    32
  0
VERTEX
  8
0
  5
15B62
 10
320.430
 20
203.876
 30
0.000000
  70
    32
  0
VERTEX
  8
0
  5
15B63
 10
320.453
 20
203.857
 30
0.000000
  70
    32
  0
VERTEX
  8
0
  5
15B64
 10
320.476
 20
203.838
 30
0.000000
  70
    32
  0
VERTEX
  8
0
  5
15B65
 10
320.499
 20
203.820
 30
0.000000
  70
    32
  0
VERTEX
  8
0
  5
15B66
 10
320.523
 20
203.801
 30
0.000000
  70
    32
  0
VERTEX
  8
0
  5
15B67
 10
320.547
 20
203.783
 30
0.000000
  70
    32
  0
VERTEX
  8
0
  5
15B68
 10
320.572
 20
203.764
 30
0.000000
  70
    32
  0
VERTEX
  8
0
  5
15B69
 10
320.598
 20
203.746
 30
0.000000
  70
    32
  0
VERTEX
  8
0
  5
15B6A
 10
320.624
 20
203.728
 30
0.000000
  70
    32
  0
VERTEX
  8
0
  5
15B6B
 10
320.650
 20
203.710
 30
0.000000
  70
    32
  0
VERTEX
  8
0
  5
15B6C
 10
320.678
 20
203.692
 30
0.000000
  70
    32
  0
VERTEX
  8
0
  5
15B6D
 10
320.705
 20
203.675
 30
0.000000
  70
    32
  0
VERTEX
  8
0
  5
15B6E
 10
320.733
 20
203.657
 30
0.000000
  70
    32
  0
VERTEX
  8
0
  5
15B6F
 10
320.762
 20
203.640
 30
0.000000
  70
    32
  0
VERTEX
  8
0
  5
15B70
 10
320.791
 20
203.623
 30
0.000000
  70
    32
  0
VERTEX
  8
0
  5
15B71
 10
320.820
 20
203.606
 30
0.000000
  70
    32
  0
VERTEX
  8
0
  5
15B72
 10
320.850
 20
203.589
 30
0.000000
  70
    32
  0
VERTEX
  8
0
  5
15B73
 10
320.880
 20
203.572
 30
0.000000
  70
    32
  0
VERTEX
  8
0
  5
15B74
 10
320.911
 20
203.556
 30
0.000000
  70
    32
  0
VERTEX
  8
0
  5
15B75
 10
320.943
 20
203.540
 30
0.000000
  70
    32
  0
VERTEX
  8
0
  5
15B76
 10
320.975
 20
203.523
 30
0.000000
  70
    32
  0
VERTEX
  8
0
  5
15B77
 10
321.007
 20
203.507
 30
0.000000
  70
    32
  0
VERTEX
  8
0
  5
15B78
 10
321.040
 20
203.492
 30
0.000000
  70
    32
  0
VERTEX
  8
0
  5
15B79
 10
321.073
 20
203.476
 30
0.000000
  70
    32
  0
VERTEX
  8
0
  5
15B7A
 10
321.106
 20
203.460
 30
0.000000
  70
    32
  0
VERTEX
  8
0
  5
15B7B
 10
321.140
 20
203.445
 30
0.000000
  70
    32
  0
VERTEX
  8
0
  5
15B7C
 10
321.175
 20
203.430
 30
0.000000
  70
    32
  0
VERTEX
  8
0
  5
15B7D
 10
321.210
 20
203.415
 30
0.000000
  70
    32
  0
VERTEX
  8
0
  5
15B7E
 10
321.245
 20
203.400
 30
0.000000
  70
    32
  0
VERTEX
  8
0
  5
15B7F
 10
321.281
 20
203.386
 30
0.000000
  70
    32
  0
VERTEX
  8
0
  5
15B80
 10
321.317
 20
203.371
 30
0.000000
  70
    32
  0
VERTEX
  8
0
  5
15B81
 10
321.354
 20
203.357
 30
0.000000
  70
    32
  0
VERTEX
  8
0
  5
15B82
 10
321.391
 20
203.343
 30
0.000000
  70
    32
  0
VERTEX
  8
0
  5
15B83
 10
321.428
 20
203.329
 30
0.000000
  70
    32
  0
VERTEX
  8
0
  5
15B84
 10
321.466
 20
203.316
 30
0.000000
  70
    32
  0
VERTEX
  8
0
  5
15B85
 10
321.504
 20
203.302
 30
0.000000
  70
    32
  0
VERTEX
  8
0
  5
15B86
 10
321.542
 20
203.289
 30
0.000000
  70
    32
  0
VERTEX
  8
0
  5
15B87
 10
321.581
 20
203.276
 30
0.000000
  70
    32
  0
VERTEX
  8
0
  5
15B88
 10
321.621
 20
203.264
 30
0.000000
  70
    32
  0
VERTEX
  8
0
  5
15B89
 10
321.660
 20
203.251
 30
0.000000
  70
    32
  0
VERTEX
  8
0
  5
15B8A
 10
321.700
 20
203.239
 30
0.000000
  70
    32
  0
VERTEX
  8
0
  5
15B8B
 10
321.740
 20
203.226
 30
0.000000
  70
    32
  0
VERTEX
  8
0
  5
15B8C
 10
321.781
 20
203.215
 30
0.000000
  70
    32
  0
VERTEX
  8
0
  5
15B8D
 10
321.822
 20
203.203
 30
0.000000
  70
    32
  0
VERTEX
  8
0
  5
15B8E
 10
321.863
 20
203.191
 30
0.000000
  70
    32
  0
VERTEX
  8
0
  5
15B8F
 10
321.905
 20
203.180
 30
0.000000
  70
    32
  0
VERTEX
  8
0
  5
15B90
 10
321.947
 20
203.169
 30
0.000000
  70
    32
  0
VERTEX
  8
0
  5
15B91
 10
321.989
 20
203.158
 30
0.000000
  70
    32
  0
VERTEX
  8
0
  5
15B92
 10
322.032
 20
203.148
 30
0.000000
  70
    32
  0
VERTEX
  8
0
  5
15B93
 10
322.075
 20
203.137
 30
0.000000
  70
    32
  0
VERTEX
  8
0
  5
15B94
 10
322.118
 20
203.127
 30
0.000000
  70
    32
  0
VERTEX
  8
0
  5
15B95
 10
322.161
 20
203.117
 30
0.000000
  70
    32
  0
VERTEX
  8
0
  5
15B96
 10
322.205
 20
203.108
 30
0.000000
  70
    32
  0
VERTEX
  8
0
  5
15B97
 10
322.249
 20
203.098
 30
0.000000
  70
    32
  0
VERTEX
  8
0
  5
15B98
 10
322.293
 20
203.089
 30
0.000000
  70
    32
  0
VERTEX
  8
0
  5
15B99
 10
322.338
 20
203.080
 30
0.000000
  70
    32
  0
VERTEX
  8
0
  5
15B9A
 10
322.382
 20
203.071
 30
0.000000
  70
    32
  0
VERTEX
  8
0
  5
15B9B
 10
322.427
 20
203.063
 30
0.000000
  70
    32
  0
VERTEX
  8
0
  5
15B9C
 10
322.473
 20
203.054
 30
0.000000
  70
    32
  0
VERTEX
  8
0
  5
15B9D
 10
322.518
 20
203.046
 30
0.000000
  70
    32
  0
VERTEX
  8
0
  5
15B9E
 10
322.564
 20
203.039
 30
0.000000
  70
    32
  0
VERTEX
  8
0
  5
15B9F
 10
322.610
 20
203.031
 30
0.000000
  70
    32
  0
VERTEX
  8
0
  5
15BA0
 10
322.656
 20
203.024
 30
0.000000
  70
    32
  0
VERTEX
  8
0
  5
15BA1
 10
322.702
 20
203.017
 30
0.000000
  70
    32
  0
VERTEX
  8
0
  5
15BA2
 10
322.749
 20
203.010
 30
0.000000
  70
    32
  0
VERTEX
  8
0
  5
15BA3
 10
322.795
 20
203.004
 30
0.000000
  70
    32
  0
VERTEX
  8
0
  5
15BA4
 10
322.842
 20
202.997
 30
0.000000
  70
    32
  0
VERTEX
  8
0
  5
15BA5
 10
322.889
 20
202.991
 30
0.000000
  70
    32
  0
VERTEX
  8
0
  5
15BA6
 10
322.937
 20
202.985
 30
0.000000
  70
    32
  0
VERTEX
  8
0
  5
15BA7
 10
322.984
 20
202.980
 30
0.000000
  70
    32
  0
VERTEX
  8
0
  5
15BA8
 10
323.031
 20
202.975
 30
0.000000
  70
    32
  0
VERTEX
  8
0
  5
15BA9
 10
323.079
 20
202.970
 30
0.000000
  70
    32
  0
VERTEX
  8
0
  5
15BAA
 10
323.127
 20
202.965
 30
0.000000
  70
    32
  0
VERTEX
  8
0
  5
15BAB
 10
323.175
 20
202.960
 30
0.000000
  70
    32
  0
VERTEX
  8
0
  5
15BAC
 10
323.223
 20
202.956
 30
0.000000
  70
    32
  0
VERTEX
  8
0
  5
15BAD
 10
323.271
 20
202.952
 30
0.000000
  70
    32
  0
VERTEX
  8
0
  5
15BAE
 10
323.320
 20
202.948
 30
0.000000
  70
    32
  0
VERTEX
  8
0
  5
15BAF
 10
323.368
 20
202.945
 30
0.000000
  70
    32
  0
VERTEX
  8
0
  5
15BB0
 10
323.416
 20
202.941
 30
0.000000
  70
    32
  0
VERTEX
  8
0
  5
15BB1
 10
323.465
 20
202.938
 30
0.000000
  70
    32
  0
VERTEX
  8
0
  5
15BB2
 10
323.514
 20
202.936
 30
0.000000
  70
    32
  0
VERTEX
  8
0
  5
15BB3
 10
323.563
 20
202.933
 30
0.000000
  70
    32
  0
VERTEX
  8
0
  5
15BB4
 10
323.611
 20
202.931
 30
0.000000
  70
    32
  0
VERTEX
  8
0
  5
15BB5
 10
323.660
 20
202.929
 30
0.000000
  70
    32
  0
VERTEX
  8
0
  5
15BB6
 10
323.709
 20
202.927
 30
0.000000
  70
    32
  0
VERTEX
  8
0
  5
15BB7
 10
323.758
 20
202.926
 30
0.000000
  70
    32
  0
VERTEX
  8
0
  5
15BB8
 10
323.807
 20
202.925
 30
0.000000
  70
    32
  0
VERTEX
  8
0
  5
15BB9
 10
323.856
 20
202.924
 30
0.000000
  70
    32
  0
VERTEX
  8
0
  5
15BBA
 10
323.905
 20
202.923
 30
0.000000
  70
    32
  0
VERTEX
  8
0
  5
15BBB
 10
323.954
 20
202.923
 30
0.000000
  70
    32
  0
VERTEX
  8
0
  5
15BBC
 10
324.003
 20
202.923
 30
0.000000
  70
    32
  0
SEQEND
  8
0
  5
15BBD
  0
CIRCLE
  5
E5EF
  8
0
 10
330.00338971614838
 20
192.0000014752149
 30
0.0
 40
4.75
  0
ARC
  5
E600
  8
0
 10
321.00338971614838
 20
206.92265120602499
 30
0.0
 40
1.000000000000032
 50
119.9999999999991
 51
180.0
  0
ARC
  5
E603
  8
0
 10
379.00338971614838
 20
206.92265120602499
 30
0.0
 40
1.000000000000032
 50
0.0
 51
60.000000000000867
  0
LINE
  5
E604
  8
0
 10
320.5033895373345
 20
207.78867571055889
 30
0.0
 11
324.10146578380682
 21
209.86602679603669
 31
0.0
  0
LINE
  5
E606
  8
0
 10
375.90531364848948
 20
209.86602679603669
 30
0.0
 11
379.50338989496231
 21
207.78867571055889
 31
0.0
  0
LINE
  5
E609
  8
0
 10
324.6014659106732
 20
210.00000058114529
 30
0.0
 11
375.40531352162361
 21
210.00000058114529
 31
0.0
  0
ARC
  5
E60B
  8
0
 10
375.40531350479478
 20
209.0000014752145
 30
0.0
 40
1.000000000000032
 50
60.000000000000867
 51
90.0
  0
ARC
  5
E60D
  8
0
 10
324.60146592750152
 20
209.0000014752145
 30
0.0
 40
1.000000000000032
 50
90.0
 51
119.9999999999991
  0
LINE
  5
E63B
  8
0
 10
399.50338944792747
 20
170.0000014752145
 30
0.0
 11
400.00339046120638
 21
170.5000014989632
 31
0.0
  0
LINE
  5
E643
  8
0
 10
300.00338897109032
 20
170.5000014989632
 30
0.0
 11
300.50338998436928
 21
170.0000014752145
 31
0.0
  0
LINE
  5
E646
  8
0
 10
400.00339046120638
 20
179.00000108778431
 30
0.0
 11
400.00339046120638
 21
170.5000014989632
 31
0.0
  0
LINE
  5
E64A
  8
0
 10
300.00338897109032
 20
170.5000014989632
 30
0.0
 11
300.00338897109032
 21
179.00000108778431
 31
0.0
  0
ARC
  5
E64F
  8
0
 10
399.00338971614838
 20
179.0000014752145
 30
0.0
 40
1.0
 50
0.0
 51
90.0
  0
LINE
  5
E650
  8
0
 10
380.00338904559658
 20
180.00000125169711
 30
0.0
 11
399.00338843464851
 21
180.00000125169711
 31
0.0
  0
ARC
  5
E651
  8
0
 10
301.00338971614838
 20
179.0000014752145
 30
0.0
 40
1.0
 50
90.0
 51
180.0
  0
LINE
  5
E653
  8
0
 10
301.0033909976483
 20
180.00000125169711
 30
0.0
 11
320.00339021180253
 21
180.00000125169711
 31
0.0
  0
LINE
  5
E6A2
  8
0
 10
376.00338971614838
 20
202.9226493686437
 30
0.0
 11
355.08480882015982
 21
202.9226493686437
 31
0.0
  0
LINE
  5
E753
  8
0
 10
193.00339080393309
 20
20.0
 30
0.0
 11
181.00339163094759
 21
20.0
 31
0.0
  0
ARC
  5
E755
  8
0
 10
181.0033914148807
 20
27.00000074505806
 30
0.0
 40
7.0
 50
180.0
 51
270.0
  0
ARC
  5
E758
  8
0
 10
193.0033914148807
 20
27.00000074505806
 30
0.0
 40
7.0000000000000284
 50
270.0
 51
0.0
  0
ARC
  5
E75B
  8
0
 10
189.5033914148807
 20
29.700000745058048
 30
0.0
 40
4.0000000000000027
 50
270.0
 51
0.0
  0
ARC
  5
E75E
  8
0
 10
184.5033914148807
 20
29.700000745058048
 30
0.0
 40
4.0000000000000027
 50
180.0
 51
270.0
  0
LINE
  5
E761
  8
0
 10
184.50339127331969
 20
25.699999630451199
 30
0.0
 11
189.50339116156101
 21
25.699999630451199
 31
0.0
  0
LINE
  5
E763
  8
0
 10
200.00339195132261
 20
30.100506246089932
 30
0.0
 11
200.00339195132261
 21
26.999999284744259
 31
0.0
  0
LINE
  5
E764
  8
0
 10
193.5033918172121
 20
29.700000286102291
 30
0.0
 11
193.5033918172121
 21
30.299999266862869
 31
0.0
  0
LINE
  5
E767
  8
0
 10
180.5033915489912
 20
30.299999266862869
 30
0.0
 11
180.5033915489912
 21
29.700000286102291
 31
0.0
  0
ARC
  5
E769
  8
0
 10
207.00339141488081
 20
30.100505808446371
 30
0.0
 40
7.0000000000000044
 50
135.0000000000027
 51
180.0
  0
ARC
  5
E76B
  8
0
 10
184.5033914148807
 20
30.300000745058071
 30
0.0
 40
4.0000000000000027
 50
90.0
 51
180.0
  0
ARC
  5
E76C
  8
0
 10
189.5033914148807
 20
30.300000745058071
 30
0.0
 40
4.0000000000000027
 50
0.0
 51
90.0
  0
LINE
  5
E76E
  8
0
 10
189.50339116156101
 20
34.299999922513962
 30
0.0
 11
184.50339127331969
 21
34.299999922513962
 31
0.0
  0
LINE
  5
E770
  8
0
 10
204.9531386047602
 20
37.949748784303658
 30
0.0
 11
202.0536445826292
 21
35.050254762172699
 31
0.0
  0
ARC
  5
E772
  8
0
 10
209.9028863514923
 20
33.00000074505806
 30
0.0
 40
6.9999999999999956
 50
90.0
 51
135.0000000000027
  0
LINE
  5
E774
  8
0
 10
233.00339177250859
 20
40.000001415610313
 30
0.0
 11
209.90288525819781
 21
40.000001415610313
 31
0.0
  0
ARC
  5
E775
  8
0
 10
233.00339141488081
 20
44.00000074505806
 30
0.0
 40
4.0000000000000027
 50
270.0
 51
0.0
  0
LINE
  5
E779
  8
0
 10
237.00339242815971
 20
60.00000096857547
 30
0.0
 11
174.0033914148807
 21
60.00000096857547
 31
0.0
  0
LINE
  5
E77C
  8
0
 10
237.00339242815971
 20
96.000001281499863
 30
0.0
 11
237.00339242815971
 21
44.00000074505806
 31
0.0
  0
LINE
  5
E77F
  8
0
 10
237.00339242815971
 20
80.000000521540642
 30
0.0
 11
174.0033914148807
 21
80.000000521540642
 31
0.0
  0
LINE
  5
E781
  8
0
 10
174.0033914148807
 20
27.00000074505806
 30
0.0
 11
174.0033914148807
 21
113.0000022053718
 31
0.0
  0
ARC
  5
E795
  8
0
 10
233.00339141488081
 20
96.000000745058074
 30
0.0
 40
4.0
 50
0.0
 51
90.0
  0
ARC
  5
E797
  8
0
 10
209.9028863514923
 20
107.000000745058
 30
0.0
 40
7.0
 50
224.9999999999973
 51
270.0
  0
LINE
  5
E79A
  8
0
 10
209.90288525819781
 20
100.00000007450581
 30
0.0
 11
233.00339177250859
 21
100.00000007450581
 31
0.0
  0
LINE
  5
E79B
  8
0
 10
202.0536445826292
 20
104.94974672794341
 30
0.0
 11
204.9531386047602
 21
102.0502527058124
 31
0.0
  0
ARC
  5
E79D
  8
0
 10
207.00339141488081
 20
109.89949568166971
 30
0.0
 40
7.0000000000000107
 50
180.0
 51
224.9999999999973
  0
ARC
  5
E79F
  8
0
 10
189.5033914148807
 20
109.70000074505801
 30
0.0
 40
4.0000000000000071
 50
270.0
 51
0.0
  0
ARC
  5
E7A3
  8
0
 10
184.5033914148807
 20
109.70000074505801
 30
0.0
 40
4.0000000000000071
 50
180.0
 51
270.0
  0
LINE
  5
E7A5
  8
0
 10
184.50339127331969
 20
105.7000015676021
 30
0.0
 11
189.50339116156101
 21
105.7000015676021
 31
0.0
  0
LINE
  5
E7A7
  8
0
 10
180.5033915489912
 20
110.3000012040138
 30
0.0
 11
180.5033915489912
 21
109.70000222325319
 31
0.0
  0
LINE
  5
E7A8
  8
0
 10
193.5033918172121
 20
109.70000222325319
 30
0.0
 11
193.5033918172121
 21
110.3000012040138
 31
0.0
  0
LINE
  5
E7AA
  8
0
 10
200.00339195132261
 20
113.0000022053718
 30
0.0
 11
200.00339195132261
 21
109.8994952440262
 31
0.0
  0
ARC
  5
E7AC
  8
0
 10
189.5033914148807
 20
110.3000007450581
 30
0.0
 40
4.0000000000000071
 50
0.0
 51
90.0
  0
ARC
  5
E7AF
  8
0
 10
184.5033914148807
 20
110.3000007450581
 30
0.0
 40
4.0000000000000071
 50
90.0
 51
180.0
  0
ARC
  5
E7B0
  8
0
 10
181.0033914148807
 20
113.000000745058
 30
0.0
 40
7.0
 50
90.0
 51
180.0
  0
ARC
  5
E7B2
  8
0
 10
193.0033914148807
 20
113.000000745058
 30
0.0
 40
7.0000000000000284
 50
0.0
 51
90.0
  0
LINE
  5
E7B4
  8
0
 10
189.50339116156101
 20
114.3000018596649
 30
0.0
 11
184.50339127331969
 21
114.3000018596649
 31
0.0
  0
LINE
  5
E7B5
  8
0
 10
181.00339163094759
 20
120.00000149011611
 30
0.0
 11
193.00339080393309
 21
120.00000149011611
 31
0.0
  0
LINE
  5
13478
  8
0
 10
331.50339034722077
 20
192.8660257281864
 30
0.0
 11
330.00339248312639
 21
193.73205176333329
 31
0.0
  0
LINE
  5
13479
  8
0
 10
330.00339248312639
 20
193.73205176333329
 30
0.0
 11
328.50339145277758
 21
192.8660292653509
 31
0.0
  0
LINE
  5
1347A
  8
0
 10
328.50339145277758
 20
192.8660292653509
 30
0.0
 11
328.50338823567751
 21
191.13397887027071
 31
0.0
  0
LINE
  5
1347B
  8
0
 10
328.50338823567751
 20
191.13397887027071
 30
0.0
 11
330.00338791087688
 21
190.267950922327
 31
0.0
  0
LINE
  5
1347C
  8
0
 10
330.00338791087688
 20
190.267950922327
 30
0.0
 11
331.5033889412266
 21
191.1339734203093
 31
0.0
  0
LINE
  5
1347D
  8
0
 10
331.5033889412266
 20
191.1339734203093
 30
0.0
 11
331.50339034722077
 21
192.8660257281864
 31
0.0
  0
LINE
  5
13A47
  8
0
 10
227.36941681866529
 20
209.06217930170601
 30
0.0
 11
236.50339141488081
 21
203.7886766098099
 31
0.0
  0
LINE
  5
1444F
  8
1
 10
67.460015583783374
 20
215.00000058114529
 30
0.0
 11
67.460015583783374
 21
165.50000149896371
 31
0.0
  0
LINE
  5
14454
  8
1
 10
163.46001649275419
 20
310.00000058114517
 30
0.0
 11
255.00338897109029
 21
310.0000005811454
 31
0.0
  0
LINE
  5
14457
  8
1
 10
196.5033918172121
 20
350.00000154972071
 30
0.0
 11
170.0033913673833
 21
350.00000154972071
 31
0.0
  0
LINE
  5
1445A
  8
1
 10
185.00339121744031
 20
357.3000016957522
 30
0.0
 11
185.00339121744031
 21
342.70000140368938
 31
0.0
  0
LINE
  5
1445B
  8
1
 10
189.00339121744031
 20
357.3000016957522
 30
0.0
 11
189.00339121744031
 21
342.70000140368938
 31
0.0
  0
LINE
  5
14461
  8
1
 10
196.5033918172121
 20
269.99999961256981
 30
0.0
 11
170.0033913673833
 21
269.99999961256981
 31
0.0
  0
LINE
  5
14462
  8
1
 10
185.00339121744031
 20
277.29999975860119
 30
0.0
 11
185.00339121744031
 21
262.69999946653837
 31
0.0
  0
LINE
  5
14463
  8
1
 10
189.00339121744031
 20
277.29999975860119
 30
0.0
 11
189.00339121744031
 21
262.69999946653837
 31
0.0
  0
LINE
  5
14467
  8
1
 10
163.46001649275419
 20
70.000000745058045
 30
0.0
 11
255.00338897109029
 21
70.000000745058045
 31
0.0
  0
LINE
  5
14468
  8
1
 10
196.5033918172121
 20
110.00000171363349
 30
0.0
 11
170.0033913673833
 21
110.00000171363349
 31
0.0
  0
LINE
  5
14469
  8
1
 10
185.00339121744031
 20
117.3000018596649
 30
0.0
 11
185.00339121744031
 21
102.7000015676021
 31
0.0
  0
LINE
  5
1446A
  8
1
 10
189.00339121744031
 20
117.3000018596649
 30
0.0
 11
189.00339121744031
 21
102.7000015676021
 31
0.0
  0
LINE
  5
1446B
  8
1
 10
196.5033918172121
 20
29.999999776482579
 30
0.0
 11
170.0033913673833
 21
29.999999776482579
 31
0.0
  0
LINE
  5
1446C
  8
1
 10
185.00339121744031
 20
37.299999922513962
 30
0.0
 11
185.00339121744031
 21
22.699999630451199
 31
0.0
  0
LINE
  5
1446D
  8
1
 10
189.00339121744031
 20
37.299999922513962
 30
0.0
 11
189.00339121744031
 21
22.699999630451199
 31
0.0
  0
LINE
  5
14488
  8
1
 10
27.460014615207911
 20
183.00000125169751
 30
0.0
 11
27.460014615207911
 21
167.0000014752149
 31
0.0
  0
LINE
  5
1448A
  8
1
 10
107.46001655235879
 20
183.00000125169751
 30
0.0
 11
107.46001655235879
 21
167.0000014752149
 31
0.0
  0
CIRCLE
  5
14497
  8
0
 10
47.460015583783381
 20
192.0000014752149
 30
0.0
 40
2.0669999999999988
  0
CIRCLE
  5
14498
  8
3
 10
47.460015583783381
 20
192.0000014752149
 30
0.0
 40
2.5
  0
LINE
  5
1449A
  8
1
 10
47.460015583783381
 20
197.5000014752149
 30
0.0
 11
47.460015583783381
 21
186.5000014752149
 31
0.0
  0
LINE
  5
1449B
  8
1
 10
41.960015583783381
 20
192.0000014752149
 30
0.0
 11
52.960015583783388
 21
192.0000014752149
 31
0.0
  0
CIRCLE
  5
1449D
  8
0
 10
87.460015583783374
 20
192.0000014752149
 30
0.0
 40
2.0669999999999988
  0
CIRCLE
  5
1449E
  8
3
 10
87.460015583783374
 20
192.0000014752149
 30
0.0
 40
2.5
  0
LINE
  5
1449F
  8
1
 10
87.460015583783374
 20
197.5000014752149
 30
0.0
 11
87.460015583783374
 21
186.5000014752149
 31
0.0
  0
LINE
  5
144A0
  8
1
 10
81.960015583783388
 20
192.0000014752149
 30
0.0
 11
92.960015583783388
 21
192.0000014752149
 31
0.0
  0
LINE
  5
144A8
  8
1
 10
350.00338971614838
 20
215.00000058114529
 30
0.0
 11
350.00338971614838
 21
165.50000149896371
 31
0.0
  0
LINE
  5
144A9
  8
1
 10
310.0033887475729
 20
183.00000125169751
 30
0.0
 11
310.0033887475729
 21
167.0000014752149
 31
0.0
  0
LINE
  5
144AA
  8
1
 10
390.00339068472391
 20
183.00000125169751
 30
0.0
 11
390.00339068472391
 21
167.0000014752149
 31
0.0
  0
LINE
  5
144B2
  8
1
 10
185.00339121744031
 20
167.0000014752149
 30
0.0
 11
185.00339121744031
 21
183.00000140677619
 31
0.0
  0
LINE
  5
144B3
  8
1
 10
189.00339121744031
 20
167.0000014752149
 30
0.0
 11
189.00339121744031
 21
183.0000013707558
 31
0.0
  0
LINE
  5
144C0
  8
1
 10
163.46001649275419
 20
192.0000013560057
 30
0.0
 11
255.0033889710904
 21
192.0000013560057
 31
0.0
  0
LINE
  5
14F6C
  8
0
 10
248.25338914990431
 20
178.7500015124678
 30
0.0
 11
250.00338897109029
 21
180.5000013336539
 31
0.0
  0
LINE
  5
14F6D
  8
0
 10
250.00338897109029
 20
203.50000230968001
 30
0.0
 11
248.25338914990431
 21
205.25000213086599
 31
0.0
  0
LINE
  5
14F6E
  8
0
 10
248.25338914990431
 20
205.25000213086599
 30
0.0
 11
237.00339242815971
 21
205.25000213086599
 31
0.0
  0
LINE
  5
14F6F
  8
0
 10
237.00339242815971
 20
178.7500015124678
 30
0.0
 11
248.25338914990431
 21
178.7500015124678
 31
0.0
  0
LINE
  5
14F72
  8
0
 10
200.4600156843662
 20
202.50000028312201
 30
0.0
 11
199.96001653373239
 21
203.000001296401
 31
0.0
  0
LINE
  5
14F73
  8
0
 10
169.46001665666699
 20
203.000001296401
 30
0.0
 11
169.46001665666699
 21
181.00000141561031
 31
0.0
  0
LINE
  5
14F74
  8
0
 10
168.46001649275419
 20
203.000001296401
 30
0.0
 11
199.96001653373239
 21
203.000001296401
 31
0.0
  0
LINE
  5
14F75
  8
0
 10
168.46001649275411
 20
181.00000141561031
 30
0.0
 11
199.96001653373239
 21
181.00000141561031
 31
0.0
  0
LINE
  5
14F76
  8
0
 10
199.96001653373239
 20
181.00000141561031
 30
0.0
 11
200.4600156843662
 21
181.5000014975667
 31
0.0
  0
LINE
  5
14F77
  8
0
 10
200.4600156843662
 20
202.50000028312201
 30
0.0
 11
200.4600156843662
 21
181.5000014975667
 31
0.0
  0
LINE
  5
14F78
  8
0
 10
168.46001649275419
 20
203.000001296401
 30
0.0
 11
167.46001632884139
 21
202.0000029951334
 31
0.0
  0
LINE
  5
14F7A
  8
0
 10
167.46001632884139
 20
182.00000157952309
 30
0.0
 11
168.46001649275419
 21
181.00000141561031
 31
0.0
  0
LINE
  5
14F7B
  8
0
 10
167.46001632884139
 20
182.00000157952309
 30
0.0
 11
167.46001632884139
 21
202.0000029951334
 31
0.0
  0
LINE
  5
14F7D
  8
0
 10
248.25338914990431
 20
197.61805205047131
 30
0.0
 11
237.00339242815971
 21
197.61805205047131
 31
0.0
  0
LINE
  5
14F7E
  8
0
 10
237.00339242815971
 20
199.58328051865101
 30
0.0
 11
248.25338914990431
 21
199.58328051865101
 31
0.0
  0
LINE
  5
14F7F
  8
0
 10
248.25338914990431
 20
199.58328051865101
 30
0.0
 11
248.25338914990431
 21
197.61805205047131
 31
0.0
  0
LINE
  5
14F80
  8
0
 10
237.00339242815971
 20
186.38195066154
 30
0.0
 11
248.25338914990431
 21
186.38195066154
 31
0.0
  0
ARC
  5
14F81
  8
0
 10
235.96925366045889
 20
192.0000013560057
 30
0.0
 40
13.50786727535607
 50
335.42339317903401
 51
24.57660682096709
  0
LINE
  5
14F82
  8
0
 10
248.25338914990431
 20
184.4167221933603
 30
0.0
 11
237.00339242815971
 21
184.4167221933603
 31
0.0
  0
LINE
  5
14F83
  8
0
 10
248.25338914990431
 20
186.38195066154
 30
0.0
 11
248.25338914990431
 21
184.4167221933603
 31
0.0
  0
LINE
  5
14F84
  8
0
 10
250.00338897109029
 20
203.50000230968001
 30
0.0
 11
250.00338897109029
 21
180.5000013336539
 31
0.0
  0
ARC
  5
14F85
  8
0
 10
245.54354902788691
 20
202.3923058658838
 30
0.0
 40
3.9030573770175869
 50
313.97038927687652
 51
46.029610723123447
  0
LINE
  5
14F86
  8
0
 10
248.25338914990431
 20
205.25000213086599
 30
0.0
 11
248.25338914990431
 21
205.20133121311659
 31
0.0
  0
LINE
  5
14F87
  8
0
 10
248.25338914990431
 20
178.79867056757209
 30
0.0
 11
248.25338914990431
 21
178.7500015124678
 31
0.0
  0
ARC
  5
14F88
  8
0
 10
245.55515469946519
 20
181.60769638046619
 30
0.0
 40
3.895009007312014
 50
313.84751745218477
 51
46.152482547823858
  0
LINE
  5
14F89
  8
0
 10
237.00339242815971
 20
178.79867056757209
 30
0.0
 11
248.25338914990431
 21
178.79867056757209
 31
0.0
  0
LINE
  5
14F8A
  8
0
 10
248.25338914990431
 20
205.20133121311659
 30
0.0
 11
237.00339242815971
 21
205.20133121311659
 31
0.0
  0
LINE
  5
14FC1
  8
0
 10
197.50339061021799
 20
181.00000141561031
 30
0.0
 11
198.00339162349701
 21
180.5000013336539
 31
0.0
  0
LINE
  5
14FC2
  8
0
 10
198.00339162349701
 20
180.5000013336539
 30
0.0
 11
205.0033909082413
 21
180.5000013336539
 31
0.0
  0
ARC
  5
14FC3
  8
0
 10
205.00339141488081
 20
181.00000147521499
 30
0.0
 40
0.5
 50
270.0
 51
0.0
  0
LINE
  5
14FC4
  8
0
 10
205.5033919215202
 20
181.00000141561031
 30
0.0
 11
205.5033919215202
 21
203.000001296401
 31
0.0
  0
ARC
  5
14FC5
  8
0
 10
205.00339141488081
 20
203.00000147521499
 30
0.0
 40
0.5
 50
0.0
 51
90.0
  0
LINE
  5
14FC6
  8
0
 10
205.0033909082413
 20
203.50000230968001
 30
0.0
 11
198.00339162349701
 21
203.50000230968001
 31
0.0
  0
LINE
  5
14FC7
  8
0
 10
198.00339162349701
 20
203.50000230968001
 30
0.0
 11
197.50339061021799
 21
203.000001296401
 31
0.0
  0
LINE
  5
14FFF
  8
0
 10
203.0033905804157
 20
202.0000029951334
 30
0.0
 11
200.4600156843662
 21
202.0000029951334
 31
0.0
  0
LINE
  5
15002
  8
0
 10
200.4600156843662
 20
182.00000157952309
 30
0.0
 11
203.0033905804157
 21
182.00000157952309
 31
0.0
  0
ARC
  5
15004
  8
0
 10
203.00339141488081
 20
183.00000147521499
 30
0.0
 40
1.0
 50
270.0
 51
0.0
  0
ARC
  5
15005
  8
0
 10
203.00339141488081
 20
201.00000147521499
 30
0.0
 40
1.0
 50
0.0
 51
90.0
  0
LINE
  5
15007
  8
0
 10
204.0033907443285
 20
183.0000017434358
 30
0.0
 11
204.0033907443285
 21
201.00000096857551
 31
0.0
  0
LINE
  5
152F6
  8
0
 10
355.00338960438972
 20
189.11324968934011
 30
0.0
 11
355.00338960438972
 21
194.88675302267029
 31
0.0
  0
LINE
  5
152F9
  8
0
 10
345.00338982790709
 20
194.88675302267029
 30
0.0
 11
345.00338982790709
 21
189.11324968934011
 31
0.0
  0
CIRCLE
  5
152FB
  8
0
 10
350.00338971614838
 20
192.0000014752145
 30
0.0
 40
6.250000000000056
  0
CIRCLE
  5
152FC
  8
0
 10
350.00338971614838
 20
192.0000014752145
 30
0.0
 40
11.50000000000005
  0
ARC
  5
152FD
  8
0
 10
350.00338971614838
 20
192.0000014752145
 30
0.0
 40
13.250000000000011
 50
205.08762784151421
 51
214.9123721584875
  0
LINE
  5
152FE
  8
0
 10
338.0033896118403
 20
197.61805205047079
 30
0.0
 11
338.0033896118403
 21
186.38195066153961
 31
0.0
  0
ARC
  5
152FF
  8
0
 10
350.00338971614838
 20
192.0000014752145
 30
0.0
 40
13.250000000000011
 50
145.08762784151341
 51
154.91237215848591
  0
ARC
  5
15301
  8
0
 10
350.00338971614838
 20
192.0000014752145
 30
0.0
 40
13.249999999999989
 50
85.087627841514617
 51
94.912372158485383
  0
ARC
  5
15303
  8
0
 10
350.00338971614838
 20
192.0000014752145
 30
0.0
 40
13.250000000000011
 50
25.087627841513971
 51
34.912372158486612
  0
LINE
  5
15304
  8
0
 10
362.0033898204565
 20
186.38195066153961
 30
0.0
 11
362.0033898204565
 21
197.61805205047079
 31
0.0
  0
ARC
  5
15305
  8
0
 10
350.00338971614838
 20
192.0000014752145
 30
0.0
 40
13.250000000000011
 50
325.08762784151361
 51
334.91237215848957
  0
ARC
  5
15307
  8
0
 10
350.00338971614838
 20
192.0000014752145
 30
0.0
 40
13.249999999999989
 50
265.08762784151457
 51
274.91237215849202
  0
LINE
  5
15390
  8
0
 10
180.8270820230245
 20
348.1236901730299
 30
0.0
 11
181.00339163094759
 21
348.30000071227551
 31
0.0
  0
LINE
  5
15391
  8
0
 10
181.00339163094759
 20
351.70000238716602
 30
0.0
 11
180.8270820230245
 21
351.87630920112127
 31
0.0
  0
LINE
  5
15392
  8
0
 10
174.0033914148807
 20
352.50000102818012
 30
0.0
 11
173.23433154262599
 21
352.50000102818012
 31
0.0
  0
LINE
  5
15393
  8
0
 10
173.23433154262599
 20
347.50000207126141
 30
0.0
 11
174.0033914148807
 21
347.50000207126141
 31
0.0
  0
LINE
  5
15394
  8
0
 10
173.23433154262599
 20
352.50000102818012
 30
0.0
 11
173.0033913673833
 21
352.10000170767307
 31
0.0
  0
LINE
  5
15395
  8
0
 10
173.0033913673833
 20
347.9000013917684
 30
0.0
 11
173.23433154262599
 21
347.50000207126141
 31
0.0
  0
LINE
  5
15396
  8
0
 10
180.8270820230245
 20
268.12369196116919
 30
0.0
 11
181.00339163094759
 21
268.29999877512449
 31
0.0
  0
LINE
  5
15397
  8
0
 10
181.00339163094759
 20
271.70000045001512
 30
0.0
 11
180.8270820230245
 21
271.87631098926067
 31
0.0
  0
LINE
  5
15398
  8
0
 10
173.23433154262599
 20
272.49999909102911
 30
0.0
 11
173.0033913673833
 21
272.09999977052212
 31
0.0
  0
LINE
  5
15399
  8
0
 10
173.0033913673833
 20
267.8999994546175
 30
0.0
 11
173.23433154262599
 21
267.50000013411039
 31
0.0
  0
LINE
  5
1539A
  8
0
 10
174.0033914148807
 20
272.49999909102911
 30
0.0
 11
173.23433154262599
 21
272.49999909102911
 31
0.0
  0
LINE
  5
1539B
  8
0
 10
173.23433154262599
 20
267.50000013411039
 30
0.0
 11
174.0033914148807
 21
267.50000013411039
 31
0.0
  0
LINE
  5
1539C
  8
0
 10
249.50338795781141
 20
298.00000047683722
 30
0.0
 11
250.00338897109029
 21
298.5000005587936
 31
0.0
  0
LINE
  5
1539D
  8
0
 10
250.00338897109029
 20
321.50000060349709
 30
0.0
 11
249.50338795781141
 21
322.00000068545347
 31
0.0
  0
LINE
  5
1539F
  8
0
 10
181.00339163094759
 20
351.70000238716602
 30
0.0
 11
181.00339163094759
 21
348.30000071227551
 31
0.0
  0
LINE
  5
153A0
  8
0
 10
173.23433154262599
 20
352.50000102818012
 30
0.0
 11
173.23433154262599
 21
347.50000207126141
 31
0.0
  0
LINE
  5
153A1
  8
0
 10
173.0033913673833
 20
347.9000013917684
 30
0.0
 11
173.0033913673833
 21
352.10000170767307
 31
0.0
  0
LINE
  5
153A3
  8
0
 10
181.00339163094759
 20
271.70000045001512
 30
0.0
 11
181.00339163094759
 21
268.29999877512461
 31
0.0
  0
LINE
  5
153A4
  8
0
 10
173.23433154262599
 20
272.49999909102911
 30
0.0
 11
173.23433154262599
 21
267.50000013411039
 31
0.0
  0
LINE
  5
153A5
  8
0
 10
173.0033913673833
 20
267.8999994546175
 30
0.0
 11
173.0033913673833
 21
272.09999977052212
 31
0.0
  0
LINE
  5
15401
  8
0
 10
168.46001649275419
 20
338.9999997466802
 30
0.0
 11
168.46001649275419
 21
281.0000014156102
 31
0.0
  0
LINE
  5
15404
  8
0
 10
168.46001649275419
 20
319.0000001937151
 30
0.0
 11
167.46001632884139
 21
320.00000035762793
 31
0.0
  0
LINE
  5
15405
  8
0
 10
167.46001632884139
 20
320.00000035762793
 30
0.0
 11
167.46001632884139
 21
338.00000144541258
 31
0.0
  0
LINE
  5
15406
  8
0
 10
167.46001632884139
 20
338.00000144541258
 30
0.0
 11
169.46001665666699
 21
339.99999991059298
 31
0.0
  0
LINE
  5
15407
  8
0
 10
169.46001851931561
 20
280.00000125169748
 30
0.0
 11
167.46001632884139
 21
281.99999971687788
 31
0.0
  0
LINE
  5
15408
  8
0
 10
167.46001632884139
 20
281.99999971687788
 30
0.0
 11
167.46001632884139
 21
300.0000008046627
 31
0.0
  0
LINE
  5
15409
  8
0
 10
167.46001632884139
 20
300.0000008046627
 30
0.0
 11
168.46001649275419
 21
301.00000096857548
 31
0.0
  0
LINE
  5
1540A
  8
0
 10
250.00338897109029
 20
321.50000060349709
 30
0.0
 11
250.00338897109029
 21
298.5000005587936
 31
0.0
  0
LINE
  5
1540C
  8
0
 10
248.25338914990431
 20
299.13462518155569
 30
0.0
 11
248.25338914990431
 21
298.00000047683722
 31
0.0
  0
ARC
  5
1540D
  8
0
 10
239.15572622190709
 20
304.0000004125759
 30
0.0
 40
10.316944648978151
 50
331.86239753609959
 51
28.137602463900361
  0
LINE
  5
1540E
  8
0
 10
248.25338914990431
 20
311.13462551869452
 30
0.0
 11
248.25338914990431
 21
308.865375643596
 31
0.0
  0
ARC
  5
1540F
  8
0
 10
239.16701357396551
 20
316.00000074971467
 30
0.0
 40
10.306992638284051
 50
331.83280732957382
 51
28.16719267042625
  0
LINE
  5
15410
  8
0
 10
248.25338914990431
 20
322.00000068545347
 30
0.0
 11
248.25338914990431
 21
320.86537598073483
 31
0.0
  0
LINE
  5
15412
  8
0
 10
237.00339242815971
 20
311.13462551869452
 30
0.0
 11
248.25338914990431
 21
311.13462551869452
 31
0.0
  0
LINE
  5
15414
  8
0
 10
248.25338914990431
 20
320.86537598073483
 30
0.0
 11
237.00339242815971
 21
320.86537598073483
 31
0.0
  0
LINE
  5
15415
  8
0
 10
237.00339242815971
 20
299.13462518155569
 30
0.0
 11
248.25338914990431
 21
299.13462518155569
 31
0.0
  0
LINE
  5
15417
  8
0
 10
248.25338914990431
 20
308.865375643596
 30
0.0
 11
237.00339242815971
 21
308.865375643596
 31
0.0
  0
LINE
  5
15419
  8
0
 10
237.00339242815971
 20
322.00000068545347
 30
0.0
 11
249.5033879578113
 21
322.00000068545347
 31
0.0
  0
LINE
  5
1541A
  8
0
 10
249.50338795781141
 20
298.0000004768371
 30
0.0
 11
237.00339242815971
 21
298.00000047683722
 31
0.0
  0
LINE
  5
15523
  8
0
 10
180.8270820230245
 20
28.123692855238911
 30
0.0
 11
181.00339163094759
 21
28.299999669194221
 31
0.0
  0
LINE
  5
15524
  8
0
 10
181.00339163094759
 20
31.70000134408474
 30
0.0
 11
180.8270820230245
 21
31.876311883330349
 31
0.0
  0
LINE
  5
15525
  8
0
 10
174.0033914148807
 20
32.499999985098839
 30
0.0
 11
173.23433154262599
 21
32.499999985098839
 31
0.0
  0
LINE
  5
15526
  8
0
 10
173.23433154262599
 20
27.500001028180119
 30
0.0
 11
174.0033914148807
 21
27.500001028180119
 31
0.0
  0
LINE
  5
15527
  8
0
 10
173.23433154262599
 20
32.499999985098839
 30
0.0
 11
173.0033913673833
 21
32.100000664591789
 31
0.0
  0
LINE
  5
15528
  8
0
 10
173.0033913673833
 20
27.900000348687168
 30
0.0
 11
173.23433154262599
 21
27.500001028180119
 31
0.0
  0
LINE
  5
15529
  8
0
 10
180.8270820230245
 20
108.1236910670996
 30
0.0
 11
181.00339163094759
 21
108.30000160634521
 31
0.0
  0
LINE
  5
1552A
  8
0
 10
181.00339163094759
 20
111.70000328123569
 30
0.0
 11
180.8270820230245
 21
111.876310095191
 31
0.0
  0
LINE
  5
1552B
  8
0
 10
174.0033914148807
 20
112.50000192224979
 30
0.0
 11
173.23433154262599
 21
112.50000192224979
 31
0.0
  0
LINE
  5
1552C
  8
0
 10
173.23433154262599
 20
107.50000296533111
 30
0.0
 11
174.0033914148807
 21
107.50000296533111
 31
0.0
  0
LINE
  5
1552D
  8
0
 10
173.23433154262599
 20
112.50000192224979
 30
0.0
 11
173.0033913673833
 21
112.1000026017427
 31
0.0
  0
LINE
  5
1552E
  8
0
 10
173.0033913673833
 20
107.9000022858381
 30
0.0
 11
173.23433154262599
 21
107.50000296533111
 31
0.0
  0
LINE
  5
1552F
  8
0
 10
249.50338795781141
 20
58.000000908970783
 30
0.0
 11
250.00338897109029
 21
58.500000990927163
 31
0.0
  0
LINE
  5
15530
  8
0
 10
250.00338897109029
 20
81.500001035630646
 30
0.0
 11
249.50338795781141
 21
82.000001117587018
 31
0.0
  0
LINE
  5
15531
  8
0
 10
181.00339163094759
 20
31.70000134408474
 30
0.0
 11
181.00339163094759
 21
28.299999669194221
 31
0.0
  0
LINE
  5
15533
  8
0
 10
173.23433154262599
 20
32.499999985098839
 30
0.0
 11
173.23433154262599
 21
27.500001028180119
 31
0.0
  0
LINE
  5
15534
  8
0
 10
173.0033913673833
 20
27.900000348687168
 30
0.0
 11
173.0033913673833
 21
32.100000664591789
 31
0.0
  0
LINE
  5
15536
  8
0
 10
181.00339163094759
 20
111.70000328123569
 30
0.0
 11
181.00339163094759
 21
108.30000160634521
 31
0.0
  0
LINE
  5
15538
  8
0
 10
173.23433154262599
 20
112.50000192224979
 30
0.0
 11
173.23433154262599
 21
107.50000296533111
 31
0.0
  0
LINE
  5
15539
  8
0
 10
173.0033913673833
 20
107.9000022858382
 30
0.0
 11
173.0033913673833
 21
112.1000026017427
 31
0.0
  0
LINE
  5
1553B
  8
0
 10
169.46001665666699
 20
100.0000008046626
 30
0.0
 11
174.0033914148807
 21
100.0000008046626
 31
0.0
  0
LINE
  5
1553C
  8
0
 10
174.0033914148807
 20
40.000002145767183
 30
0.0
 11
169.46001665666699
 21
40.000002145767183
 31
0.0
  0
LINE
  5
15540
  8
0
 10
168.46001649275419
 20
99.000000640749903
 30
0.0
 11
168.46001649275419
 21
41.000001378357382
 31
0.0
  0
LINE
  5
15542
  8
0
 10
167.46001632884139
 20
42.000000610947573
 30
0.0
 11
167.46001632884139
 21
60.000001698732348
 31
0.0
  0
LINE
  5
15543
  8
0
 10
167.46001632884139
 20
60.000001698732348
 30
0.0
 11
168.46001649275419
 21
61.000001862645121
 31
0.0
  0
LINE
  5
15544
  8
0
 10
169.46001665666699
 20
40.000002145767183
 30
0.0
 11
167.46001632884139
 21
42.000000610947573
 31
0.0
  0
LINE
  5
15545
  8
0
 10
167.46001632884139
 20
80.000001251697512
 30
0.0
 11
167.46001632884139
 21
98.000002339482279
 31
0.0
  0
LINE
  5
15546
  8
0
 10
167.46001632884139
 20
98.000002339482279
 30
0.0
 11
169.46001665666699
 21
100.0000008046626
 31
0.0
  0
LINE
  5
15547
  8
0
 10
168.46001649275419
 20
79.000001087784739
 30
0.0
 11
167.46001632884139
 21
80.000001251697512
 31
0.0
  0
LINE
  5
15548
  8
0
 10
250.00338897109029
 20
81.500001035630646
 30
0.0
 11
250.00338897109029
 21
58.500000990927163
 31
0.0
  0
LINE
  5
15549
  8
0
 10
248.25338914990431
 20
82.000001117587018
 30
0.0
 11
248.25338914990431
 21
80.865376412868471
 31
0.0
  0
LINE
  5
1554C
  8
0
 10
248.25338914990431
 20
59.134625613689387
 30
0.0
 11
248.25338914990431
 21
58.000000908970783
 31
0.0
  0
ARC
  5
1554D
  8
0
 10
239.1347735475303
 20
64.000000844709547
 30
0.0
 40
10.335425808474611
 50
331.917174635045
 51
28.082825364954999
  0
LINE
  5
1554E
  8
0
 10
248.25338914990431
 20
71.134625950828166
 30
0.0
 11
248.25338914990431
 21
68.865376075729699
 31
0.0
  0
ARC
  5
1554F
  8
0
 10
239.16553871335009
 20
76.000001181848319
 30
0.0
 40
10.30829286040133
 50
331.83667697556859
 51
28.163323024431438
  0
LINE
  5
15550
  8
0
 10
237.00339242815971
 20
71.134625950828166
 30
0.0
 11
248.25338914990431
 21
71.134625950828166
 31
0.0
  0
LINE
  5
15551
  8
0
 10
248.25338914990431
 20
80.865376412868471
 30
0.0
 11
237.00339242815971
 21
80.865376412868471
 31
0.0
  0
LINE
  5
15552
  8
0
 10
237.00339242815971
 20
59.134625613689387
 30
0.0
 11
248.25338914990431
 21
59.134625613689387
 31
0.0
  0
LINE
  5
15553
  8
0
 10
248.25338914990431
 20
68.865376075729699
 30
0.0
 11
237.00339242815971
 21
68.865376075729699
 31
0.0
  0
LINE
  5
15554
  8
0
 10
249.5033879578113
 20
58.000000908970783
 30
0.0
 11
237.00339242815971
 21
58.000000908970783
 31
0.0
  0
LINE
  5
15555
  8
0
 10
237.00339242815971
 20
82.000001117587018
 30
0.0
 11
249.50338795781141
 21
82.000001117587047
 31
0.0
  0
LINE
  5
156AF
  8
0
 10
26.210015584800828
 20
174.278313639315
 30
0.0
 11
26.210015584800828
 21
175.72168931228879
 31
0.0
  0
LINE
  5
156B0
  8
0
 10
26.210015584801742
 20
175.72168931111489
 30
0.0
 11
27.460015584800828
 21
176.44337714760189
 31
0.0
  0
LINE
  5
156B1
  8
0
 10
27.4600155837831
 20
176.44337714701371
 30
0.0
 11
28.7100155837831
 21
175.7216893105269
 31
0.0
  0
LINE
  5
156B2
  8
0
 10
28.710015582766289
 20
175.72168931111401
 30
0.0
 11
28.710015582766289
 21
174.27831363814011
 31
0.0
  0
LINE
  5
156B3
  8
0
 10
28.710015582766289
 20
174.278313639315
 30
0.0
 11
27.460015582766289
 21
173.55662580282799
 31
0.0
  0
LINE
  5
156B4
  8
0
 10
27.4600155837831
 20
173.5566258034161
 30
0.0
 11
26.2100155837831
 21
174.27831363990299
 31
0.0
  0
CIRCLE
  5
156B5
  8
3
 10
27.460015583783392
 20
175.0000014752151
 30
0.0
 40
2.0669999999999988
  0
CIRCLE
  5
156B6
  8
0
 10
27.460015583783392
 20
175.0000014752151
 30
0.0
 40
2.5
  0
LINE
  5
156B8
  8
0
 10
106.210015584801
 20
174.27831363931489
 30
0.0
 11
106.210015584801
 21
175.72168931228879
 31
0.0
  0
LINE
  5
156B9
  8
0
 10
106.21001558480189
 20
175.7216893111148
 30
0.0
 11
107.460015584801
 21
176.44337714760189
 31
0.0
  0
LINE
  5
156BA
  8
0
 10
107.4600155837833
 20
176.44337714701371
 30
0.0
 11
108.7100155837833
 21
175.72168931052681
 31
0.0
  0
LINE
  5
156BB
  8
0
 10
108.7100155827665
 20
175.72168931111389
 30
0.0
 11
108.7100155827665
 21
174.27831363814011
 31
0.0
  0
LINE
  5
156BC
  8
0
 10
108.7100155827665
 20
174.27831363931489
 30
0.0
 11
107.4600155827665
 21
173.55662580282791
 31
0.0
  0
LINE
  5
156BD
  8
0
 10
107.4600155837833
 20
173.5566258034161
 30
0.0
 11
106.2100155837833
 21
174.2783136399029
 31
0.0
  0
CIRCLE
  5
156BE
  8
3
 10
107.4600155837836
 20
175.00000147521499
 30
0.0
 40
2.0669999999999988
  0
CIRCLE
  5
156BF
  8
0
 10
107.4600155837836
 20
175.00000147521499
 30
0.0
 40
2.5
  0
LINE
  5
156C2
  8
1
 10
21.960015583783392
 20
175.00000147521499
 30
0.0
 11
32.960015583783388
 21
175.00000147521499
 31
0.0
  0
LINE
  5
156C3
  8
1
 10
101.9600155837836
 20
175.00000147521499
 30
0.0
 11
112.9600155837836
 21
175.00000147521499
 31
0.0
  0
LINE
  5
1570A
  8
3
 10
173.0033913673833
 20
352.06700154972049
 30
0.0
 11
174.0033914148807
 21
352.06700154972049
 31
0.0
  0
LINE
  5
1570B
  8
3
 10
173.0033913673833
 20
347.93300154972093
 30
0.0
 11
174.0033914148807
 21
347.93300154972093
 31
0.0
  0
LINE
  5
1570D
  8
3
 10
173.0033913673833
 20
272.06699961256959
 30
0.0
 11
174.0033914148807
 21
272.06699961256959
 31
0.0
  0
LINE
  5
1570E
  8
3
 10
173.0033913673833
 20
267.93299961256997
 30
0.0
 11
174.0033914148807
 21
267.93299961256997
 31
0.0
  0
LINE
  5
1570F
  8
3
 10
173.0033913673833
 20
112.0670024437902
 30
0.0
 11
174.0033914148807
 21
112.0670024437902
 31
0.0
  0
LINE
  5
15710
  8
3
 10
173.0033913673833
 20
107.9330024437907
 30
0.0
 11
174.0033914148807
 21
107.9330024437907
 31
0.0
  0
LINE
  5
15711
  8
3
 10
173.0033913673833
 20
32.06700050663926
 30
0.0
 11
174.0033914148807
 21
32.06700050663926
 31
0.0
  0
LINE
  5
15712
  8
3
 10
173.0033913673833
 20
27.933000506639701
 30
0.0
 11
174.0033914148807
 21
27.933000506639701
 31
0.0
  0
LINE
  5
15713
  8
0
 10
173.23433154262599
 20
177.5000009536744
 30
0.0
 11
173.0033913673833
 21
177.1000016331673
 31
0.0
  0
LINE
  5
15714
  8
0
 10
173.0033913673833
 20
172.90000131726271
 30
0.0
 11
173.23433154262599
 21
172.5000019967556
 31
0.0
  0
LINE
  5
15715
  8
0
 10
174.0033914148807
 20
177.5000009536744
 30
0.0
 11
173.23433154262599
 21
177.5000009536744
 31
0.0
  0
LINE
  5
15716
  8
0
 10
173.23433154262599
 20
172.5000019967556
 30
0.0
 11
174.0033914148807
 21
172.5000019967556
 31
0.0
  0
LINE
  5
15717
  8
0
 10
173.23433154262599
 20
177.5000009536744
 30
0.0
 11
173.23433154262599
 21
172.5000019967556
 31
0.0
  0
LINE
  5
15718
  8
0
 10
173.0033913673833
 20
172.90000131726271
 30
0.0
 11
173.0033913673833
 21
177.1000016331673
 31
0.0
  0
LINE
  5
15719
  8
3
 10
173.0033913673833
 20
177.06700147521479
 30
0.0
 11
174.0033914148807
 21
177.06700147521479
 31
0.0
  0
LINE
  5
1571A
  8
3
 10
173.0033913673833
 20
172.93300147521521
 30
0.0
 11
174.0033914148807
 21
172.93300147521521
 31
0.0
  0
LINE
  5
1571B
  8
1
 10
170.0033913673833
 20
175.00000147521499
 30
0.0
 11
177.0033914148807
 21
175.00000147521499
 31
0.0
  0
CIRCLE
  5
15776
  8
0
 10
370.00338971614838
 20
192.0000014752149
 30
0.0
 40
4.5000000000000346
  0
CIRCLE
  5
15777
  8
0
 10
370.00338971614838
 20
192.0000014752149
 30
0.0
 40
4.75
  0
LINE
  5
15778
  8
0
 10
368.50338908507592
 20
192.8660257281864
 30
0.0
 11
370.00338694917042
 21
193.73205176333329
 31
0.0
  0
LINE
  5
15779
  8
0
 10
370.00338694917042
 20
193.73205176333329
 30
0.0
 11
371.50338797951918
 21
192.8660292653509
 31
0.0
  0
LINE
  5
1577A
  8
0
 10
371.50338797951918
 20
192.8660292653509
 30
0.0
 11
371.5033911966193
 21
191.13397887027071
 31
0.0
  0
LINE
  5
1577B
  8
0
 10
371.5033911966193
 20
191.13397887027071
 30
0.0
 11
370.00339152141993
 21
190.267950922327
 31
0.0
  0
LINE
  5
1577C
  8
0
 10
370.00339152141993
 20
190.267950922327
 30
0.0
 11
368.50339049107021
 21
191.1339734203093
 31
0.0
  0
LINE
  5
1577D
  8
0
 10
368.50339049107021
 20
191.1339734203093
 30
0.0
 11
368.50338908507592
 21
192.8660257281864
 31
0.0
  0
LINE
  5
1577F
  8
0
 10
339.13801498546837
 20
184.416721919823
 30
0.0
 11
348.8687642277805
 21
178.79867122535731
 31
0.0
  0
LINE
  5
15780
  8
0
 10
360.86876433208857
 20
199.58328109685081
 30
0.0
 11
351.13801508977662
 21
205.20133179131651
 31
0.0
  0
LINE
  5
15781
  8
0
 10
360.86876444682832
 20
184.416721919823
 30
0.0
 11
351.13801520451631
 21
178.79867122535731
 31
0.0
  0
LINE
  5
15782
  8
0
 10
339.13801510020812
 20
199.58328109685081
 30
0.0
 11
348.86876434252019
 21
205.20133179131651
 31
0.0
  0
CIRCLE
  5
15783
  8
0
 10
350.00338971614838
 20
192.0000014752145
 30
0.0
 40
5.0
  0
LINE
  5
15784
  8
0
 10
355.00339004125641
 20
194.88675250441349
 30
0.0
 11
350.00338948575842
 21
197.7735041710786
 31
0.0
  0
LINE
  5
15785
  8
0
 10
345.00338959751713
 20
189.113250326806
 30
0.0
 11
350.00339015301512
 21
186.226498660141
 31
0.0
  0
LINE
  5
15786
  8
0
 10
345.00338926388872
 20
194.88675192655219
 30
0.0
 11
350.00338948575842
 21
197.7735041710786
 31
0.0
  0
LINE
  5
15787
  8
0
 10
355.00339037488448
 20
189.1132509046673
 30
0.0
 11
350.00339015301512
 21
186.226498660141
 31
0.0
  0
LINE
  5
15788
  8
0
 10
344.92197061213687
 20
202.9226493686437
 30
0.0
 11
324.00338917970657
 21
202.9226493686437
 31
0.0
  0
LINE
  5
15789
  8
1
 10
333.00338961184019
 20
192.00105863512599
 30
0.0
 11
367.0033898204565
 21
192.00105863512599
 31
0.0
  0
TEXT
  5
15850
  8
0
 62
     3
 10
0.0
 20
0.0
 30
0.0
 40
10.0
  1
QLSCH40H
  7
STANDARD1
  0
ENDSEC
  0
EOF
