  0
SECTION
  2
HEADER
  9
$ACADVER
  1
AC1009
  9
$INSBASE
 10
0.0
 20
0.0
 30
0.0
  9
$EXTMIN
 10
0.0
 20
-2.960436562073669
 30
-0.0000000000000018
  9
$EXTMAX
 10
258.4216050866839964
 20
205.0654380766048064
 30
0.0000000000000036
  9
$LIMMIN
 10
0.0
 20
0.0
  9
$LIMMAX
 10
390.0
 20
270.0
  9
$ORTHOMODE
 70
     1
  9
$REGENMODE
 70
     1
  9
$FILLMODE
 70
     1
  9
$QTEXTMODE
 70
     0
  9
$MIRRTEXT
 70
     1
  9
$DRAGMODE
 70
     2
  9
$LTSCALE
 40
5.0
  9
$OSMODE
 70
    37
  9
$ATTMODE
 70
     1
  9
$TEXTSIZE
 40
3.2000000000000002
  9
$TRACEWID
 40
1.0
  9
$TEXTSTYLE
  7
K
  9
$CLAYER
  8
0
  9
$CELTYPE
  6
BYLAYER
  9
$CECOLOR
 62
   256
  9
$DIMSCALE
 40
1.0
  9
$DIMASZ
 40
3.0
  9
$DIMEXO
 40
1.0
  9
$DIMDLI
 40
6.0
  9
$DIMRND
 40
0.0
  9
$DIMDLE
 40
0.0
  9
$DIMEXE
 40
1.0
  9
$DIMTP
 40
495.0
  9
$DIMTM
 40
0.0
  9
$DIMTXT
 40
3.2000000000000002
  9
$DIMCEN
 40
0.0
  9
$DIMTSZ
 40
0.0
  9
$DIMTOL
 70
     0
  9
$DIMLIM
 70
     0
  9
$DIMTIH
 70
     0
  9
$DIMTOH
 70
     0
  9
$DIMSE1
 70
     0
  9
$DIMSE2
 70
     0
  9
$DIMTAD
 70
     1
  9
$DIMZIN
 70
     8
  9
$DIMBLK
  1

  9
$DIMASO
 70
     0
  9
$DIMSHO
 70
     1
  9
$DIMPOST
  1

  9
$DIMAPOST
  1

  9
$DIMALT
 70
     0
  9
$DIMALTD
 70
     2
  9
$DIMALTF
 40
25.3999999999999986
  9
$DIMLFAC
 40
1.0
  9
$DIMTOFL
 70
     0
  9
$DIMTVP
 40
0.0
  9
$DIMTIX
 70
     0
  9
$DIMSOXD
 70
     0
  9
$DIMSAH
 70
     0
  9
$DIMBLK1
  1

  9
$DIMBLK2
  1

  9
$DIMSTYLE
  2
ITM
  9
$DIMCLRD
 70
     4
  9
$DIMCLRE
 70
     4
  9
$DIMCLRT
 70
     4
  9
$DIMTFAC
 40
1.0
  9
$DIMGAP
 40
1.0
  9
$LUNITS
 70
     2
  9
$LUPREC
 70
     2
  9
$SKETCHINC
 40
1.0
  9
$FILLETRAD
 40
1.0
  9
$AUNITS
 70
     0
  9
$AUPREC
 70
     0
  9
$MENU
  1
.
  9
$ELEVATION
 40
0.0
  9
$PELEVATION
 40
0.0
  9
$THICKNESS
 40
0.0
  9
$LIMCHECK
 70
     0
  9
$BLIPMODE
 70
     0
  9
$CHAMFERA
 40
1.1999999999999991
  9
$CHAMFERB
 40
1.1999999999999991
  9
$SKPOLY
 70
     0
  9
$TDCREATE
 40
2453354.0921180560253561
  9
$TDUPDATE
 40
2460178.6350462958216667
  9
$TDINDWG
 40
512.6518749189999653
  9
$TDUSRTIMER
 40
512.651596944400012
  9
$USRTIMER
 70
     1
  9
$ANGBASE
 50
0.0
  9
$ANGDIR
 70
     0
  9
$PDMODE
 70
     0
  9
$PDSIZE
 40
0.0
  9
$PLINEWID
 40
0.0
  9
$COORDS
 70
     1
  9
$SPLFRAME
 70
     0
  9
$SPLINETYPE
 70
     6
  9
$SPLINESEGS
 70
     8
  9
$ATTDIA
 70
     1
  9
$ATTREQ
 70
     1
  9
$HANDLING
 70
     1
  9
$HANDSEED
  5
3C6
  9
$SURFTAB1
 70
     6
  9
$SURFTAB2
 70
     6
  9
$SURFTYPE
 70
     6
  9
$SURFU
 70
     6
  9
$SURFV
 70
     6
  9
$UCSNAME
  2

  9
$UCSORG
 10
0.0
 20
0.0
 30
0.0
  9
$UCSXDIR
 10
1.0
 20
0.0
 30
0.0
  9
$UCSYDIR
 10
0.0
 20
1.0
 30
0.0
  9
$PUCSNAME
  2

  9
$PUCSORG
 10
0.0
 20
0.0
 30
0.0
  9
$PUCSXDIR
 10
1.0
 20
0.0
 30
0.0
  9
$PUCSYDIR
 10
0.0
 20
1.0
 30
0.0
  9
$USERI1
 70
     4
  9
$USERI2
 70
     1
  9
$USERI3
 70
     1
  9
$USERI4
 70
     0
  9
$USERI5
 70
     0
  9
$USERR1
 40
1.0
  9
$USERR2
 40
3.0
  9
$USERR3
 40
3.2000000000000002
  9
$USERR4
 40
3.0
  9
$USERR5
 40
10.0
  9
$WORLDVIEW
 70
     1
  9
$SHADEDGE
 70
     3
  9
$SHADEDIF
 70
    70
  9
$TILEMODE
 70
     1
  9
$MAXACTVP
 70
    16
  9
$PLIMCHECK
 70
     0
  9
$PEXTMIN
 10
0.0
 20
0.0
 30
0.0
  9
$PEXTMAX
 10
0.0
 20
0.0
 30
0.0
  9
$PLIMMIN
 10
0.0
 20
0.0
  9
$PLIMMAX
 10
12.0
 20
9.0
  9
$UNITMODE
 70
     0
  9
$VISRETAIN
 70
     0
  9
$PLINEGEN
 70
     0
  9
$PSLTSCALE
 70
     1
  0
ENDSEC
  0
SECTION
  2
TABLES
  0
TABLE
  2
VPORT
 70
     1
  0
VPORT
  2
*ACTIVE
 70
     0
 10
0.0
 20
0.0
 11
1.0
 21
1.0
 12
232.6877299210358103
 22
101.0532508988351026
 13
0.0
 23
0.0
 14
5.0
 24
5.0
 15
10.0
 25
10.0
 16
0.0
 26
0.0
 36
1.0
 17
0.0
 27
0.0
 37
0.0
 40
209.8960578737240041
 41
2.3485221674876842
 42
50.0
 43
0.0
 44
0.0
 50
0.0
 51
0.0
 71
    16
 72
   500
 73
     1
 74
     1
 75
     0
 76
     0
 77
     0
 78
     1
  0
ENDTAB
  0
TABLE
  2
LTYPE
 70
     2
  0
LTYPE
  2
CONTINUOUS
 70
     0
  3
Solid line
 72
    65
 73
     0
 40
0.0
  0
LTYPE
  2
CENTER
 70
     0
  3
____ _ ____ _ ____ _ ____ _ ____ _ ____ _ ____
 72
    65
 73
     4
 40
2.0
 49
1.25
 49
-0.25
 49
0.25
 49
-0.25
  0
ENDTAB
  0
TABLE
  2
LAYER
 70
     2
  0
LAYER
  2
0
 70
     0
 62
     7
  6
CONTINUOUS
  0
LAYER
  2
1
 70
     0
 62
     1
  6
CENTER
  0
ENDTAB
  0
TABLE
  2
STYLE
 70
     3
  0
STYLE
  2
STANDARD
 70
     0
 40
0.0
 41
1.0
 50
0.0
 71
     0
 42
2.5
  3
ROMANS
  4
EXTFONT
  0
STYLE
  2
K
 70
     0
 40
0.0
 41
0.75
 50
0.0
 71
     0
 42
3.2000000000000002
  3
ROMANS.shx
  4
EXTFONT.shx
  0
STYLE
  2
STANDARD1
 70
     0
 40
0.0
 41
1.0
 50
0.0
 71
     0
 42
3.0
  3
txt
  4

  0
ENDTAB
  0
TABLE
  2
VIEW
 70
     0
  0
ENDTAB
  0
TABLE
  2
UCS
 70
     0
  0
ENDTAB
  0
TABLE
  2
APPID
 70
     5
  0
APPID
  2
ACAD
 70
     0
  0
APPID
  2
ACAD_MLEADERVER
 70
     0
  0
APPID
  2
ACAD_EXEMPT_FROM_CAD_STANDARDS
 70
     0
  0
APPID
  2
DCO15
 70
     0
  0
APPID
  2
ACAD_NAV_VCDISPLAY
 70
     0
  0
ENDTAB
  0
TABLE
  2
DIMSTYLE
 70
     2
  0
DIMSTYLE
  2
ITM
 70
     0
  3

  4

  5

  6

  7

 40
0.0
 41
2.5
 42
1.0
 43
6.0
 44
1.0
 45
0.0
 46
0.0
 47
495.0
 48
0.0
140
3.0
141
0.0
142
0.0
143
25.3999999999999986
144
1.0
145
0.0
146
1.0
147
1.0
 71
     0
 72
     0
 73
     0
 74
     0
 75
     0
 76
     0
 77
     3
 78
     8
170
     0
171
     2
172
     1
173
     0
174
     0
175
     0
176
     0
177
     0
178
     0
  0
DIMSTYLE
  2
STANDARD
 70
     0
  3

  4

  5

  6

  7

 40
1.0
 41
0.18
 42
0.0625
 43
0.38
 44
0.18
 45
0.0
 46
0.0
 47
0.0
 48
0.0
140
0.18
141
0.09
142
0.0
143
25.3999999999999986
144
1.0
145
0.0
146
1.0
147
0.09
 71
     0
 72
     0
 73
     1
 74
     1
 75
     0
 76
     0
 77
     0
 78
     0
170
     0
171
     2
172
     0
173
     0
174
     0
175
     0
176
     0
177
     0
178
     0
  0
ENDTAB
  0
ENDSEC
  0
SECTION
  2
BLOCKS
  0
BLOCK
  8
0
  2
$MODEL_SPACE
 70
     0
 10
0.0
 20
0.0
 30
0.0
  3
$MODEL_SPACE
  1

  0
ENDBLK
  5
12
  8
0
  0
BLOCK
 67
     1
  8
0
  2
$PAPER_SPACE
 70
     0
 10
0.0
 20
0.0
 30
0.0
  3
$PAPER_SPACE
  1

  0
ENDBLK
  5
19
 67
     1
  8
0
  0
BLOCK
  8
0
  2
ARROW1
 70
     0
 10
0.0
 20
0.0
 30
0.0
  3
ARROW1
  1

  0
ENDBLK
  5
4C
  8
0
  0
ENDSEC
  0
SECTION
  2
ENTITIES
  0
ARC
  5
73
  8
0
 10
252.4216257990248948
 20
85.0004874720788735
 30
0.0
 40
1.0
 50
0.0
 51
90.0
  0
LINE
  5
74
  8
0
 10
204.4934009078739052
 20
80.0004870846486824
 30
0.0
 11
207.4216265738853053
 21
80.0004870846486824
 31
0.0
  0
ARC
  5
75
  8
0
 10
203.9216048035619053
 20
75.9346612232851754
 30
0.0
 40
0.5000000000000115
 50
165.0000000000011084
 51
180.0
  0
LINE
  5
76
  8
0
 10
203.438642701864012
 20
76.0640706151343124
 30
0.0
 11
204.4934009078739052
 21
80.0004870846486824
 31
0.0
  0
LINE
  5
77
  8
0
 10
203.4216050866839964
 20
71.0004874720788735
 30
0.0
 11
203.4216050866839964
 21
75.9346610150850552
 31
0.0
  0
LINE
  5
78
  8
0
 10
253.4216266632923009
 20
71.0004874720788735
 30
0.0
 11
207.4216265738853053
 21
71.0004874720788735
 31
0.0
  0
LINE
  5
79
  8
0
 10
249.0350358695633872
 20
80.0004870846486824
 30
0.0
 11
253.4216266632923009
 21
80.0004870846486824
 31
0.0
  0
LINE
  5
7B
  8
0
 10
218.6716256239363076
 20
78.0004876881457108
 30
0.0
 11
218.6716256239363076
 21
86.0004871368027466
 31
0.0
  0
LINE
  5
7C
  8
0
 10
218.6716256239363076
 20
78.0004876881457108
 30
0.0
 11
232.1716259741135957
 21
78.0004876881457108
 31
0.0
  0
LINE
  5
7D
  8
0
 10
232.1716259741135957
 20
78.0004876881457108
 30
0.0
 11
232.1716259741135957
 21
86.0004871368027466
 31
0.0
  0
LINE
  5
7E
  8
0
 10
207.4216265738853053
 20
71.000487472078845
 30
0.0
 11
207.4216265738853053
 21
82.7331607445693749
 31
0.0
  0
POLYLINE
  5
7F
  8
0
 66
     1
 10
0.0
 20
0.0
 30
0.0
 70
   128
  0
VERTEX
  5
286
  8
0
 10
208.1628066063769893
 20
83.6990866094446915
 30
0.0
  0
VERTEX
  5
287
  8
0
 10
208.182021653736399
 20
83.7042349606371658
 30
0.0
  0
VERTEX
  5
288
  8
0
 10
208.2389273256906108
 20
83.7194825738287705
 30
0.0
  0
VERTEX
  5
289
  8
0
 10
208.3313368768342002
 20
83.7442436471200722
 30
0.0
  0
VERTEX
  5
28A
  8
0
 10
208.4557001055129035
 20
83.777566368839814
 30
0.0
  0
VERTEX
  5
28B
  8
0
 10
208.607235601628588
 20
83.8181711017704743
 30
0.0
  0
VERTEX
  5
28C
  8
0
 10
208.7801225990899923
 20
83.8644960179544228
 30
0.0
  0
VERTEX
  5
28D
  8
0
 10
208.9677170426496104
 20
83.9147613599515694
 30
0.0
  0
VERTEX
  5
28E
  8
0
 10
209.1628067702897056
 20
83.9670355647421616
 30
0.0
  0
SEQEND
  5
28F
  8
0
  0
ARC
  5
80
  8
0
 10
208.4216257990248948
 20
82.733160484099912
 30
0.0
 40
1.0000000000000171
 50
105.0000000000046043
 51
180.0
  0
LINE
  5
81
  8
0
 10
209.1628067702897056
 20
83.9670355647421616
 30
0.0
 11
216.7694879255066098
 21
86.0004871368027466
 31
0.0
  0
LINE
  5
87
  8
0
 10
216.7694879255066098
 20
86.0004871368027466
 30
0.0
 11
252.4216264993794994
 21
86.0004871368027466
 31
0.0
  0
LINE
  5
89
  8
0
 10
249.0350358695633872
 20
80.0004870846486824
 30
0.0
 11
249.0350358695633872
 21
71.0004874720788735
 31
0.0
  0
ARC
  5
8A
  8
0
 10
247.3294499109518085
 20
85.0254175124539273
 30
0.0
 40
0.975423583939265
 50
358.5354907276221752
 51
88.4564134696602906
  0
LINE
  5
8C
  8
0
 10
216.8834057212717994
 20
86.0004871368027466
 30
0.0
 11
216.8834057212717994
 21
85.0004879042125481
 31
0.0
  0
LINE
  5
8D
  8
0
 10
218.6716256239363076
 20
85.0004879042125481
 30
0.0
 11
216.8834057212717994
 21
85.0004879042125481
 31
0.0
  0
LINE
  5
8E
  8
0
 10
243.5604069889434129
 20
71.0004874720788735
 30
0.0
 11
243.5604069889434129
 21
86.0004871368027466
 31
0.0
  0
LINE
  5
8F
  8
0
 10
248.3045548708088859
 20
85.0004879042125481
 30
0.0
 11
248.3045548708088859
 21
71.0004874720788735
 31
0.0
  0
LINE
  5
90
  8
1
 10
118.8787790695893989
 20
66.0004874720788735
 30
0.0
 11
118.8787790695893989
 21
91.0004871368027466
 31
0.0
  0
LINE
  5
93
  8
0
 10
204.4568819205856016
 20
197.0654380766048064
 30
0.0000000000000036
 11
207.4216058615444069
 21
197.0654374060524958
 31
0.0
  0
ARC
  5
94
  8
0
 10
225.4216050866839964
 20
139.7654380766047097
 30
0.0
 40
6.750000000000056
 50
0.0
 51
180.0
  0
ARC
  5
95
  8
0
 10
243.5603869732836984
 20
197.0654380766048064
 30
0.0
 40
5.0000000000000284
 50
18.4084801705855092
 51
90.0
  0
ARC
  5
96
  8
0
 10
153.4216050866839964
 20
167.0654380766046927
 30
0.0
 40
99.9999999999999147
 50
341.5915198294147217
 51
18.4084801705859711
  0
ARC
  5
97
  8
0
 10
243.5603869732836984
 20
137.0654380766046927
 30
0.0
 40
5.0000000000000382
 50
270.0
 51
341.5915198294147217
  0
ARC
  5
98
  8
0
 10
209.4216050866839964
 20
200.0654380766048064
 30
0.0
 40
2.0
 50
90.0
 51
180.0
  0
ARC
  5
99
  8
0
 10
209.4216050866839964
 20
134.0654380766046927
 30
0.0
 40
2.0
 50
180.0
 51
270.0
  0
LINE
  5
9A
  8
0
 10
207.4216058615444069
 20
134.0654382554187123
 30
0.0
 11
207.4216058615444069
 21
200.0654378977907868
 31
0.0
  0
ARC
  5
9B
  8
0
 10
225.4216050866839964
 20
139.765438076604795
 30
0.0
 40
4.1000000000000787
 50
0.0
 51
180.0
  0
ARC
  5
9D
  8
0
 10
225.4216050866839964
 20
139.3654380766047893
 30
0.0
 40
4.1000000000000787
 50
180.0
 51
0.0
  0
LINE
  5
A0
  8
0
 10
216.8833850089309863
 20
153.0654376444709897
 30
0.0
 11
216.8833850089309863
 21
132.0654380766048064
 31
0.0
  0
LINE
  5
A1
  8
0
 10
216.8833850089309863
 20
202.0654380766048064
 30
0.0
 11
216.8833850089309863
 21
181.0654385087383957
 31
0.0
  0
LINE
  5
A3
  8
1
 10
231.0216051068007062
 20
194.5681397674981099
 30
0.0
 11
219.8216050665675141
 21
194.5655699634498035
 31
0.0
  0
LINE
  5
A4
  8
0
 10
204.4568818870779978
 20
137.0654387471570033
 30
0.0
 11
207.4216058615444069
 21
137.0654387471570033
 31
0.0
  0
POLYLINE
  5
A5
  8
0
 10
203.4216057401754938
 20
138.0654380766046927
 30
0.0
 66
     1
 70
     8
  0
VERTEX
  8
0
  5
2C2
 10
203.422
 20
138.065
 30
0.00000
  70
    32
  0
VERTEX
  8
0
  5
2C3
 10
203.422
 20
138.053
 30
-4.41775e-17
  70
    32
  0
VERTEX
  8
0
  5
2C4
 10
203.422
 20
138.041
 30
-8.83484e-17
  70
    32
  0
VERTEX
  8
0
  5
2C5
 10
203.422
 20
138.029
 30
-1.32506e-16
  70
    32
  0
VERTEX
  8
0
  5
2C6
 10
203.423
 20
138.016
 30
-1.76644e-16
  70
    32
  0
VERTEX
  8
0
  5
2C7
 10
203.424
 20
138.004
 30
-2.20755e-16
  70
    32
  0
VERTEX
  8
0
  5
2C8
 10
203.424
 20
137.992
 30
-2.64832e-16
  70
    32
  0
VERTEX
  8
0
  5
2C9
 10
203.425
 20
137.980
 30
-3.08870e-16
  70
    32
  0
VERTEX
  8
0
  5
2CA
 10
203.427
 20
137.967
 30
-3.52862e-16
  70
    32
  0
VERTEX
  8
0
  5
2CB
 10
203.428
 20
137.955
 30
-3.96800e-16
  70
    32
  0
VERTEX
  8
0
  5
2CC
 10
203.429
 20
137.943
 30
-4.40678e-16
  70
    32
  0
VERTEX
  8
0
  5
2CD
 10
203.431
 20
137.931
 30
-4.84491e-16
  70
    32
  0
VERTEX
  8
0
  5
2CE
 10
203.433
 20
137.919
 30
-5.28230e-16
  70
    32
  0
VERTEX
  8
0
  5
2CF
 10
203.435
 20
137.907
 30
-5.71889e-16
  70
    32
  0
VERTEX
  8
0
  5
2D0
 10
203.437
 20
137.894
 30
-6.15463e-16
  70
    32
  0
VERTEX
  8
0
  5
2D1
 10
203.439
 20
137.882
 30
-6.58944e-16
  70
    32
  0
VERTEX
  8
0
  5
2D2
 10
203.441
 20
137.870
 30
-7.02325e-16
  70
    32
  0
VERTEX
  8
0
  5
2D3
 10
203.444
 20
137.858
 30
-7.45601e-16
  70
    32
  0
VERTEX
  8
0
  5
2D4
 10
203.447
 20
137.846
 30
-7.88764e-16
  70
    32
  0
VERTEX
  8
0
  5
2D5
 10
203.450
 20
137.834
 30
-8.31809e-16
  70
    32
  0
VERTEX
  8
0
  5
2D6
 10
203.453
 20
137.822
 30
-8.74729e-16
  70
    32
  0
VERTEX
  8
0
  5
2D7
 10
203.456
 20
137.811
 30
-9.17516e-16
  70
    32
  0
VERTEX
  8
0
  5
2D8
 10
203.459
 20
137.799
 30
-9.60166e-16
  70
    32
  0
VERTEX
  8
0
  5
2D9
 10
203.463
 20
137.787
 30
-1.00267e-15
  70
    32
  0
VERTEX
  8
0
  5
2DA
 10
203.466
 20
137.775
 30
-1.04502e-15
  70
    32
  0
VERTEX
  8
0
  5
2DB
 10
203.470
 20
137.763
 30
-1.08722e-15
  70
    32
  0
VERTEX
  8
0
  5
2DC
 10
203.474
 20
137.752
 30
-1.12925e-15
  70
    32
  0
VERTEX
  8
0
  5
2DD
 10
203.478
 20
137.740
 30
-1.17112e-15
  70
    32
  0
VERTEX
  8
0
  5
2DE
 10
203.482
 20
137.729
 30
-1.21280e-15
  70
    32
  0
VERTEX
  8
0
  5
2DF
 10
203.486
 20
137.717
 30
-1.25431e-15
  70
    32
  0
VERTEX
  8
0
  5
2E0
 10
203.491
 20
137.706
 30
-1.29562e-15
  70
    32
  0
VERTEX
  8
0
  5
2E1
 10
203.496
 20
137.694
 30
-1.33674e-15
  70
    32
  0
VERTEX
  8
0
  5
2E2
 10
203.500
 20
137.683
 30
-1.37766e-15
  70
    32
  0
VERTEX
  8
0
  5
2E3
 10
203.505
 20
137.671
 30
-1.41837e-15
  70
    32
  0
VERTEX
  8
0
  5
2E4
 10
203.510
 20
137.660
 30
-1.45887e-15
  70
    32
  0
VERTEX
  8
0
  5
2E5
 10
203.516
 20
137.649
 30
-1.49915e-15
  70
    32
  0
VERTEX
  8
0
  5
2E6
 10
203.521
 20
137.638
 30
-1.53920e-15
  70
    32
  0
VERTEX
  8
0
  5
2E7
 10
203.527
 20
137.627
 30
-1.57902e-15
  70
    32
  0
VERTEX
  8
0
  5
2E8
 10
203.532
 20
137.616
 30
-1.61860e-15
  70
    32
  0
VERTEX
  8
0
  5
2E9
 10
203.538
 20
137.605
 30
-1.65794e-15
  70
    32
  0
VERTEX
  8
0
  5
2EA
 10
203.544
 20
137.594
 30
-1.69703e-15
  70
    32
  0
VERTEX
  8
0
  5
2EB
 10
203.550
 20
137.583
 30
-1.73586e-15
  70
    32
  0
VERTEX
  8
0
  5
2EC
 10
203.556
 20
137.573
 30
-1.77443e-15
  70
    32
  0
VERTEX
  8
0
  5
2ED
 10
203.562
 20
137.562
 30
-1.81274e-15
  70
    32
  0
VERTEX
  8
0
  5
2EE
 10
203.569
 20
137.551
 30
-1.85077e-15
  70
    32
  0
VERTEX
  8
0
  5
2EF
 10
203.575
 20
137.541
 30
-1.88852e-15
  70
    32
  0
VERTEX
  8
0
  5
2F0
 10
203.582
 20
137.530
 30
-1.92599e-15
  70
    32
  0
VERTEX
  8
0
  5
2F1
 10
203.589
 20
137.520
 30
-1.96317e-15
  70
    32
  0
VERTEX
  8
0
  5
2F2
 10
203.596
 20
137.510
 30
-2.00005e-15
  70
    32
  0
VERTEX
  8
0
  5
2F3
 10
203.603
 20
137.500
 30
-2.03663e-15
  70
    32
  0
VERTEX
  8
0
  5
2F4
 10
203.610
 20
137.490
 30
-2.07291e-15
  70
    32
  0
VERTEX
  8
0
  5
2F5
 10
203.618
 20
137.480
 30
-2.10887e-15
  70
    32
  0
VERTEX
  8
0
  5
2F6
 10
203.625
 20
137.470
 30
-2.14452e-15
  70
    32
  0
VERTEX
  8
0
  5
2F7
 10
203.633
 20
137.460
 30
-2.17984e-15
  70
    32
  0
VERTEX
  8
0
  5
2F8
 10
203.641
 20
137.450
 30
-2.21483e-15
  70
    32
  0
VERTEX
  8
0
  5
2F9
 10
203.649
 20
137.441
 30
-2.24949e-15
  70
    32
  0
VERTEX
  8
0
  5
2FA
 10
203.657
 20
137.431
 30
-2.28382e-15
  70
    32
  0
VERTEX
  8
0
  5
2FB
 10
203.665
 20
137.422
 30
-2.31779e-15
  70
    32
  0
VERTEX
  8
0
  5
2FC
 10
203.673
 20
137.412
 30
-2.35142e-15
  70
    32
  0
VERTEX
  8
0
  5
2FD
 10
203.681
 20
137.403
 30
-2.38470e-15
  70
    32
  0
VERTEX
  8
0
  5
2FE
 10
203.690
 20
137.394
 30
-2.41761e-15
  70
    32
  0
VERTEX
  8
0
  5
2FF
 10
203.698
 20
137.385
 30
-2.45016e-15
  70
    32
  0
VERTEX
  8
0
  5
300
 10
203.707
 20
137.376
 30
-2.48235e-15
  70
    32
  0
VERTEX
  8
0
  5
301
 10
203.716
 20
137.367
 30
-2.51415e-15
  70
    32
  0
VERTEX
  8
0
  5
302
 10
203.725
 20
137.358
 30
-2.54558e-15
  70
    32
  0
VERTEX
  8
0
  5
303
 10
203.734
 20
137.350
 30
-2.57663e-15
  70
    32
  0
VERTEX
  8
0
  5
304
 10
203.743
 20
137.341
 30
-2.60729e-15
  70
    32
  0
VERTEX
  8
0
  5
305
 10
203.752
 20
137.333
 30
-2.63756e-15
  70
    32
  0
VERTEX
  8
0
  5
306
 10
203.762
 20
137.324
 30
-2.66742e-15
  70
    32
  0
VERTEX
  8
0
  5
307
 10
203.771
 20
137.316
 30
-2.69689e-15
  70
    32
  0
VERTEX
  8
0
  5
308
 10
203.781
 20
137.308
 30
-2.72595e-15
  70
    32
  0
VERTEX
  8
0
  5
309
 10
203.790
 20
137.300
 30
-2.75460e-15
  70
    32
  0
VERTEX
  8
0
  5
30A
 10
203.800
 20
137.292
 30
-2.78284e-15
  70
    32
  0
VERTEX
  8
0
  5
30B
 10
203.810
 20
137.285
 30
-2.81065e-15
  70
    32
  0
VERTEX
  8
0
  5
30C
 10
203.820
 20
137.277
 30
-2.83805e-15
  70
    32
  0
VERTEX
  8
0
  5
30D
 10
203.830
 20
137.270
 30
-2.86501e-15
  70
    32
  0
VERTEX
  8
0
  5
30E
 10
203.840
 20
137.262
 30
-2.89155e-15
  70
    32
  0
VERTEX
  8
0
  5
30F
 10
203.850
 20
137.255
 30
-2.91765e-15
  70
    32
  0
VERTEX
  8
0
  5
310
 10
203.861
 20
137.248
 30
-2.94331e-15
  70
    32
  0
VERTEX
  8
0
  5
311
 10
203.871
 20
137.241
 30
-2.96852e-15
  70
    32
  0
VERTEX
  8
0
  5
312
 10
203.882
 20
137.234
 30
-2.99329e-15
  70
    32
  0
VERTEX
  8
0
  5
313
 10
203.892
 20
137.227
 30
-3.01761e-15
  70
    32
  0
VERTEX
  8
0
  5
314
 10
203.903
 20
137.221
 30
-3.04147e-15
  70
    32
  0
VERTEX
  8
0
  5
315
 10
203.914
 20
137.214
 30
-3.06488e-15
  70
    32
  0
VERTEX
  8
0
  5
316
 10
203.925
 20
137.208
 30
-3.08782e-15
  70
    32
  0
VERTEX
  8
0
  5
317
 10
203.936
 20
137.201
 30
-3.11030e-15
  70
    32
  0
VERTEX
  8
0
  5
318
 10
203.947
 20
137.195
 30
-3.13231e-15
  70
    32
  0
VERTEX
  8
0
  5
319
 10
203.958
 20
137.189
 30
-3.15385e-15
  70
    32
  0
VERTEX
  8
0
  5
31A
 10
203.969
 20
137.184
 30
-3.17492e-15
  70
    32
  0
VERTEX
  8
0
  5
31B
 10
203.980
 20
137.178
 30
-3.19550e-15
  70
    32
  0
VERTEX
  8
0
  5
31C
 10
203.991
 20
137.172
 30
-3.21561e-15
  70
    32
  0
VERTEX
  8
0
  5
31D
 10
204.003
 20
137.167
 30
-3.23523e-15
  70
    32
  0
VERTEX
  8
0
  5
31E
 10
204.014
 20
137.161
 30
-3.25436e-15
  70
    32
  0
VERTEX
  8
0
  5
31F
 10
204.026
 20
137.156
 30
-3.27300e-15
  70
    32
  0
VERTEX
  8
0
  5
320
 10
204.037
 20
137.151
 30
-3.29116e-15
  70
    32
  0
VERTEX
  8
0
  5
321
 10
204.049
 20
137.146
 30
-3.30881e-15
  70
    32
  0
VERTEX
  8
0
  5
322
 10
204.061
 20
137.142
 30
-3.32597e-15
  70
    32
  0
VERTEX
  8
0
  5
323
 10
204.072
 20
137.137
 30
-3.34262e-15
  70
    32
  0
VERTEX
  8
0
  5
324
 10
204.084
 20
137.132
 30
-3.35877e-15
  70
    32
  0
VERTEX
  8
0
  5
325
 10
204.096
 20
137.128
 30
-3.37442e-15
  70
    32
  0
VERTEX
  8
0
  5
326
 10
204.108
 20
137.124
 30
-3.38956e-15
  70
    32
  0
VERTEX
  8
0
  5
327
 10
204.120
 20
137.120
 30
-3.40419e-15
  70
    32
  0
VERTEX
  8
0
  5
328
 10
204.132
 20
137.116
 30
-3.41830e-15
  70
    32
  0
VERTEX
  8
0
  5
329
 10
204.144
 20
137.112
 30
-3.43190e-15
  70
    32
  0
VERTEX
  8
0
  5
32A
 10
204.156
 20
137.108
 30
-3.44499e-15
  70
    32
  0
VERTEX
  8
0
  5
32B
 10
204.169
 20
137.105
 30
-3.45755e-15
  70
    32
  0
VERTEX
  8
0
  5
32C
 10
204.181
 20
137.102
 30
-3.46959e-15
  70
    32
  0
VERTEX
  8
0
  5
32D
 10
204.193
 20
137.098
 30
-3.48112e-15
  70
    32
  0
VERTEX
  8
0
  5
32E
 10
204.205
 20
137.095
 30
-3.49211e-15
  70
    32
  0
VERTEX
  8
0
  5
32F
 10
204.218
 20
137.092
 30
-3.50258e-15
  70
    32
  0
VERTEX
  8
0
  5
330
 10
204.230
 20
137.090
 30
-3.51253e-15
  70
    32
  0
VERTEX
  8
0
  5
331
 10
204.242
 20
137.087
 30
-3.52194e-15
  70
    32
  0
VERTEX
  8
0
  5
332
 10
204.255
 20
137.085
 30
-3.53083e-15
  70
    32
  0
VERTEX
  8
0
  5
333
 10
204.267
 20
137.082
 30
-3.53918e-15
  70
    32
  0
VERTEX
  8
0
  5
334
 10
204.280
 20
137.080
 30
-3.54700e-15
  70
    32
  0
VERTEX
  8
0
  5
335
 10
204.292
 20
137.078
 30
-3.55429e-15
  70
    32
  0
VERTEX
  8
0
  5
336
 10
204.305
 20
137.076
 30
-3.56104e-15
  70
    32
  0
VERTEX
  8
0
  5
337
 10
204.318
 20
137.075
 30
-3.56725e-15
  70
    32
  0
VERTEX
  8
0
  5
338
 10
204.330
 20
137.073
 30
-3.57293e-15
  70
    32
  0
VERTEX
  8
0
  5
339
 10
204.343
 20
137.072
 30
-3.57807e-15
  70
    32
  0
VERTEX
  8
0
  5
33A
 10
204.355
 20
137.070
 30
-3.58267e-15
  70
    32
  0
VERTEX
  8
0
  5
33B
 10
204.368
 20
137.069
 30
-3.58673e-15
  70
    32
  0
VERTEX
  8
0
  5
33C
 10
204.381
 20
137.068
 30
-3.59025e-15
  70
    32
  0
VERTEX
  8
0
  5
33D
 10
204.393
 20
137.067
 30
-3.59323e-15
  70
    32
  0
VERTEX
  8
0
  5
33E
 10
204.406
 20
137.067
 30
-3.59566e-15
  70
    32
  0
VERTEX
  8
0
  5
33F
 10
204.419
 20
137.066
 30
-3.59756e-15
  70
    32
  0
VERTEX
  8
0
  5
340
 10
204.431
 20
137.066
 30
-3.59892e-15
  70
    32
  0
VERTEX
  8
0
  5
341
 10
204.444
 20
137.066
 30
-3.59973e-15
  70
    32
  0
VERTEX
  8
0
  5
342
 10
204.457
 20
137.065
 30
-3.60000e-15
  70
    32
  0
SEQEND
  8
0
  5
343
  0
LINE
  5
A6
  8
0
 10
203.4216050866839964
 20
138.0654389110698048
 30
0.0
 11
203.4216050866839964
 21
161.0654380766046927
 31
0.0
  0
LINE
  5
A9
  8
0
 10
203.4216050866839964
 20
173.0654380766048064
 30
0.0
 11
203.4216050866839964
 21
196.0654372421396943
 31
0.0
  0
POLYLINE
  5
AA
  8
0
 10
204.4568819205856016
 20
197.0654380766048348
 30
0.0000000000000036
 66
     1
 70
     8
  0
VERTEX
  8
0
  5
344
 10
204.457
 20
197.065
 30
3.60000e-15
  70
    32
  0
VERTEX
  8
0
  5
345
 10
204.444
 20
197.065
 30
3.59973e-15
  70
    32
  0
VERTEX
  8
0
  5
346
 10
204.431
 20
197.065
 30
3.59892e-15
  70
    32
  0
VERTEX
  8
0
  5
347
 10
204.419
 20
197.065
 30
3.59756e-15
  70
    32
  0
VERTEX
  8
0
  5
348
 10
204.406
 20
197.064
 30
3.59566e-15
  70
    32
  0
VERTEX
  8
0
  5
349
 10
204.393
 20
197.064
 30
3.59323e-15
  70
    32
  0
VERTEX
  8
0
  5
34A
 10
204.381
 20
197.063
 30
3.59025e-15
  70
    32
  0
VERTEX
  8
0
  5
34B
 10
204.368
 20
197.062
 30
3.58673e-15
  70
    32
  0
VERTEX
  8
0
  5
34C
 10
204.355
 20
197.061
 30
3.58267e-15
  70
    32
  0
VERTEX
  8
0
  5
34D
 10
204.343
 20
197.059
 30
3.57807e-15
  70
    32
  0
VERTEX
  8
0
  5
34E
 10
204.330
 20
197.058
 30
3.57293e-15
  70
    32
  0
VERTEX
  8
0
  5
34F
 10
204.318
 20
197.056
 30
3.56725e-15
  70
    32
  0
VERTEX
  8
0
  5
350
 10
204.305
 20
197.055
 30
3.56104e-15
  70
    32
  0
VERTEX
  8
0
  5
351
 10
204.292
 20
197.053
 30
3.55429e-15
  70
    32
  0
VERTEX
  8
0
  5
352
 10
204.280
 20
197.051
 30
3.54700e-15
  70
    32
  0
VERTEX
  8
0
  5
353
 10
204.267
 20
197.049
 30
3.53918e-15
  70
    32
  0
VERTEX
  8
0
  5
354
 10
204.255
 20
197.046
 30
3.53083e-15
  70
    32
  0
VERTEX
  8
0
  5
355
 10
204.242
 20
197.044
 30
3.52194e-15
  70
    32
  0
VERTEX
  8
0
  5
356
 10
204.230
 20
197.041
 30
3.51253e-15
  70
    32
  0
VERTEX
  8
0
  5
357
 10
204.218
 20
197.038
 30
3.50258e-15
  70
    32
  0
VERTEX
  8
0
  5
358
 10
204.205
 20
197.035
 30
3.49211e-15
  70
    32
  0
VERTEX
  8
0
  5
359
 10
204.193
 20
197.032
 30
3.48112e-15
  70
    32
  0
VERTEX
  8
0
  5
35A
 10
204.181
 20
197.029
 30
3.46959e-15
  70
    32
  0
VERTEX
  8
0
  5
35B
 10
204.169
 20
197.026
 30
3.45755e-15
  70
    32
  0
VERTEX
  8
0
  5
35C
 10
204.156
 20
197.022
 30
3.44499e-15
  70
    32
  0
VERTEX
  8
0
  5
35D
 10
204.144
 20
197.019
 30
3.43190e-15
  70
    32
  0
VERTEX
  8
0
  5
35E
 10
204.132
 20
197.015
 30
3.41830e-15
  70
    32
  0
VERTEX
  8
0
  5
35F
 10
204.120
 20
197.011
 30
3.40419e-15
  70
    32
  0
VERTEX
  8
0
  5
360
 10
204.108
 20
197.007
 30
3.38956e-15
  70
    32
  0
VERTEX
  8
0
  5
361
 10
204.096
 20
197.003
 30
3.37442e-15
  70
    32
  0
VERTEX
  8
0
  5
362
 10
204.084
 20
196.998
 30
3.35877e-15
  70
    32
  0
VERTEX
  8
0
  5
363
 10
204.072
 20
196.994
 30
3.34262e-15
  70
    32
  0
VERTEX
  8
0
  5
364
 10
204.061
 20
196.989
 30
3.32597e-15
  70
    32
  0
VERTEX
  8
0
  5
365
 10
204.049
 20
196.985
 30
3.30881e-15
  70
    32
  0
VERTEX
  8
0
  5
366
 10
204.037
 20
196.980
 30
3.29116e-15
  70
    32
  0
VERTEX
  8
0
  5
367
 10
204.026
 20
196.975
 30
3.27300e-15
  70
    32
  0
VERTEX
  8
0
  5
368
 10
204.014
 20
196.969
 30
3.25436e-15
  70
    32
  0
VERTEX
  8
0
  5
369
 10
204.003
 20
196.964
 30
3.23523e-15
  70
    32
  0
VERTEX
  8
0
  5
36A
 10
203.991
 20
196.959
 30
3.21561e-15
  70
    32
  0
VERTEX
  8
0
  5
36B
 10
203.980
 20
196.953
 30
3.19550e-15
  70
    32
  0
VERTEX
  8
0
  5
36C
 10
203.969
 20
196.947
 30
3.17492e-15
  70
    32
  0
VERTEX
  8
0
  5
36D
 10
203.958
 20
196.942
 30
3.15385e-15
  70
    32
  0
VERTEX
  8
0
  5
36E
 10
203.947
 20
196.936
 30
3.13231e-15
  70
    32
  0
VERTEX
  8
0
  5
36F
 10
203.936
 20
196.929
 30
3.11030e-15
  70
    32
  0
VERTEX
  8
0
  5
370
 10
203.925
 20
196.923
 30
3.08782e-15
  70
    32
  0
VERTEX
  8
0
  5
371
 10
203.914
 20
196.917
 30
3.06488e-15
  70
    32
  0
VERTEX
  8
0
  5
372
 10
203.903
 20
196.910
 30
3.04147e-15
  70
    32
  0
VERTEX
  8
0
  5
373
 10
203.892
 20
196.904
 30
3.01761e-15
  70
    32
  0
VERTEX
  8
0
  5
374
 10
203.882
 20
196.897
 30
2.99329e-15
  70
    32
  0
VERTEX
  8
0
  5
375
 10
203.871
 20
196.890
 30
2.96852e-15
  70
    32
  0
VERTEX
  8
0
  5
376
 10
203.861
 20
196.883
 30
2.94331e-15
  70
    32
  0
VERTEX
  8
0
  5
377
 10
203.850
 20
196.876
 30
2.91765e-15
  70
    32
  0
VERTEX
  8
0
  5
378
 10
203.840
 20
196.869
 30
2.89155e-15
  70
    32
  0
VERTEX
  8
0
  5
379
 10
203.830
 20
196.861
 30
2.86501e-15
  70
    32
  0
VERTEX
  8
0
  5
37A
 10
203.820
 20
196.854
 30
2.83805e-15
  70
    32
  0
VERTEX
  8
0
  5
37B
 10
203.810
 20
196.846
 30
2.81065e-15
  70
    32
  0
VERTEX
  8
0
  5
37C
 10
203.800
 20
196.838
 30
2.78284e-15
  70
    32
  0
VERTEX
  8
0
  5
37D
 10
203.790
 20
196.831
 30
2.75460e-15
  70
    32
  0
VERTEX
  8
0
  5
37E
 10
203.781
 20
196.823
 30
2.72595e-15
  70
    32
  0
VERTEX
  8
0
  5
37F
 10
203.771
 20
196.815
 30
2.69689e-15
  70
    32
  0
VERTEX
  8
0
  5
380
 10
203.762
 20
196.806
 30
2.66742e-15
  70
    32
  0
VERTEX
  8
0
  5
381
 10
203.752
 20
196.798
 30
2.63756e-15
  70
    32
  0
VERTEX
  8
0
  5
382
 10
203.743
 20
196.790
 30
2.60729e-15
  70
    32
  0
VERTEX
  8
0
  5
383
 10
203.734
 20
196.781
 30
2.57663e-15
  70
    32
  0
VERTEX
  8
0
  5
384
 10
203.725
 20
196.773
 30
2.54558e-15
  70
    32
  0
VERTEX
  8
0
  5
385
 10
203.716
 20
196.764
 30
2.51415e-15
  70
    32
  0
VERTEX
  8
0
  5
386
 10
203.707
 20
196.755
 30
2.48235e-15
  70
    32
  0
VERTEX
  8
0
  5
387
 10
203.698
 20
196.746
 30
2.45016e-15
  70
    32
  0
VERTEX
  8
0
  5
388
 10
203.690
 20
196.737
 30
2.41761e-15
  70
    32
  0
VERTEX
  8
0
  5
389
 10
203.681
 20
196.728
 30
2.38470e-15
  70
    32
  0
VERTEX
  8
0
  5
38A
 10
203.673
 20
196.719
 30
2.35142e-15
  70
    32
  0
VERTEX
  8
0
  5
38B
 10
203.665
 20
196.709
 30
2.31779e-15
  70
    32
  0
VERTEX
  8
0
  5
38C
 10
203.657
 20
196.700
 30
2.28382e-15
  70
    32
  0
VERTEX
  8
0
  5
38D
 10
203.649
 20
196.690
 30
2.24949e-15
  70
    32
  0
VERTEX
  8
0
  5
38E
 10
203.641
 20
196.681
 30
2.21483e-15
  70
    32
  0
VERTEX
  8
0
  5
38F
 10
203.633
 20
196.671
 30
2.17984e-15
  70
    32
  0
VERTEX
  8
0
  5
390
 10
203.625
 20
196.661
 30
2.14452e-15
  70
    32
  0
VERTEX
  8
0
  5
391
 10
203.618
 20
196.651
 30
2.10887e-15
  70
    32
  0
VERTEX
  8
0
  5
392
 10
203.610
 20
196.641
 30
2.07291e-15
  70
    32
  0
VERTEX
  8
0
  5
393
 10
203.603
 20
196.631
 30
2.03663e-15
  70
    32
  0
VERTEX
  8
0
  5
394
 10
203.596
 20
196.621
 30
2.00005e-15
  70
    32
  0
VERTEX
  8
0
  5
395
 10
203.589
 20
196.611
 30
1.96317e-15
  70
    32
  0
VERTEX
  8
0
  5
396
 10
203.582
 20
196.600
 30
1.92599e-15
  70
    32
  0
VERTEX
  8
0
  5
397
 10
203.575
 20
196.590
 30
1.88852e-15
  70
    32
  0
VERTEX
  8
0
  5
398
 10
203.569
 20
196.580
 30
1.85077e-15
  70
    32
  0
VERTEX
  8
0
  5
399
 10
203.562
 20
196.569
 30
1.81274e-15
  70
    32
  0
VERTEX
  8
0
  5
39A
 10
203.556
 20
196.558
 30
1.77443e-15
  70
    32
  0
VERTEX
  8
0
  5
39B
 10
203.550
 20
196.548
 30
1.73586e-15
  70
    32
  0
VERTEX
  8
0
  5
39C
 10
203.544
 20
196.537
 30
1.69703e-15
  70
    32
  0
VERTEX
  8
0
  5
39D
 10
203.538
 20
196.526
 30
1.65794e-15
  70
    32
  0
VERTEX
  8
0
  5
39E
 10
203.532
 20
196.515
 30
1.61860e-15
  70
    32
  0
VERTEX
  8
0
  5
39F
 10
203.527
 20
196.504
 30
1.57902e-15
  70
    32
  0
VERTEX
  8
0
  5
3A0
 10
203.521
 20
196.493
 30
1.53920e-15
  70
    32
  0
VERTEX
  8
0
  5
3A1
 10
203.516
 20
196.482
 30
1.49915e-15
  70
    32
  0
VERTEX
  8
0
  5
3A2
 10
203.510
 20
196.471
 30
1.45887e-15
  70
    32
  0
VERTEX
  8
0
  5
3A3
 10
203.505
 20
196.459
 30
1.41837e-15
  70
    32
  0
VERTEX
  8
0
  5
3A4
 10
203.500
 20
196.448
 30
1.37766e-15
  70
    32
  0
VERTEX
  8
0
  5
3A5
 10
203.496
 20
196.437
 30
1.33674e-15
  70
    32
  0
VERTEX
  8
0
  5
3A6
 10
203.491
 20
196.425
 30
1.29562e-15
  70
    32
  0
VERTEX
  8
0
  5
3A7
 10
203.486
 20
196.414
 30
1.25431e-15
  70
    32
  0
VERTEX
  8
0
  5
3A8
 10
203.482
 20
196.402
 30
1.21280e-15
  70
    32
  0
VERTEX
  8
0
  5
3A9
 10
203.478
 20
196.391
 30
1.17112e-15
  70
    32
  0
VERTEX
  8
0
  5
3AA
 10
203.474
 20
196.379
 30
1.12925e-15
  70
    32
  0
VERTEX
  8
0
  5
3AB
 10
203.470
 20
196.367
 30
1.08722e-15
  70
    32
  0
VERTEX
  8
0
  5
3AC
 10
203.466
 20
196.356
 30
1.04502e-15
  70
    32
  0
VERTEX
  8
0
  5
3AD
 10
203.463
 20
196.344
 30
1.00267e-15
  70
    32
  0
VERTEX
  8
0
  5
3AE
 10
203.459
 20
196.332
 30
9.60166e-16
  70
    32
  0
VERTEX
  8
0
  5
3AF
 10
203.456
 20
196.320
 30
9.17516e-16
  70
    32
  0
VERTEX
  8
0
  5
3B0
 10
203.453
 20
196.308
 30
8.74729e-16
  70
    32
  0
VERTEX
  8
0
  5
3B1
 10
203.450
 20
196.296
 30
8.31809e-16
  70
    32
  0
VERTEX
  8
0
  5
3B2
 10
203.447
 20
196.285
 30
7.88764e-16
  70
    32
  0
VERTEX
  8
0
  5
3B3
 10
203.444
 20
196.273
 30
7.45601e-16
  70
    32
  0
VERTEX
  8
0
  5
3B4
 10
203.441
 20
196.261
 30
7.02325e-16
  70
    32
  0
VERTEX
  8
0
  5
3B5
 10
203.439
 20
196.248
 30
6.58944e-16
  70
    32
  0
VERTEX
  8
0
  5
3B6
 10
203.437
 20
196.236
 30
6.15463e-16
  70
    32
  0
VERTEX
  8
0
  5
3B7
 10
203.435
 20
196.224
 30
5.71889e-16
  70
    32
  0
VERTEX
  8
0
  5
3B8
 10
203.433
 20
196.212
 30
5.28230e-16
  70
    32
  0
VERTEX
  8
0
  5
3B9
 10
203.431
 20
196.200
 30
4.84491e-16
  70
    32
  0
VERTEX
  8
0
  5
3BA
 10
203.429
 20
196.188
 30
4.40678e-16
  70
    32
  0
VERTEX
  8
0
  5
3BB
 10
203.428
 20
196.176
 30
3.96800e-16
  70
    32
  0
VERTEX
  8
0
  5
3BC
 10
203.427
 20
196.163
 30
3.52862e-16
  70
    32
  0
VERTEX
  8
0
  5
3BD
 10
203.425
 20
196.151
 30
3.08870e-16
  70
    32
  0
VERTEX
  8
0
  5
3BE
 10
203.424
 20
196.139
 30
2.64832e-16
  70
    32
  0
VERTEX
  8
0
  5
3BF
 10
203.424
 20
196.127
 30
2.20755e-16
  70
    32
  0
VERTEX
  8
0
  5
3C0
 10
203.423
 20
196.115
 30
1.76644e-16
  70
    32
  0
VERTEX
  8
0
  5
3C1
 10
203.422
 20
196.102
 30
1.32506e-16
  70
    32
  0
VERTEX
  8
0
  5
3C2
 10
203.422
 20
196.090
 30
8.83484e-17
  70
    32
  0
VERTEX
  8
0
  5
3C3
 10
203.422
 20
196.078
 30
4.41775e-17
  70
    32
  0
VERTEX
  8
0
  5
3C4
 10
203.422
 20
196.065
 30
-5.71131e-29
  70
    32
  0
SEQEND
  8
0
  5
3C5
  0
ARC
  5
AC
  8
0
 10
225.4216050866839964
 20
167.0654380766046927
 30
0.0
 40
14.0000000000000302
 50
270.0
 51
90.0
  0
LINE
  5
AD
  8
0
 10
216.8833850089309863
 20
202.0654380766048064
 30
0.0
 11
216.8833850089309863
 21
181.0654385087383957
 31
0.0
  0
ARC
  5
AE
  8
0
 10
225.4216050866839964
 20
194.3654380766047041
 30
0.0
 40
6.750000000000056
 50
180.0
 51
0.0
  0
LINE
  5
B0
  8
0
 10
229.5216051068005925
 20
194.3654382673396128
 30
0.0
 11
229.5216051068005925
 21
194.7654375878466908
 31
0.0
  0
ARC
  5
B1
  8
0
 10
225.4216050866839964
 20
194.765438076604795
 30
0.0
 40
4.1000000000000787
 50
0.0
 51
180.0
  0
LINE
  5
B2
  8
0
 10
221.3216050665675141
 20
194.7654375878466908
 30
0.0
 11
221.3216050665675141
 21
194.3654382673396128
 31
0.0
  0
ARC
  5
B3
  8
0
 10
225.4216050866839964
 20
194.3654380766047041
 30
0.0
 40
4.1000000000000787
 50
180.0
 51
0.0
  0
LINE
  5
B4
  8
0
 10
221.3216050665675141
 20
139.7654378858698863
 30
0.0
 11
221.3216050665675141
 21
139.3654385653628083
 31
0.0
  0
LINE
  5
B5
  8
0
 10
229.5216051068005925
 20
139.3654385653628083
 30
0.0
 11
229.5216051068005925
 21
139.7654378858698863
 31
0.0
  0
ARC
  5
B6
  8
0
 10
128.6787790695892966
 20
85.8004874720788138
 30
0.0
 40
0.200000000000017
 50
0.0
 51
90.0
  0
ARC
  5
B7
  8
0
 10
109.0787790695894017
 20
85.8004874720788138
 30
0.0
 40
0.2000000000000028
 50
90.0
 51
180.0
  0
LINE
  5
B8
  8
0
 10
117.5287790345716985
 20
84.7004874825096294
 30
0.0
 11
117.5287790345716985
 21
83.5004876583433173
 31
0.0
  0
LINE
  5
B9
  8
0
 10
120.2287791046070993
 20
84.7004874825096294
 30
0.0
 11
120.2287791046070993
 21
83.5004876583433173
 31
0.0
  0
LINE
  5
BA
  8
0
 10
120.2287791046070993
 20
84.7004874825096294
 30
0.0
 11
131.0287789190876993
 21
84.7004874825096294
 31
0.0
  0
LINE
  5
BB
  8
0
 10
106.7287792200910985
 20
84.7004874825096294
 30
0.0
 11
117.5287790345716985
 21
84.7004874825096294
 31
0.0
  0
LINE
  5
BC
  8
0
 10
128.8787788460720094
 20
84.850487227699773
 30
0.0
 11
108.8787792931068026
 21
84.850487227699773
 31
0.0
  0
LINE
  5
BD
  8
0
 10
109.0787789533603984
 20
86.0004871368026897
 30
0.0
 11
128.678779185818513
 21
86.0004871368026897
 31
0.0
  0
ARC
  5
BF
  8
0
 10
113.3787790695893989
 20
75.9346612232851044
 30
0.0
 40
0.5
 50
165.0000000000003979
 51
180.0
  0
LINE
  5
C0
  8
0
 10
112.8787790174353063
 20
75.9346610150849841
 30
0.0
 11
112.8787790174353063
 21
71.0004874720788024
 31
0.0
  0
LINE
  5
C1
  8
0
 10
114.3787792633044944
 20
80.0004870846486114
 30
0.0
 11
114.3787792633044944
 21
71.0004874720788024
 31
0.0
  0
LINE
  5
C2
  8
0
 10
113.9505757699478039
 20
80.0004870846486114
 30
0.0
 11
112.8958161669541056
 21
76.0640706151342414
 31
0.0
  0
LINE
  5
C3
  8
0
 10
123.3787788758743034
 20
80.0004870846486114
 30
0.0
 11
123.3787788758743034
 21
71.0004874720788024
 31
0.0
  0
LINE
  5
C4
  8
0
 10
124.8617419722247064
 20
76.0640706151342414
 30
0.0
 11
123.8069823692309939
 21
80.0004870846486114
 31
0.0
  0
ARC
  5
C5
  8
0
 10
124.3787790695893989
 20
75.9346612232851044
 30
0.0
 40
0.5
 50
0.0
 51
14.9999999999995595
  0
LINE
  5
C6
  8
0
 10
124.8787791217435057
 20
75.9346610150849841
 30
0.0
 11
124.8787791217435057
 21
71.0004874720788024
 31
0.0
  0
LINE
  5
C8
  8
0
 10
88.8787797401417237
 20
71.000487472078774
 30
0.0
 11
88.8787797401417237
 21
80.0004870846486114
 31
0.0
  0
LINE
  5
C9
  8
0
 10
88.8787797401417237
 20
80.0004870846486114
 30
0.0
 11
148.878778399037202
 21
80.0004870846486114
 31
0.0
  0
LINE
  5
CA
  8
0
 10
148.878778399037202
 20
80.0004870846486114
 30
0.0
 11
148.878778399037202
 21
71.000487472078774
 31
0.0
  0
LINE
  5
CB
  8
0
 10
83.8787789205778722
 20
71.000487472078774
 30
0.0
 11
83.8787790695894273
 21
85.0004874827224768
 31
0.0
  0
LINE
  5
CC
  8
0
 10
104.8787786374556958
 20
83.6990866094446204
 30
0.0
 11
104.8787786374556958
 21
83.5004876583433173
 31
0.0
  0
LINE
  5
CD
  8
0
 10
104.8787786374556958
 20
83.5004876583433173
 30
0.0
 11
132.8787795017231019
 21
83.5004876583433173
 31
0.0
  0
LINE
  5
CE
  8
0
 10
132.8787795017231019
 20
83.5004876583433173
 30
0.0
 11
132.8787795017231019
 21
83.6990866094446204
 31
0.0
  0
LINE
  5
CF
  8
0
 10
104.8787786374556958
 20
83.6990866094446204
 30
0.0
 11
104.8787786374556958
 21
85.9664128377652332
 31
0.0
  0
LINE
  5
D0
  8
0
 10
132.8787795017231019
 20
85.9664128377652332
 30
0.0
 11
132.8787795017231019
 21
83.6990866094446204
 31
0.0
  0
LINE
  5
D1
  8
0
 10
153.8787792186010108
 20
85.0004879042124912
 30
0.0
 11
153.8787792186010108
 21
71.000487472078774
 31
0.0
  0
ARC
  5
D2
  8
0
 10
84.8787790695894131
 20
85.0004874720787882
 30
0.0
 40
1.0
 50
90.0
 51
179.9999999999996021
  0
LINE
  5
D3
  8
0
 10
104.8787786374556958
 20
86.0004871368026897
 30
0.0
 11
104.8787786374556958
 21
85.9664128377652332
 31
0.0
  0
LINE
  5
D4
  8
0
 10
132.8787795017231019
 20
85.9664128377652332
 30
0.0
 11
132.8787795017231019
 21
86.0004871368026897
 31
0.0
  0
ARC
  5
D5
  8
0
 10
152.8787790695893989
 20
85.0004874720787882
 30
0.0
 40
1.0
 50
0.0
 51
90.0
  0
LINE
  5
D6
  8
0
 10
128.8787788460720094
 20
85.800487476549165
 30
0.0
 11
108.8787792931068026
 21
85.800487476549165
 31
0.0
  0
LINE
  5
D7
  8
0
 10
112.8787790174353063
 20
75.9346610150849841
 30
0.0
 11
88.8787797401417237
 21
75.9346610150849841
 31
0.0
  0
LINE
  5
D8
  8
0
 10
148.878778399037202
 20
75.9346610150849557
 30
0.0
 11
124.8787791217435057
 21
75.9346610150849841
 31
0.0
  0
LINE
  5
D9
  8
0
 10
153.8787792186010108
 20
82.7331607445693038
 30
0.0
 11
83.8787789205778722
 21
82.7331607445693038
 31
0.0
  0
LINE
  5
DA
  8
0
 10
132.8787795017231019
 20
83.6990866094446204
 30
0.0
 11
152.878779094084706
 21
83.6990867514045931
 31
0.0
  0
LINE
  5
DB
  8
0
 10
84.8787790521920442
 20
83.6990867514045931
 30
0.0
 11
104.8787786374556958
 21
83.6990866094446204
 31
0.0
  0
LINE
  5
DC
  8
1
 10
225.4216050866839964
 20
91.0004871368027466
 30
0.0
 11
225.4216050866839964
 21
66.0004874720788735
 31
0.0
  0
LINE
  5
E1
  8
0
 10
253.4216257990248948
 20
85.0004874720788735
 30
0.0
 11
253.4216266632923009
 21
71.0004874720788735
 31
0.0
  0
LINE
  5
E2
  8
0
 10
108.8787792931068026
 20
85.800487476549165
 30
0.0
 11
108.8787792931068026
 21
84.850487227699773
 31
0.0
  0
LINE
  5
E3
  8
0
 10
109.3787793750632034
 20
84.850487227699773
 30
0.0
 11
109.3787793750632034
 21
84.700487482509601
 31
0.0
  0
LINE
  5
E4
  8
0
 10
106.7287792200910985
 20
84.700487482509601
 30
0.0
 11
106.7287792200910985
 21
83.5004876583433173
 31
0.0
  0
LINE
  5
E5
  8
0
 10
128.8787788460720094
 20
85.800487476549165
 30
0.0
 11
128.8787788460720094
 21
84.850487227699773
 31
0.0
  0
LINE
  5
E6
  8
0
 10
128.3787787641155944
 20
84.850487227699773
 30
0.0
 11
128.3787787641155944
 21
84.7004874825096294
 31
0.0
  0
LINE
  5
E7
  8
0
 10
131.0287789190876993
 20
84.7004874825096294
 30
0.0
 11
131.0287789190876993
 21
83.5004876583433173
 31
0.0
  0
ARC
  5
E9
  8
0
 10
84.8787790450940633
 20
82.6990867514045931
 30
0.0
 40
1.0
 50
89.999999593314655
 51
179.9999993901618893
  0
ARC
  5
EA
  8
0
 10
152.878779094084706
 20
82.6990867514045931
 30
0.0
 40
1.0
 50
0.0000006098380859
 51
90.0000004066853307
  0
LINE
  5
EB
  8
1
 10
231.0216051068007062
 20
139.5657823958001984
 30
0.0
 11
219.8216050665675141
 21
139.563212591751892
 31
0.0
  0
LINE
  5
EC
  8
1
 10
198.4216050866839964
 20
167.0654380766046927
 30
0.0
 11
258.4216050866839964
 21
167.0654380766048064
 31
0.0
  0
CIRCLE
  5
ED
  8
0
 10
225.4216050866841101
 20
167.0654380766048064
 30
0.0
 40
4.4999999999999432
  0
CIRCLE
  5
EE
  8
0
 10
225.4216050866841101
 20
167.0654380766048064
 30
0.0
 40
2.0
  0
LINE
  5
EF
  8
0
 10
213.3468384060857943
 20
168.4154381116225068
 30
0.0
 11
215.5131487313508103
 21
168.4154381116225068
 31
0.0
  0
ARC
  5
F0
  8
0
 10
225.4216050866839964
 20
167.0654380766048064
 30
0.0
 40
12.1499999999999702
 50
186.3793702084446124
 51
173.6206297915585992
  0
LINE
  5
F1
  8
0
 10
215.5131487313508103
 20
165.715438041587106
 30
0.0
 11
213.3468384060857943
 21
165.715438041587106
 31
0.0
  0
CIRCLE
  5
F2
  8
0
 10
214.8180153465901014
 20
164.5654380766048064
 30
0.0
 40
0.6999999999999887
  0
CIRCLE
  5
F3
  8
0
 10
225.4216050866841101
 20
167.0654380766048064
 30
0.0
 40
10.0
  0
CIRCLE
  5
F4
  8
0
 10
225.4216050866841101
 20
167.0654380766048064
 30
0.0
 40
9.8000000000000114
  0
CIRCLE
  5
F5
  8
0
 10
214.8180153465901014
 20
164.5654380766048064
 30
0.0
 40
0.6999999999999887
  0
ARC
  5
F6
  8
0
 10
225.4216050866841101
 20
167.0654380766048064
 30
0.0
 40
10.0000000000000497
 50
172.2413801114136049
 51
187.7586198885863098
  0
LINE
  5
F7
  8
1
 10
225.4216050866841101
 20
129.0654380766046927
 30
0.0
 11
225.4216050866839964
 21
205.0654380766048064
 31
0.0
  0
LINE
  5
F9
  8
0
 10
225.4216047822370967
 20
172.8389407685010042
 30
0.0
 11
220.4216050866841101
 21
169.9521894225528911
 31
0.0
  0
LINE
  5
FA
  8
0
 10
220.4216050866841101
 20
169.9521894225528911
 30
0.0
 11
220.4214643501429123
 21
164.1789305072200875
 31
0.0
  0
LINE
  5
FB
  8
0
 10
220.4214643501429123
 20
164.1789305072200875
 30
0.0
 11
225.4216047822374094
 21
161.2919353847084949
 31
0.0
  0
LINE
  5
FC
  8
0
 10
225.4216047822374094
 20
161.2919353847084949
 30
0.0
 11
230.4214643382578913
 21
164.1784429609550102
 31
0.0
  0
LINE
  5
FD
  8
0
 10
230.4214643382578913
 20
164.1784429609550102
 30
0.0
 11
230.4216049749254012
 21
169.9521895104392115
 31
0.0
  0
LINE
  5
FE
  8
0
 10
230.4216049749254012
 20
169.9521895104392115
 30
0.0
 11
225.4218865716514983
 21
172.8389407616392077
 31
0.0
  0
LINE
  5
FF
  8
0
 10
225.4216050866839964
 20
181.0654380766046927
 30
0.0
 11
207.4216058615444069
 21
181.0654380766046927
 31
0.0
  0
LINE
  5
100
  8
0
 10
225.4216050866839964
 20
153.0654380766046927
 30
0.0
 11
207.4216058615444069
 21
153.0654380766046927
 31
0.0
  0
LINE
  5
101
  8
0
 10
243.5603869732836984
 20
202.0654380766048064
 30
0.0
 11
209.4216050467439914
 21
202.0654380766048064
 31
0.0
  0
LINE
  5
102
  8
0
 10
218.6716050866839964
 20
194.3654380766047041
 30
0.0
 11
218.6716051296943988
 21
202.0654382156278928
 31
0.0
  0
LINE
  5
103
  8
0
 10
232.1716050866841101
 20
194.3654380766047041
 30
0.0
 11
232.1716051296945977
 21
202.0654381402198965
 31
0.0
  0
LINE
  5
104
  8
0
 10
243.5603869732836984
 20
132.0654380766046927
 30
0.0
 11
209.4216050866839964
 21
132.0654380766046927
 31
0.0
  0
LINE
  5
105
  8
0
 10
232.1716050866841101
 20
139.7654380766047097
 30
0.0
 11
232.1716050866839964
 21
132.0654380766046927
 31
0.0
  0
LINE
  5
106
  8
0
 10
218.6716050866839964
 20
139.7654380766047097
 30
0.0
 11
218.6716050866839112
 21
132.0654380766046927
 31
0.0
  0
CIRCLE
  5
107
  8
0
 10
225.4216050866839964
 20
167.0654380766048064
 30
0.0
 40
5.7735026918962049
  0
CIRCLE
  5
108
  8
0
 10
214.8180153465901014
 20
169.5654380766048064
 30
0.0
 40
0.6999999999999887
  0
CIRCLE
  5
109
  8
0
 10
214.8180153465901014
 20
169.5654380766048064
 30
0.0
 40
0.6999999999999887
  0
LINE
  5
10A
  8
0
 10
152.8787790695893989
 20
86.000487472078774
 30
0.0
 11
84.8787790695894131
 21
86.000487472078774
 31
0.0
  0
LINE
  5
10B
  8
0
 10
153.8787792186010108
 20
71.000487472078774
 30
0.0
 11
83.8787789205778722
 21
71.000487472078774
 31
0.0
  0
TEXT
  5
1CA
  8
0
 62
     3
 10
0.0
 20
0.0
 30
0.0
 40
10.0
  1
QLSCL15NR
  7
STANDARD1
  0
LINE
  5
1EE
  8
0
 10
203.4216050866839964
 20
71.0004874720788735
 30
0.0
 11
207.4216265738853053
 21
71.0004874720788735
 31
0.0
  0
LINE
  5
238
  8
0
 10
204.9216050866839964
 20
162.5654380766048064
 30
0.0
 11
204.9216050866839964
 21
171.5654380766046927
 31
0.0
  0
LINE
  5
242
  8
0
 10
203.4216050866839964
 20
173.0654380766046927
 30
0.0
 11
204.9216050866839964
 21
171.5654380766046927
 31
0.0
  0
LINE
  5
243
  8
0
 10
204.9216050866839964
 20
162.5654380766046927
 30
0.0
 11
203.4216050866839964
 21
161.0654380766048064
 31
0.0
  0
ENDSEC
  0
EOF
