  0
SECTION
  2
HEADER
  9
$ACADVER
  1
AC1009
  9
$INSBASE
 10
0.0
 20
0.0
 30
0.0
  9
$EXTMIN
 10
0.0
 20
-2.960436562073669
 30
0.0
  9
$EXTMAX
 10
358.3076358155785215
 20
218.178458622866998
 30
0.0
  9
$LIMMIN
 10
0.0
 20
0.0
  9
$LIMMAX
 10
420.0
 20
297.0
  9
$ORTHOMODE
 70
     1
  9
$REGENMODE
 70
     1
  9
$FILLMODE
 70
     1
  9
$QTEXTMODE
 70
     0
  9
$MIRRTEXT
 70
     0
  9
$DRAGMODE
 70
     2
  9
$LTSCALE
 40
10.0
  9
$OSMODE
 70
    37
  9
$ATTMODE
 70
     1
  9
$TEXTSIZE
 40
2.5
  9
$TRACEWID
 40
1.0
  9
$TEXTSTYLE
  7
STANDARD
  9
$CLAYER
  8
0
  9
$CELTYPE
  6
BYLAYER
  9
$CECOLOR
 62
   256
  9
$DIMSCALE
 40
1.0
  9
$DIMASZ
 40
2.5
  9
$DIMEXO
 40
0.625
  9
$DIMDLI
 40
3.75
  9
$DIMRND
 40
0.0
  9
$DIMDLE
 40
0.0
  9
$DIMEXE
 40
1.25
  9
$DIMTP
 40
0.0
  9
$DIMTM
 40
0.0
  9
$DIMTXT
 40
2.5
  9
$DIMCEN
 40
2.5
  9
$DIMTSZ
 40
0.0
  9
$DIMTOL
 70
     0
  9
$DIMLIM
 70
     0
  9
$DIMTIH
 70
     0
  9
$DIMTOH
 70
     0
  9
$DIMSE1
 70
     0
  9
$DIMSE2
 70
     0
  9
$DIMTAD
 70
     1
  9
$DIMZIN
 70
     8
  9
$DIMBLK
  1

  9
$DIMASO
 70
     1
  9
$DIMSHO
 70
     1
  9
$DIMPOST
  1

  9
$DIMAPOST
  1

  9
$DIMALT
 70
     0
  9
$DIMALTD
 70
     3
  9
$DIMALTF
 40
0.03937007874016
  9
$DIMLFAC
 40
1.0
  9
$DIMTOFL
 70
     1
  9
$DIMTVP
 40
0.0
  9
$DIMTIX
 70
     0
  9
$DIMSOXD
 70
     0
  9
$DIMSAH
 70
     0
  9
$DIMBLK1
  1

  9
$DIMBLK2
  1

  9
$DIMSTYLE
  2
ISO-25
  9
$DIMCLRD
 70
     0
  9
$DIMCLRE
 70
     0
  9
$DIMCLRT
 70
     0
  9
$DIMTFAC
 40
1.0
  9
$DIMGAP
 40
0.625
  9
$LUNITS
 70
     2
  9
$LUPREC
 70
     4
  9
$SKETCHINC
 40
1.0
  9
$FILLETRAD
 40
0.0
  9
$AUNITS
 70
     0
  9
$AUPREC
 70
     0
  9
$MENU
  1
.
  9
$ELEVATION
 40
0.0
  9
$PELEVATION
 40
0.0
  9
$THICKNESS
 40
0.0
  9
$LIMCHECK
 70
     0
  9
$BLIPMODE
 70
     0
  9
$CHAMFERA
 40
0.0
  9
$CHAMFERB
 40
0.0
  9
$SKPOLY
 70
     0
  9
$TDCREATE
 40
2454083.4444560189731419
  9
$TDUPDATE
 40
2460158.591666666790843
  9
$TDINDWG
 40
0.2184851389
  9
$TDUSRTIMER
 40
0.2184851389
  9
$USRTIMER
 70
     1
  9
$ANGBASE
 50
0.0
  9
$ANGDIR
 70
     0
  9
$PDMODE
 70
     0
  9
$PDSIZE
 40
0.0
  9
$PLINEWID
 40
0.0
  9
$COORDS
 70
     1
  9
$SPLFRAME
 70
     0
  9
$SPLINETYPE
 70
     6
  9
$SPLINESEGS
 70
     8
  9
$ATTDIA
 70
     1
  9
$ATTREQ
 70
     1
  9
$HANDLING
 70
     1
  9
$HANDSEED
  5
4C51
  9
$SURFTAB1
 70
     6
  9
$SURFTAB2
 70
     6
  9
$SURFTYPE
 70
     6
  9
$SURFU
 70
     6
  9
$SURFV
 70
     6
  9
$UCSNAME
  2

  9
$UCSORG
 10
0.0
 20
0.0
 30
0.0
  9
$UCSXDIR
 10
1.0
 20
0.0
 30
0.0
  9
$UCSYDIR
 10
0.0
 20
1.0
 30
0.0
  9
$PUCSNAME
  2

  9
$PUCSORG
 10
0.0
 20
0.0
 30
0.0
  9
$PUCSXDIR
 10
1.0
 20
0.0
 30
0.0
  9
$PUCSYDIR
 10
0.0
 20
1.0
 30
0.0
  9
$USERI1
 70
     0
  9
$USERI2
 70
     0
  9
$USERI3
 70
     0
  9
$USERI4
 70
     0
  9
$USERI5
 70
     0
  9
$USERR1
 40
0.0
  9
$USERR2
 40
0.0
  9
$USERR3
 40
0.0
  9
$USERR4
 40
0.0
  9
$USERR5
 40
0.0
  9
$WORLDVIEW
 70
     1
  9
$SHADEDGE
 70
     3
  9
$SHADEDIF
 70
    70
  9
$TILEMODE
 70
     1
  9
$MAXACTVP
 70
    64
  9
$PLIMCHECK
 70
     0
  9
$PEXTMIN
 10
0.0
 20
0.0
 30
0.0
  9
$PEXTMAX
 10
0.0
 20
0.0
 30
0.0
  9
$PLIMMIN
 10
0.0
 20
0.0
  9
$PLIMMAX
 10
12.0
 20
9.0
  9
$UNITMODE
 70
     0
  9
$VISRETAIN
 70
     1
  9
$PLINEGEN
 70
     0
  9
$PSLTSCALE
 70
     1
  0
ENDSEC
  0
SECTION
  2
TABLES
  0
TABLE
  2
VPORT
 70
     1
  0
VPORT
  2
*ACTIVE
 70
     0
 10
0.0
 20
0.0
 11
1.0
 21
1.0
 12
197.0395955900440867
 22
107.6122438197940028
 13
0.0
 23
0.0
 14
10.0
 24
10.0
 15
10.0
 25
10.0
 16
0.0
 26
0.0
 36
1.0
 17
0.0
 27
0.0
 37
0.0
 40
223.0076964780726883
 41
2.325609756097561
 42
50.0
 43
0.0
 44
0.0
 50
0.0
 51
0.0
 71
     0
 72
  1000
 73
     1
 74
     3
 75
     0
 76
     0
 77
     0
 78
     0
  0
ENDTAB
  0
TABLE
  2
LTYPE
 70
     2
  0
LTYPE
  2
CONTINUOUS
 70
     0
  3
Solid line
 72
    65
 73
     0
 40
0.0
  0
LTYPE
  2
CENTER
 70
     0
  3
____ _ ____ _ ____ _ ____ _ ____ _ ____ _ ____
 72
    65
 73
     4
 40
2.0
 49
1.25
 49
-0.25
 49
0.25
 49
-0.25
  0
ENDTAB
  0
TABLE
  2
LAYER
 70
     4
  0
LAYER
  2
0
 70
     0
 62
     7
  6
CONTINUOUS
  0
LAYER
  2
DEFPOINTS
 70
     0
 62
     7
  6
CONTINUOUS
  0
LAYER
  2
1
 70
     0
 62
     1
  6
CENTER
  0
LAYER
  2
3
 70
     0
 62
     3
  6
CONTINUOUS
  0
ENDTAB
  0
TABLE
  2
STYLE
 70
     2
  0
STYLE
  2
STANDARD
 70
     0
 40
0.0
 41
1.0
 50
0.0
 71
     0
 42
2.5
  3
txt
  4

  0
STYLE
  2
STANDARD1
 70
     0
 40
0.0
 41
1.0
 50
0.0
 71
     0
 42
3.0
  3
txt
  4

  0
ENDTAB
  0
TABLE
  2
VIEW
 70
     0
  0
ENDTAB
  0
TABLE
  2
UCS
 70
     0
  0
ENDTAB
  0
TABLE
  2
APPID
 70
    41
  0
APPID
  2
ACAD
 70
     0
  0
APPID
  2
_FTCNV
 70
     0
  0
APPID
  2
DCO15
 70
     0
  0
APPID
  2
GENIUS_GENOREF_13
 70
     0
  0
APPID
  2
GENIUS_GENOENT_13
 70
     0
  0
APPID
  2
GENIUS_GENBH_13
 70
     0
  0
APPID
  2
GENIUS_GENOBJ_13
 70
     0
  0
APPID
  2
GENIUS_GENODEF_13
 70
     0
  0
APPID
  2
GENIUS_GENOLIS_13
 70
     0
  0
APPID
  2
GENIUS_GENOBJ-NBEHI-BHF_13
 70
     0
  0
APPID
  2
GENIUS_GENOBJ-NBEHI-BHB_13
 70
     0
  0
APPID
  2
GENIUS_GENOBJ-F-PART_13
 70
     0
  0
APPID
  2
GENIUS_GEFSTDP_13
 70
     0
  0
APPID
  2
GENIUS_GENOBJ-N-RSSYM_13
 70
     0
  0
APPID
  2
GENIUS_GENSYMENT_13
 70
     0
  0
APPID
  2
GENIUS_GENOBJ-N-TIT_13
 70
     0
  0
APPID
  2
GENIUS_GENTITLE_13
 70
     0
  0
APPID
  2
GENIUS_GENZVEED_13
 70
     0
  0
APPID
  2
GENIUS_GENOBJ-N-LEADER_13
 70
     0
  0
APPID
  2
GENIUS_GENOBJ-N-FIL_13
 70
     0
  0
APPID
  2
GENIUS_GENOBJ-N-SEC_13
 70
     0
  0
APPID
  2
GENIUS_GENOBJ-N-CRS_13
 70
     0
  0
APPID
  2
GENIUS_GENOBJ-N-ZOO_13
 70
     0
  0
APPID
  2
GENIUS_GENZOO_13
 70
     0
  0
APPID
  2
GENIUS_GENOBJ-F-TOL_13
 70
     0
  0
APPID
  2
GENIUS_GENFIL_13
 70
     0
  0
APPID
  2
GENIUS_GENOBJ-N-CHA_13
 70
     0
  0
APPID
  2
_CALL_MAC$
 70
     0
  0
APPID
  2
ASM_BASE
 70
     0
  0
APPID
  2
ASM_EXPLO_VER_2_00
 70
     0
  0
APPID
  2
ASM_CADM_VER_12_00
 70
     0
  0
APPID
  2
ASM_BASEFORO
 70
     0
  0
APPID
  2
ASM_BASETRAVI
 70
     0
  0
APPID
  2
ASM_BASETRAVI1
 70
     0
  0
APPID
  2
ASM_GRUPPI
 70
     0
  0
APPID
  2
ASM_CADM_ALBERO
 70
     0
  0
APPID
  2
ASM_GOLE
 70
     0
  0
APPID
  2
ACAD_MLEADERVER
 70
     0
  0
APPID
  2
ACAD_NAV_VCDISPLAY
 70
     0
  0
APPID
  2
ACAD_EXEMPT_FROM_CAD_STANDARDS
 70
     0
  0
APPID
  2
ACAD_DSTYLE_DIMRADIAL_EXTENSION
 70
     0
  0
ENDTAB
  0
TABLE
  2
DIMSTYLE
 70
     2
  0
DIMSTYLE
  2
ISO-25
 70
     0
  3

  4

  5

  6

  7

 40
1.0
 41
2.5
 42
0.625
 43
3.75
 44
1.25
 45
0.0
 46
0.0
 47
0.0
 48
0.0
140
2.5
141
2.5
142
0.0
143
0.03937007874016
144
1.0
145
0.0
146
1.0
147
0.625
 71
     0
 72
     0
 73
     0
 74
     0
 75
     0
 76
     0
 77
     1
 78
     8
170
     0
171
     3
172
     1
173
     0
174
     0
175
     0
176
     0
177
     0
178
     0
  0
DIMSTYLE
  2
STANDARD
 70
     0
  3

  4

  5

  6

  7

 40
1.0
 41
0.18
 42
0.0625
 43
0.38
 44
0.18
 45
0.0
 46
0.0
 47
0.0
 48
0.0
140
0.18
141
0.09
142
0.0
143
25.3999999999999986
144
1.0
145
0.0
146
1.0
147
0.09
 71
     0
 72
     0
 73
     1
 74
     1
 75
     0
 76
     0
 77
     0
 78
     0
170
     0
171
     2
172
     0
173
     0
174
     0
175
     0
176
     0
177
     0
178
     0
  0
ENDTAB
  0
ENDSEC
  0
SECTION
  2
BLOCKS
  0
BLOCK
  8
0
  2
$MODEL_SPACE
 70
     0
 10
0.0
 20
0.0
 30
0.0
  3
$MODEL_SPACE
  1

  0
ENDBLK
  5
21
  8
0
  0
BLOCK
 67
     1
  8
0
  2
$PAPER_SPACE
 70
     0
 10
0.0
 20
0.0
 30
0.0
  3
$PAPER_SPACE
  1

  0
ENDBLK
  5
53
 67
     1
  8
0
  0
ENDSEC
  0
SECTION
  2
ENTITIES
  0
LINE
  5
3489
  8
0
 10
342.8470792696778062
 20
99.878457333916657
 30
0.0
 11
342.8745811957189744
 21
100.1784573339165973
 31
0.0
  0
ARC
  5
348A
  8
0
 10
341.2245811957188835
 20
100.1784573339165973
 30
0.0
 40
1.6499999999999699
 50
169.5243183036060941
 51
190.475681696390609
  0
LINE
  5
348B
  8
0
 10
342.8745811957189744
 20
100.1784573339165973
 30
0.0
 11
342.8470792696778062
 21
100.478457333916694
 31
0.0
  0
ARC
  5
348E
  8
0
 10
341.3363500368238874
 20
100.1784573339165973
 30
0.0
 40
2.352656429196986
 50
92.7230045724929539
 51
267.2769954275037776
  0
ARC
  5
348F
  8
0
 10
341.1057999801445249
 20
100.1784573339165973
 30
0.0
 40
2.352999995149446
 50
272.8935640277318271
 51
87.1064359722681729
  0
ARC
  5
3490
  8
0
 10
341.2245811957188835
 20
100.1784573339165973
 30
0.0
 40
2.000000000000052
 50
188.6269265586768995
 51
351.3730734413230721
  0
LINE
  5
3491
  8
0
 10
339.2472092023904224
 20
99.878457333916657
 30
0.0
 11
343.201953189047515
 21
99.8784573339167139
 31
0.0
  0
ARC
  5
3492
  8
0
 10
341.2245811957188835
 20
100.1784573339165973
 30
0.0
 40
2.0000000000000608
 50
8.6269265586809798
 51
171.3730734413190078
  0
LINE
  5
3493
  8
0
 10
339.2472092023904224
 20
100.478457333916694
 30
0.0
 11
343.201953189047515
 21
100.478457333916694
 31
0.0
  0
LINE
  5
34BA
  8
0
 10
143.4817973527279946
 20
94.1784573339166684
 30
0.0
 11
148.8705946090786085
 21
94.1784573339166826
 31
0.0
  0
LINE
  5
34BB
  8
0
 10
143.2817973527278923
 20
93.9784573339166229
 30
0.0
 11
143.4817973527279946
 21
94.1784573339166684
 31
0.0
  0
LINE
  5
34BC
  8
0
 10
143.2817973527278923
 20
93.9784573339166229
 30
0.0
 11
148.8705946090784948
 21
93.9784573339166229
 31
0.0
  0
LINE
  5
34C1
  8
0
 10
173.08179735272779
 20
94.1784573339166684
 30
0.0
 11
167.6930000963774887
 21
94.1784573339166826
 31
0.0
  0
LINE
  5
34DB
  8
0
 10
173.281797352727807
 20
93.9784573339166229
 30
0.0
 11
167.6930000963774887
 21
93.9784573339166229
 31
0.0
  0
LINE
  5
34E9
  8
0
 10
173.281797352727807
 20
93.9784573339166229
 30
0.0
 11
173.08179735272779
 21
94.1784573339166684
 31
0.0
  0
LINE
  5
34EA
  8
0
 10
73.900622390239505
 20
93.9784500660562969
 30
0.0
 11
73.7006223902395732
 21
94.1784500660563424
 31
0.0
  0
LINE
  5
3513
  8
1
 10
152.781797352727807
 20
173.1784589581432101
 30
0.0
 11
163.781797352727807
 21
173.1784589581432101
 31
0.0
  0
CIRCLE
  5
3516
  8
0
 10
158.281797352727807
 20
198.1784589581430112
 30
0.0
 40
15.0
  0
LINE
  5
3517
  8
1
 10
178.2817970174517086
 20
198.1784589581428975
 30
0.0
 11
138.2817976880039055
 21
198.1784589581432101
 31
0.0
  0
LINE
  5
3518
  8
1
 10
158.281797352727807
 20
218.178458622866998
 30
0.0
 11
158.281797352727807
 21
161.1784574382247968
 31
0.0
  0
LINE
  5
3519
  8
0
 10
159.8515684871705957
 20
197.4464626566017103
 30
0.0
 11
159.7006103125602863
 21
199.1719224879273895
 31
0.0
  0
LINE
  5
351A
  8
0
 10
159.7006103125602863
 20
199.1719224879273895
 30
0.0
 11
158.1308391781174976
 21
199.9039187894686904
 31
0.0
  0
LINE
  5
351B
  8
0
 10
158.1308391781174976
 20
199.9039187894686904
 30
0.0
 11
156.7120262182849899
 21
198.9104552596843973
 31
0.0
  0
LINE
  5
351C
  8
0
 10
156.7120262182849899
 20
198.9104552596843973
 30
0.0
 11
156.8629843928954131
 21
197.1849954283586897
 31
0.0
  0
LINE
  5
351D
  8
0
 10
156.8629843928954131
 20
197.1849954283586897
 30
0.0
 11
158.4327555273382018
 21
196.4529991268173887
 31
0.0
  0
LINE
  5
351E
  8
0
 10
158.4327555273382018
 20
196.4529991268173887
 30
0.0
 11
159.8515684871705957
 21
197.4464626566017103
 31
0.0
  0
CIRCLE
  5
351F
  8
0
 10
158.281797352727807
 20
198.1784589581430112
 30
0.0
 40
3.750000000000036
  0
CIRCLE
  5
3520
  8
0
 10
158.281797352727807
 20
198.1784589581430112
 30
0.0
 40
4.2500000000000311
  0
CIRCLE
  5
3521
  8
0
 10
158.281797352727807
 20
198.1784589581430112
 30
0.0
 40
14.0000000000000195
  0
CIRCLE
  5
3522
  8
0
 10
158.281797352727807
 20
198.1784589581430112
 30
0.0
 40
5.2500000000000053
  0
CIRCLE
  5
3523
  8
0
 10
158.281797352727807
 20
198.1784589581430112
 30
0.0
 40
4.7499999999999982
  0
LINE
  5
35E8
  8
0
 10
326.4245811912484214
 20
94.1784500610038151
 30
0.0
 11
326.2245815309948966
 21
93.9784500660562401
 31
0.0
  0
LINE
  5
35E9
  8
0
 10
356.2245808604425861
 20
93.9784500660562401
 30
0.0
 11
356.0245812001891181
 21
94.1784500610038151
 31
0.0
  0
LINE
  5
35EA
  8
0
 10
356.0245739272885999
 20
94.1784573339166684
 30
0.0
 11
326.4245884641489965
 21
94.1784573339166684
 31
0.0
  0
LINE
  5
35EB
  8
0
 10
326.2245815309947261
 20
93.9784500660562401
 30
0.0
 11
356.2245808604425861
 21
93.9784500660562401
 31
0.0
  0
LINE
  5
3645
  8
0
 10
354.7245811957191108
 20
60.6784573339167181
 30
0.0
 11
354.2245811957191108
 21
60.1784573339167324
 31
0.0
  0
LINE
  5
3646
  8
0
 10
328.2245811957189972
 20
60.1784573339167324
 30
0.0
 11
327.7245811957189972
 21
60.6784573339167181
 31
0.0
  0
LINE
  5
3647
  8
0
 10
327.7245811957189972
 20
60.6784573339167181
 30
0.0
 11
327.7245811957191108
 21
67.178450061003872
 31
0.0
  0
LINE
  5
3648
  8
0
 10
354.7245811957192245
 20
67.1784646068296354
 30
0.0
 11
354.7245811957191108
 21
60.6784573339167181
 31
0.0
  0
LINE
  5
3649
  8
0
 10
328.2245811957189972
 20
60.1784573339167324
 30
0.0
 11
354.2245811957191108
 21
60.1784573339167324
 31
0.0
  0
LINE
  5
364A
  8
0
 10
354.7245811957191108
 20
60.6784573339167181
 30
0.0
 11
327.7245811957189972
 21
60.6784573339167181
 31
0.0
  0
LINE
  5
364B
  8
1
 10
341.2245811957189972
 20
55.1784573339167324
 30
0.0
 11
341.2245811957189972
 21
121.1784574382247968
 31
0.0
  0
LINE
  5
364C
  8
0
 10
326.224581530995124
 20
93.9784500660562401
 30
0.0
 11
326.224581530995124
 21
67.378450883547913
 31
0.0
  0
LINE
  5
364D
  8
0
 10
326.4245811912485919
 20
67.178449360649239
 30
0.0
 11
326.224581530995124
 21
67.378450883547913
 31
0.0
  0
LINE
  5
364E
  8
0
 10
326.4245811912485919
 20
67.178449360649239
 30
0.0
 11
356.0245971465844832
 21
67.1784653071927949
 31
0.0
  0
LINE
  5
364F
  8
0
 10
356.2245808604429271
 20
67.378450883547913
 30
0.0
 11
356.0245812001892887
 21
67.178449360649239
 31
0.0
  0
LINE
  5
3650
  8
0
 10
356.2245808604429271
 20
67.378450883547913
 30
0.0
 11
356.2245808604429271
 21
93.9784500660562969
 31
0.0
  0
LINE
  5
3651
  8
0
 10
326.224581530995124
 20
67.378450883547913
 30
0.0
 11
356.2245808604429271
 21
67.3784508835479699
 31
0.0
  0
LINE
  5
365B
  8
0
 10
43.9006230607917516
 20
67.378450883547913
 30
0.0
 11
73.900622390239505
 21
67.3784508835479699
 31
0.0
  0
LINE
  5
365C
  8
0
 10
73.900622390239505
 20
93.9784500660562969
 30
0.0
 11
43.9006230607917516
 21
93.9784500660561832
 31
0.0
  0
LINE
  5
365E
  8
0
 10
73.900622390239505
 20
67.378450883547913
 30
0.0
 11
73.900622390239505
 21
93.9784500660562969
 31
0.0
  0
LINE
  5
365F
  8
0
 10
73.900622390239505
 20
67.378450883547913
 30
0.0
 11
73.7006227299859802
 21
67.178449360649239
 31
0.0
  0
LINE
  5
3660
  8
0
 10
44.1006227210452835
 20
67.178449360649239
 30
0.0
 11
73.7006386763810042
 21
67.1784653071927949
 31
0.0
  0
LINE
  5
3661
  8
0
 10
44.1006227210452835
 20
67.178449360649239
 30
0.0
 11
43.9006230607917516
 21
67.378450883547913
 31
0.0
  0
LINE
  5
3662
  8
0
 10
43.9006230607917516
 20
93.9784500660561832
 30
0.0
 11
43.9006230607917516
 21
67.378450883547913
 31
0.0
  0
LINE
  5
3663
  8
0
 10
43.9006230607917516
 20
93.9784500660561832
 30
0.0
 11
44.1006227210452835
 21
94.1784500610037583
 31
0.0
  0
LINE
  5
3665
  8
1
 10
58.9006227255156318
 20
55.1784573339167324
 30
0.0
 11
58.9006227255156318
 21
121.1784574382247968
 31
0.0
  0
LINE
  5
3666
  8
0
 10
72.4006227255156318
 20
60.6784573339167181
 30
0.0
 11
45.4006227255156318
 21
60.6784573339167181
 31
0.0
  0
LINE
  5
3667
  8
0
 10
45.9006227255156318
 20
60.1784573339167324
 30
0.0
 11
71.9006227255156318
 21
60.1784573339167324
 31
0.0
  0
LINE
  5
3668
  8
0
 10
72.4006227255157455
 20
67.1784646068296354
 30
0.0
 11
72.4006227255156318
 21
60.6784573339167181
 31
0.0
  0
LINE
  5
3669
  8
0
 10
45.4006227255156318
 20
60.6784573339167181
 30
0.0
 11
45.4006227255156318
 21
67.178450061003872
 31
0.0
  0
LINE
  5
366A
  8
0
 10
45.9006227255156318
 20
60.1784573339167324
 30
0.0
 11
45.4006227255156318
 21
60.6784573339167181
 31
0.0
  0
LINE
  5
366B
  8
0
 10
72.4006227255156318
 20
60.6784573339167181
 30
0.0
 11
71.9006227255156318
 21
60.1784573339167324
 31
0.0
  0
LINE
  5
367B
  8
0
 10
173.281797352728006
 20
115.1784574382247968
 30
0.0
 11
173.2817973527278923
 21
107.1784574382248962
 31
0.0
  0
LINE
  5
367C
  8
0
 10
173.2817973527278923
 20
107.1784574382248962
 30
0.0
 11
172.2817973527278923
 21
106.1784574382248962
 31
0.0
  0
LINE
  5
367D
  8
0
 10
172.281797352728006
 20
116.1784574382248962
 30
0.0
 11
173.281797352728006
 21
115.1784574382247968
 31
0.0
  0
LINE
  5
3685
  8
0
 10
144.281797352727807
 20
116.1784574382248962
 30
0.0
 11
143.281797352727807
 21
115.1784574382247968
 31
0.0
  0
LINE
  5
3686
  8
0
 10
143.281797352727807
 20
115.1784574382247968
 30
0.0
 11
143.2817973527278923
 21
107.1784574382248962
 31
0.0
  0
LINE
  5
3687
  8
0
 10
143.2817973527278923
 20
107.1784574382248962
 30
0.0
 11
144.2817973527278923
 21
106.1784574382248962
 31
0.0
  0
LINE
  5
3688
  8
0
 10
144.281797352727807
 20
116.1784574382248962
 30
0.0
 11
172.2817973527278923
 21
116.1784574382247968
 31
0.0
  0
LINE
  5
3689
  8
0
 10
173.281797352728006
 20
115.1784574382247968
 30
0.0
 11
143.281797352727807
 21
115.1784574382247968
 31
0.0
  0
LINE
  5
368A
  8
0
 10
143.2817973527278923
 20
107.1784574382248962
 30
0.0
 11
173.2817973527278923
 21
107.1784574382248962
 31
0.0
  0
LINE
  5
368B
  8
0
 10
244.1629719799402096
 20
60.6784573339167821
 30
0.0
 11
244.6629719799402096
 21
60.1784573339167821
 31
0.0
  0
LINE
  5
368C
  8
0
 10
270.6629719799403233
 20
60.1784573339167821
 30
0.0
 11
271.1629719799403233
 21
60.6784573339167821
 31
0.0
  0
LINE
  5
368D
  8
0
 10
271.1629719799403233
 20
60.6784573339167821
 30
0.0
 11
271.1629719799402096
 21
67.1784500610039288
 31
0.0
  0
LINE
  5
368E
  8
0
 10
244.1629719799400107
 20
67.1784646068296354
 30
0.0
 11
244.1629719799402096
 21
60.6784573339167821
 31
0.0
  0
LINE
  5
368F
  8
0
 10
270.6629719799403233
 20
60.1784573339167821
 30
0.0
 11
244.6629719799402096
 21
60.1784573339167821
 31
0.0
  0
LINE
  5
3690
  8
0
 10
244.1629719799402096
 20
60.6784573339167821
 30
0.0
 11
271.1629719799403233
 21
60.6784573339167821
 31
0.0
  0
LINE
  5
3691
  8
1
 10
257.6629719799403233
 20
55.1784573339167821
 30
0.0
 11
257.6629719799400959
 21
121.1784574382248962
 31
0.0
  0
LINE
  5
3692
  8
0
 10
242.8629719754698044
 20
94.1784500610038151
 30
0.0
 11
272.4629719844106148
 21
94.1784500610038151
 31
0.0
  0
LINE
  5
3693
  8
0
 10
272.6629716446640828
 20
93.9784500660562401
 30
0.0
 11
272.4629719844106148
 21
94.1784500610038151
 31
0.0
  0
LINE
  5
3694
  8
0
 10
272.6629716446640828
 20
93.9784500660562401
 30
0.0
 11
272.6629716446640828
 21
67.378450883547913
 31
0.0
  0
LINE
  5
3695
  8
0
 10
272.4629719844106148
 20
67.178449360649239
 30
0.0
 11
272.6629716446640828
 21
67.378450883547913
 31
0.0
  0
LINE
  5
3696
  8
0
 10
272.4629719844106148
 20
67.178449360649239
 30
0.0
 11
242.8629560290748088
 21
67.1784653071928517
 31
0.0
  0
LINE
  5
3697
  8
0
 10
242.6629723152163933
 20
67.378450883547913
 30
0.0
 11
242.8629719754698897
 21
67.178449360649239
 31
0.0
  0
LINE
  5
3698
  8
0
 10
242.6629723152163933
 20
67.378450883547913
 30
0.0
 11
242.6629723152163933
 21
93.9784500660563538
 31
0.0
  0
LINE
  5
3699
  8
0
 10
242.8629719754698897
 20
94.1784500610039146
 30
0.0
 11
242.6629723152163933
 21
93.9784500660563538
 31
0.0
  0
LINE
  5
369A
  8
0
 10
242.6629723152163933
 20
93.9784500660563538
 30
0.0
 11
272.6629716446640828
 21
93.9784500660562401
 31
0.0
  0
LINE
  5
369B
  8
0
 10
272.6629716446640828
 20
67.378450883547913
 30
0.0
 11
242.6629723152163933
 21
67.3784508835480267
 31
0.0
  0
LINE
  5
369C
  8
0
 10
173.2817970174517939
 20
67.378450883547913
 30
0.0
 11
143.2817976880041044
 21
67.3784508835479699
 31
0.0
  0
LINE
  5
369D
  8
0
 10
143.2817976880041044
 20
67.378450883547913
 30
0.0
 11
143.2817976880041044
 21
93.9784500660562969
 31
0.0
  0
LINE
  5
369E
  8
0
 10
143.2817976880041044
 20
67.378450883547913
 30
0.0
 11
143.4817973482576008
 21
67.178449360649239
 31
0.0
  0
LINE
  5
369F
  8
0
 10
173.0817973571982975
 20
67.178449360649239
 30
0.0
 11
143.4817814018624063
 21
67.1784653071927949
 31
0.0
  0
LINE
  5
36A0
  8
0
 10
173.0817973571982975
 20
67.178449360649239
 30
0.0
 11
173.2817970174517939
 21
67.378450883547913
 31
0.0
  0
LINE
  5
36A1
  8
0
 10
173.2817970174517939
 20
93.9784500660562401
 30
0.0
 11
173.2817970174517939
 21
67.378450883547913
 31
0.0
  0
LINE
  5
36A2
  8
1
 10
158.2817973527278923
 20
55.1784573339167324
 30
0.0
 11
158.281797352727807
 21
121.1784574382247968
 31
0.0
  0
LINE
  5
36A3
  8
0
 10
144.781797352727807
 20
60.6784573339167181
 30
0.0
 11
171.781797352727807
 21
60.6784573339167181
 31
0.0
  0
LINE
  5
36A4
  8
0
 10
171.281797352727807
 20
60.1784573339167324
 30
0.0
 11
145.281797352727807
 21
60.1784573339167324
 31
0.0
  0
LINE
  5
36A5
  8
0
 10
144.7817973527276934
 20
67.1784646068296354
 30
0.0
 11
144.781797352727807
 21
60.6784573339167181
 31
0.0
  0
LINE
  5
36A6
  8
0
 10
171.781797352727807
 20
60.6784573339167181
 30
0.0
 11
171.781797352727807
 21
67.178450061003872
 31
0.0
  0
LINE
  5
36A7
  8
0
 10
171.281797352727807
 20
60.1784573339167324
 30
0.0
 11
171.781797352727807
 21
60.6784573339167181
 31
0.0
  0
LINE
  5
36A8
  8
0
 10
144.781797352727807
 20
60.6784573339167181
 30
0.0
 11
145.281797352727807
 21
60.1784573339167324
 31
0.0
  0
LINE
  5
36B8
  8
0
 10
44.887315042525131
 20
107.1784574382248962
 30
0.0
 11
43.9006227255159089
 21
107.1784574382248962
 31
0.0
  0
LINE
  5
36B9
  8
0
 10
46.1005210937419676
 20
115.1784574382247968
 30
0.0
 11
50.260742932589487
 21
115.1784574382247968
 31
0.0
  0
POLYLINE
  5
36BA
  8
0
 10
45.3060059199660827
 20
106.9284574382248962
 30
0.0
 66
     1
 70
     8
  0
VERTEX
  8
0
  5
45B7
 10
45.3060
 20
106.928
 30
0.00000
  70
    32
  0
VERTEX
  8
0
  5
45B8
 10
45.2756
 20
106.930
 30
0.00000
  70
    32
  0
VERTEX
  8
0
  5
45B9
 10
45.2452
 20
106.934
 30
0.00000
  70
    32
  0
VERTEX
  8
0
  5
45BA
 10
45.2149
 20
106.940
 30
0.00000
  70
    32
  0
VERTEX
  8
0
  5
45BB
 10
45.1846
 20
106.949
 30
0.00000
  70
    32
  0
VERTEX
  8
0
  5
45BC
 10
45.1543
 20
106.960
 30
0.00000
  70
    32
  0
VERTEX
  8
0
  5
45BD
 10
45.1242
 20
106.974
 30
0.00000
  70
    32
  0
VERTEX
  8
0
  5
45BE
 10
45.0942
 20
106.991
 30
0.00000
  70
    32
  0
VERTEX
  8
0
  5
45BF
 10
45.0643
 20
107.010
 30
0.00000
  70
    32
  0
VERTEX
  8
0
  5
45C0
 10
45.0345
 20
107.032
 30
0.00000
  70
    32
  0
VERTEX
  8
0
  5
45C1
 10
45.0049
 20
107.056
 30
0.00000
  70
    32
  0
VERTEX
  8
0
  5
45C2
 10
44.9755
 20
107.082
 30
0.00000
  70
    32
  0
VERTEX
  8
0
  5
45C3
 10
44.9463
 20
107.111
 30
0.00000
  70
    32
  0
VERTEX
  8
0
  5
45C4
 10
44.9173
 20
107.143
 30
0.00000
  70
    32
  0
VERTEX
  8
0
  5
45C5
 10
44.8886
 20
107.177
 30
0.00000
  70
    32
  0
VERTEX
  8
0
  5
45C6
 10
44.8601
 20
107.213
 30
0.00000
  70
    32
  0
VERTEX
  8
0
  5
45C7
 10
44.8318
 20
107.252
 30
0.00000
  70
    32
  0
VERTEX
  8
0
  5
45C8
 10
44.8039
 20
107.293
 30
0.00000
  70
    32
  0
VERTEX
  8
0
  5
45C9
 10
44.7762
 20
107.337
 30
0.00000
  70
    32
  0
VERTEX
  8
0
  5
45CA
 10
44.7489
 20
107.382
 30
0.00000
  70
    32
  0
VERTEX
  8
0
  5
45CB
 10
44.7219
 20
107.430
 30
0.00000
  70
    32
  0
VERTEX
  8
0
  5
45CC
 10
44.6953
 20
107.481
 30
0.00000
  70
    32
  0
VERTEX
  8
0
  5
45CD
 10
44.6690
 20
107.533
 30
0.00000
  70
    32
  0
VERTEX
  8
0
  5
45CE
 10
44.6431
 20
107.588
 30
0.00000
  70
    32
  0
VERTEX
  8
0
  5
45CF
 10
44.6176
 20
107.645
 30
0.00000
  70
    32
  0
VERTEX
  8
0
  5
45D0
 10
44.5926
 20
107.704
 30
0.00000
  70
    32
  0
VERTEX
  8
0
  5
45D1
 10
44.5679
 20
107.765
 30
0.00000
  70
    32
  0
VERTEX
  8
0
  5
45D2
 10
44.5437
 20
107.828
 30
0.00000
  70
    32
  0
VERTEX
  8
0
  5
45D3
 10
44.5200
 20
107.893
 30
0.00000
  70
    32
  0
VERTEX
  8
0
  5
45D4
 10
44.4967
 20
107.960
 30
0.00000
  70
    32
  0
VERTEX
  8
0
  5
45D5
 10
44.4739
 20
108.029
 30
0.00000
  70
    32
  0
VERTEX
  8
0
  5
45D6
 10
44.4516
 20
108.100
 30
0.00000
  70
    32
  0
VERTEX
  8
0
  5
45D7
 10
44.4299
 20
108.173
 30
0.00000
  70
    32
  0
VERTEX
  8
0
  5
45D8
 10
44.4086
 20
108.248
 30
0.00000
  70
    32
  0
VERTEX
  8
0
  5
45D9
 10
44.3879
 20
108.324
 30
0.00000
  70
    32
  0
VERTEX
  8
0
  5
45DA
 10
44.3678
 20
108.402
 30
0.00000
  70
    32
  0
VERTEX
  8
0
  5
45DB
 10
44.3482
 20
108.482
 30
0.00000
  70
    32
  0
VERTEX
  8
0
  5
45DC
 10
44.3292
 20
108.564
 30
0.00000
  70
    32
  0
VERTEX
  8
0
  5
45DD
 10
44.3108
 20
108.647
 30
0.00000
  70
    32
  0
VERTEX
  8
0
  5
45DE
 10
44.2930
 20
108.731
 30
0.00000
  70
    32
  0
VERTEX
  8
0
  5
45DF
 10
44.2758
 20
108.817
 30
0.00000
  70
    32
  0
VERTEX
  8
0
  5
45E0
 10
44.2592
 20
108.905
 30
0.00000
  70
    32
  0
VERTEX
  8
0
  5
45E1
 10
44.2432
 20
108.994
 30
0.00000
  70
    32
  0
VERTEX
  8
0
  5
45E2
 10
44.2279
 20
109.084
 30
0.00000
  70
    32
  0
VERTEX
  8
0
  5
45E3
 10
44.2133
 20
109.175
 30
0.00000
  70
    32
  0
VERTEX
  8
0
  5
45E4
 10
44.1993
 20
109.268
 30
0.00000
  70
    32
  0
VERTEX
  8
0
  5
45E5
 10
44.1859
 20
109.361
 30
0.00000
  70
    32
  0
VERTEX
  8
0
  5
45E6
 10
44.1733
 20
109.456
 30
0.00000
  70
    32
  0
VERTEX
  8
0
  5
45E7
 10
44.1613
 20
109.552
 30
0.00000
  70
    32
  0
VERTEX
  8
0
  5
45E8
 10
44.1500
 20
109.649
 30
0.00000
  70
    32
  0
VERTEX
  8
0
  5
45E9
 10
44.1394
 20
109.747
 30
0.00000
  70
    32
  0
VERTEX
  8
0
  5
45EA
 10
44.1295
 20
109.845
 30
0.00000
  70
    32
  0
VERTEX
  8
0
  5
45EB
 10
44.1203
 20
109.945
 30
0.00000
  70
    32
  0
VERTEX
  8
0
  5
45EC
 10
44.1118
 20
110.045
 30
0.00000
  70
    32
  0
VERTEX
  8
0
  5
45ED
 10
44.1041
 20
110.146
 30
0.00000
  70
    32
  0
VERTEX
  8
0
  5
45EE
 10
44.0971
 20
110.247
 30
0.00000
  70
    32
  0
VERTEX
  8
0
  5
45EF
 10
44.0908
 20
110.349
 30
0.00000
  70
    32
  0
VERTEX
  8
0
  5
45F0
 10
44.0852
 20
110.452
 30
0.00000
  70
    32
  0
VERTEX
  8
0
  5
45F1
 10
44.0804
 20
110.555
 30
0.00000
  70
    32
  0
VERTEX
  8
0
  5
45F2
 10
44.0763
 20
110.658
 30
0.00000
  70
    32
  0
VERTEX
  8
0
  5
45F3
 10
44.0729
 20
110.762
 30
0.00000
  70
    32
  0
VERTEX
  8
0
  5
45F4
 10
44.0703
 20
110.866
 30
0.00000
  70
    32
  0
VERTEX
  8
0
  5
45F5
 10
44.0685
 20
110.970
 30
0.00000
  70
    32
  0
VERTEX
  8
0
  5
45F6
 10
44.0673
 20
111.074
 30
0.00000
  70
    32
  0
VERTEX
  8
0
  5
45F7
 10
44.0670
 20
111.178
 30
0.00000
  70
    32
  0
VERTEX
  8
0
  5
45F8
 10
44.0673
 20
111.283
 30
0.00000
  70
    32
  0
VERTEX
  8
0
  5
45F9
 10
44.0685
 20
111.387
 30
0.00000
  70
    32
  0
VERTEX
  8
0
  5
45FA
 10
44.0703
 20
111.491
 30
0.00000
  70
    32
  0
VERTEX
  8
0
  5
45FB
 10
44.0729
 20
111.595
 30
0.00000
  70
    32
  0
VERTEX
  8
0
  5
45FC
 10
44.0763
 20
111.699
 30
0.00000
  70
    32
  0
VERTEX
  8
0
  5
45FD
 10
44.0804
 20
111.802
 30
0.00000
  70
    32
  0
VERTEX
  8
0
  5
45FE
 10
44.0852
 20
111.905
 30
0.00000
  70
    32
  0
VERTEX
  8
0
  5
45FF
 10
44.0908
 20
112.008
 30
0.00000
  70
    32
  0
VERTEX
  8
0
  5
4600
 10
44.0971
 20
112.110
 30
0.00000
  70
    32
  0
VERTEX
  8
0
  5
4601
 10
44.1041
 20
112.211
 30
0.00000
  70
    32
  0
VERTEX
  8
0
  5
4602
 10
44.1118
 20
112.312
 30
0.00000
  70
    32
  0
VERTEX
  8
0
  5
4603
 10
44.1203
 20
112.412
 30
0.00000
  70
    32
  0
VERTEX
  8
0
  5
4604
 10
44.1295
 20
112.512
 30
0.00000
  70
    32
  0
VERTEX
  8
0
  5
4605
 10
44.1394
 20
112.610
 30
0.00000
  70
    32
  0
VERTEX
  8
0
  5
4606
 10
44.1500
 20
112.708
 30
0.00000
  70
    32
  0
VERTEX
  8
0
  5
4607
 10
44.1613
 20
112.805
 30
0.00000
  70
    32
  0
VERTEX
  8
0
  5
4608
 10
44.1733
 20
112.901
 30
0.00000
  70
    32
  0
VERTEX
  8
0
  5
4609
 10
44.1859
 20
112.996
 30
0.00000
  70
    32
  0
VERTEX
  8
0
  5
460A
 10
44.1993
 20
113.089
 30
0.00000
  70
    32
  0
VERTEX
  8
0
  5
460B
 10
44.2133
 20
113.182
 30
0.00000
  70
    32
  0
VERTEX
  8
0
  5
460C
 10
44.2279
 20
113.273
 30
0.00000
  70
    32
  0
VERTEX
  8
0
  5
460D
 10
44.2432
 20
113.363
 30
0.00000
  70
    32
  0
VERTEX
  8
0
  5
460E
 10
44.2592
 20
113.452
 30
0.00000
  70
    32
  0
VERTEX
  8
0
  5
460F
 10
44.2758
 20
113.540
 30
0.00000
  70
    32
  0
VERTEX
  8
0
  5
4610
 10
44.2930
 20
113.626
 30
0.00000
  70
    32
  0
VERTEX
  8
0
  5
4611
 10
44.3108
 20
113.710
 30
0.00000
  70
    32
  0
VERTEX
  8
0
  5
4612
 10
44.3292
 20
113.793
 30
0.00000
  70
    32
  0
VERTEX
  8
0
  5
4613
 10
44.3482
 20
113.875
 30
0.00000
  70
    32
  0
VERTEX
  8
0
  5
4614
 10
44.3678
 20
113.954
 30
0.00000
  70
    32
  0
VERTEX
  8
0
  5
4615
 10
44.3879
 20
114.033
 30
0.00000
  70
    32
  0
VERTEX
  8
0
  5
4616
 10
44.4086
 20
114.109
 30
0.00000
  70
    32
  0
VERTEX
  8
0
  5
4617
 10
44.4299
 20
114.184
 30
0.00000
  70
    32
  0
VERTEX
  8
0
  5
4618
 10
44.4516
 20
114.257
 30
0.00000
  70
    32
  0
VERTEX
  8
0
  5
4619
 10
44.4739
 20
114.327
 30
0.00000
  70
    32
  0
VERTEX
  8
0
  5
461A
 10
44.4967
 20
114.397
 30
0.00000
  70
    32
  0
VERTEX
  8
0
  5
461B
 10
44.5200
 20
114.464
 30
0.00000
  70
    32
  0
VERTEX
  8
0
  5
461C
 10
44.5437
 20
114.529
 30
0.00000
  70
    32
  0
VERTEX
  8
0
  5
461D
 10
44.5679
 20
114.592
 30
0.00000
  70
    32
  0
VERTEX
  8
0
  5
461E
 10
44.5926
 20
114.653
 30
0.00000
  70
    32
  0
VERTEX
  8
0
  5
461F
 10
44.6176
 20
114.712
 30
0.00000
  70
    32
  0
VERTEX
  8
0
  5
4620
 10
44.6431
 20
114.769
 30
0.00000
  70
    32
  0
VERTEX
  8
0
  5
4621
 10
44.6690
 20
114.824
 30
0.00000
  70
    32
  0
VERTEX
  8
0
  5
4622
 10
44.6953
 20
114.876
 30
0.00000
  70
    32
  0
VERTEX
  8
0
  5
4623
 10
44.7219
 20
114.927
 30
0.00000
  70
    32
  0
VERTEX
  8
0
  5
4624
 10
44.7489
 20
114.975
 30
0.00000
  70
    32
  0
VERTEX
  8
0
  5
4625
 10
44.7762
 20
115.020
 30
0.00000
  70
    32
  0
VERTEX
  8
0
  5
4626
 10
44.8039
 20
115.064
 30
0.00000
  70
    32
  0
VERTEX
  8
0
  5
4627
 10
44.8318
 20
115.105
 30
0.00000
  70
    32
  0
VERTEX
  8
0
  5
4628
 10
44.8601
 20
115.144
 30
0.00000
  70
    32
  0
VERTEX
  8
0
  5
4629
 10
44.8886
 20
115.180
 30
0.00000
  70
    32
  0
VERTEX
  8
0
  5
462A
 10
44.9173
 20
115.214
 30
0.00000
  70
    32
  0
VERTEX
  8
0
  5
462B
 10
44.9463
 20
115.245
 30
0.00000
  70
    32
  0
VERTEX
  8
0
  5
462C
 10
44.9755
 20
115.275
 30
0.00000
  70
    32
  0
VERTEX
  8
0
  5
462D
 10
45.0049
 20
115.301
 30
0.00000
  70
    32
  0
VERTEX
  8
0
  5
462E
 10
45.0345
 20
115.325
 30
0.00000
  70
    32
  0
VERTEX
  8
0
  5
462F
 10
45.0643
 20
115.347
 30
0.00000
  70
    32
  0
VERTEX
  8
0
  5
4630
 10
45.0942
 20
115.366
 30
0.00000
  70
    32
  0
VERTEX
  8
0
  5
4631
 10
45.1242
 20
115.382
 30
0.00000
  70
    32
  0
VERTEX
  8
0
  5
4632
 10
45.1543
 20
115.396
 30
0.00000
  70
    32
  0
VERTEX
  8
0
  5
4633
 10
45.1846
 20
115.408
 30
0.00000
  70
    32
  0
VERTEX
  8
0
  5
4634
 10
45.2149
 20
115.417
 30
0.00000
  70
    32
  0
VERTEX
  8
0
  5
4635
 10
45.2452
 20
115.423
 30
0.00000
  70
    32
  0
VERTEX
  8
0
  5
4636
 10
45.2756
 20
115.427
 30
0.00000
  70
    32
  0
VERTEX
  8
0
  5
4637
 10
45.3060
 20
115.428
 30
0.00000
  70
    32
  0
SEQEND
  8
0
  5
4638
  0
POLYLINE
  5
36BB
  8
0
 10
45.3060059199660827
 20
115.4284574382248962
 30
0.0
 66
     1
 70
     8
  0
VERTEX
  8
0
  5
4639
 10
45.3060
 20
115.428
 30
0.00000
  70
    32
  0
VERTEX
  8
0
  5
463A
 10
45.3637
 20
115.427
 30
0.00000
  70
    32
  0
VERTEX
  8
0
  5
463B
 10
45.4214
 20
115.423
 30
0.00000
  70
    32
  0
VERTEX
  8
0
  5
463C
 10
45.4790
 20
115.417
 30
0.00000
  70
    32
  0
VERTEX
  8
0
  5
463D
 10
45.5365
 20
115.408
 30
0.00000
  70
    32
  0
VERTEX
  8
0
  5
463E
 10
45.5938
 20
115.396
 30
0.00000
  70
    32
  0
VERTEX
  8
0
  5
463F
 10
45.6510
 20
115.382
 30
0.00000
  70
    32
  0
VERTEX
  8
0
  5
4640
 10
45.7080
 20
115.366
 30
0.00000
  70
    32
  0
VERTEX
  8
0
  5
4641
 10
45.7647
 20
115.347
 30
0.00000
  70
    32
  0
VERTEX
  8
0
  5
4642
 10
45.8212
 20
115.325
 30
0.00000
  70
    32
  0
VERTEX
  8
0
  5
4643
 10
45.8773
 20
115.301
 30
0.00000
  70
    32
  0
VERTEX
  8
0
  5
4644
 10
45.9331
 20
115.275
 30
0.00000
  70
    32
  0
VERTEX
  8
0
  5
4645
 10
45.9885
 20
115.245
 30
0.00000
  70
    32
  0
VERTEX
  8
0
  5
4646
 10
46.0435
 20
115.214
 30
0.00000
  70
    32
  0
VERTEX
  8
0
  5
4647
 10
46.0981
 20
115.180
 30
0.00000
  70
    32
  0
VERTEX
  8
0
  5
4648
 10
46.1522
 20
115.144
 30
0.00000
  70
    32
  0
VERTEX
  8
0
  5
4649
 10
46.2058
 20
115.105
 30
0.00000
  70
    32
  0
VERTEX
  8
0
  5
464A
 10
46.2588
 20
115.064
 30
0.00000
  70
    32
  0
VERTEX
  8
0
  5
464B
 10
46.3113
 20
115.020
 30
0.00000
  70
    32
  0
VERTEX
  8
0
  5
464C
 10
46.3631
 20
114.975
 30
0.00000
  70
    32
  0
VERTEX
  8
0
  5
464D
 10
46.4144
 20
114.927
 30
0.00000
  70
    32
  0
VERTEX
  8
0
  5
464E
 10
46.4649
 20
114.876
 30
0.00000
  70
    32
  0
VERTEX
  8
0
  5
464F
 10
46.5148
 20
114.824
 30
0.00000
  70
    32
  0
VERTEX
  8
0
  5
4650
 10
46.5639
 20
114.769
 30
0.00000
  70
    32
  0
VERTEX
  8
0
  5
4651
 10
46.6123
 20
114.712
 30
0.00000
  70
    32
  0
VERTEX
  8
0
  5
4652
 10
46.6599
 20
114.653
 30
0.00000
  70
    32
  0
VERTEX
  8
0
  5
4653
 10
46.7066
 20
114.592
 30
0.00000
  70
    32
  0
VERTEX
  8
0
  5
4654
 10
46.7526
 20
114.529
 30
0.00000
  70
    32
  0
VERTEX
  8
0
  5
4655
 10
46.7976
 20
114.464
 30
0.00000
  70
    32
  0
VERTEX
  8
0
  5
4656
 10
46.8418
 20
114.397
 30
0.00000
  70
    32
  0
VERTEX
  8
0
  5
4657
 10
46.8850
 20
114.327
 30
0.00000
  70
    32
  0
VERTEX
  8
0
  5
4658
 10
46.9273
 20
114.257
 30
0.00000
  70
    32
  0
VERTEX
  8
0
  5
4659
 10
46.9686
 20
114.184
 30
0.00000
  70
    32
  0
VERTEX
  8
0
  5
465A
 10
47.0089
 20
114.109
 30
0.00000
  70
    32
  0
VERTEX
  8
0
  5
465B
 10
47.0481
 20
114.033
 30
0.00000
  70
    32
  0
VERTEX
  8
0
  5
465C
 10
47.0864
 20
113.954
 30
0.00000
  70
    32
  0
VERTEX
  8
0
  5
465D
 10
47.1235
 20
113.875
 30
0.00000
  70
    32
  0
VERTEX
  8
0
  5
465E
 10
47.1596
 20
113.793
 30
0.00000
  70
    32
  0
VERTEX
  8
0
  5
465F
 10
47.1945
 20
113.710
 30
0.00000
  70
    32
  0
VERTEX
  8
0
  5
4660
 10
47.2283
 20
113.626
 30
0.00000
  70
    32
  0
VERTEX
  8
0
  5
4661
 10
47.2610
 20
113.540
 30
0.00000
  70
    32
  0
VERTEX
  8
0
  5
4662
 10
47.2924
 20
113.452
 30
0.00000
  70
    32
  0
VERTEX
  8
0
  5
4663
 10
47.3227
 20
113.363
 30
0.00000
  70
    32
  0
VERTEX
  8
0
  5
4664
 10
47.3518
 20
113.273
 30
0.00000
  70
    32
  0
VERTEX
  8
0
  5
4665
 10
47.3796
 20
113.182
 30
0.00000
  70
    32
  0
VERTEX
  8
0
  5
4666
 10
47.4062
 20
113.089
 30
0.00000
  70
    32
  0
VERTEX
  8
0
  5
4667
 10
47.4315
 20
112.996
 30
0.00000
  70
    32
  0
VERTEX
  8
0
  5
4668
 10
47.4555
 20
112.901
 30
0.00000
  70
    32
  0
VERTEX
  8
0
  5
4669
 10
47.4783
 20
112.805
 30
0.00000
  70
    32
  0
VERTEX
  8
0
  5
466A
 10
47.4997
 20
112.708
 30
0.00000
  70
    32
  0
VERTEX
  8
0
  5
466B
 10
47.5198
 20
112.610
 30
0.00000
  70
    32
  0
VERTEX
  8
0
  5
466C
 10
47.5386
 20
112.512
 30
0.00000
  70
    32
  0
VERTEX
  8
0
  5
466D
 10
47.5560
 20
112.412
 30
0.00000
  70
    32
  0
VERTEX
  8
0
  5
466E
 10
47.5721
 20
112.312
 30
0.00000
  70
    32
  0
VERTEX
  8
0
  5
466F
 10
47.5868
 20
112.211
 30
0.00000
  70
    32
  0
VERTEX
  8
0
  5
4670
 10
47.6001
 20
112.110
 30
0.00000
  70
    32
  0
VERTEX
  8
0
  5
4671
 10
47.6121
 20
112.008
 30
0.00000
  70
    32
  0
VERTEX
  8
0
  5
4672
 10
47.6226
 20
111.905
 30
0.00000
  70
    32
  0
VERTEX
  8
0
  5
4673
 10
47.6318
 20
111.802
 30
0.00000
  70
    32
  0
VERTEX
  8
0
  5
4674
 10
47.6395
 20
111.699
 30
0.00000
  70
    32
  0
VERTEX
  8
0
  5
4675
 10
47.6459
 20
111.595
 30
0.00000
  70
    32
  0
VERTEX
  8
0
  5
4676
 10
47.6509
 20
111.491
 30
0.00000
  70
    32
  0
VERTEX
  8
0
  5
4677
 10
47.6544
 20
111.387
 30
0.00000
  70
    32
  0
VERTEX
  8
0
  5
4678
 10
47.6565
 20
111.283
 30
0.00000
  70
    32
  0
VERTEX
  8
0
  5
4679
 10
47.6572
 20
111.178
 30
0.00000
  70
    32
  0
VERTEX
  8
0
  5
467A
 10
47.6565
 20
111.074
 30
0.00000
  70
    32
  0
VERTEX
  8
0
  5
467B
 10
47.6544
 20
110.970
 30
0.00000
  70
    32
  0
VERTEX
  8
0
  5
467C
 10
47.6509
 20
110.866
 30
0.00000
  70
    32
  0
VERTEX
  8
0
  5
467D
 10
47.6459
 20
110.762
 30
0.00000
  70
    32
  0
VERTEX
  8
0
  5
467E
 10
47.6395
 20
110.658
 30
0.00000
  70
    32
  0
VERTEX
  8
0
  5
467F
 10
47.6318
 20
110.555
 30
0.00000
  70
    32
  0
VERTEX
  8
0
  5
4680
 10
47.6226
 20
110.452
 30
0.00000
  70
    32
  0
VERTEX
  8
0
  5
4681
 10
47.6121
 20
110.349
 30
0.00000
  70
    32
  0
VERTEX
  8
0
  5
4682
 10
47.6001
 20
110.247
 30
0.00000
  70
    32
  0
VERTEX
  8
0
  5
4683
 10
47.5868
 20
110.146
 30
0.00000
  70
    32
  0
VERTEX
  8
0
  5
4684
 10
47.5721
 20
110.045
 30
0.00000
  70
    32
  0
VERTEX
  8
0
  5
4685
 10
47.5560
 20
109.945
 30
0.00000
  70
    32
  0
VERTEX
  8
0
  5
4686
 10
47.5386
 20
109.845
 30
0.00000
  70
    32
  0
VERTEX
  8
0
  5
4687
 10
47.5198
 20
109.747
 30
0.00000
  70
    32
  0
VERTEX
  8
0
  5
4688
 10
47.4997
 20
109.649
 30
0.00000
  70
    32
  0
VERTEX
  8
0
  5
4689
 10
47.4783
 20
109.552
 30
0.00000
  70
    32
  0
VERTEX
  8
0
  5
468A
 10
47.4555
 20
109.456
 30
0.00000
  70
    32
  0
VERTEX
  8
0
  5
468B
 10
47.4315
 20
109.361
 30
0.00000
  70
    32
  0
VERTEX
  8
0
  5
468C
 10
47.4062
 20
109.268
 30
0.00000
  70
    32
  0
VERTEX
  8
0
  5
468D
 10
47.3796
 20
109.175
 30
0.00000
  70
    32
  0
VERTEX
  8
0
  5
468E
 10
47.3518
 20
109.084
 30
0.00000
  70
    32
  0
VERTEX
  8
0
  5
468F
 10
47.3227
 20
108.994
 30
0.00000
  70
    32
  0
VERTEX
  8
0
  5
4690
 10
47.2924
 20
108.905
 30
0.00000
  70
    32
  0
VERTEX
  8
0
  5
4691
 10
47.2610
 20
108.817
 30
0.00000
  70
    32
  0
VERTEX
  8
0
  5
4692
 10
47.2283
 20
108.731
 30
0.00000
  70
    32
  0
VERTEX
  8
0
  5
4693
 10
47.1945
 20
108.647
 30
0.00000
  70
    32
  0
VERTEX
  8
0
  5
4694
 10
47.1596
 20
108.564
 30
0.00000
  70
    32
  0
VERTEX
  8
0
  5
4695
 10
47.1235
 20
108.482
 30
0.00000
  70
    32
  0
VERTEX
  8
0
  5
4696
 10
47.0864
 20
108.402
 30
0.00000
  70
    32
  0
VERTEX
  8
0
  5
4697
 10
47.0481
 20
108.324
 30
0.00000
  70
    32
  0
VERTEX
  8
0
  5
4698
 10
47.0089
 20
108.248
 30
0.00000
  70
    32
  0
VERTEX
  8
0
  5
4699
 10
46.9686
 20
108.173
 30
0.00000
  70
    32
  0
VERTEX
  8
0
  5
469A
 10
46.9273
 20
108.100
 30
0.00000
  70
    32
  0
VERTEX
  8
0
  5
469B
 10
46.8850
 20
108.029
 30
0.00000
  70
    32
  0
VERTEX
  8
0
  5
469C
 10
46.8418
 20
107.960
 30
0.00000
  70
    32
  0
VERTEX
  8
0
  5
469D
 10
46.7976
 20
107.893
 30
0.00000
  70
    32
  0
VERTEX
  8
0
  5
469E
 10
46.7526
 20
107.828
 30
0.00000
  70
    32
  0
VERTEX
  8
0
  5
469F
 10
46.7066
 20
107.765
 30
0.00000
  70
    32
  0
VERTEX
  8
0
  5
46A0
 10
46.6599
 20
107.704
 30
0.00000
  70
    32
  0
VERTEX
  8
0
  5
46A1
 10
46.6123
 20
107.645
 30
0.00000
  70
    32
  0
VERTEX
  8
0
  5
46A2
 10
46.5639
 20
107.588
 30
0.00000
  70
    32
  0
VERTEX
  8
0
  5
46A3
 10
46.5148
 20
107.533
 30
0.00000
  70
    32
  0
VERTEX
  8
0
  5
46A4
 10
46.4649
 20
107.481
 30
0.00000
  70
    32
  0
VERTEX
  8
0
  5
46A5
 10
46.4144
 20
107.430
 30
0.00000
  70
    32
  0
VERTEX
  8
0
  5
46A6
 10
46.3631
 20
107.382
 30
0.00000
  70
    32
  0
VERTEX
  8
0
  5
46A7
 10
46.3113
 20
107.337
 30
0.00000
  70
    32
  0
VERTEX
  8
0
  5
46A8
 10
46.2588
 20
107.293
 30
0.00000
  70
    32
  0
VERTEX
  8
0
  5
46A9
 10
46.2058
 20
107.252
 30
0.00000
  70
    32
  0
VERTEX
  8
0
  5
46AA
 10
46.1522
 20
107.213
 30
0.00000
  70
    32
  0
VERTEX
  8
0
  5
46AB
 10
46.0981
 20
107.177
 30
0.00000
  70
    32
  0
VERTEX
  8
0
  5
46AC
 10
46.0435
 20
107.143
 30
0.00000
  70
    32
  0
VERTEX
  8
0
  5
46AD
 10
45.9885
 20
107.111
 30
0.00000
  70
    32
  0
VERTEX
  8
0
  5
46AE
 10
45.9331
 20
107.082
 30
0.00000
  70
    32
  0
VERTEX
  8
0
  5
46AF
 10
45.8773
 20
107.056
 30
0.00000
  70
    32
  0
VERTEX
  8
0
  5
46B0
 10
45.8212
 20
107.032
 30
0.00000
  70
    32
  0
VERTEX
  8
0
  5
46B1
 10
45.7647
 20
107.010
 30
0.00000
  70
    32
  0
VERTEX
  8
0
  5
46B2
 10
45.7080
 20
106.991
 30
0.00000
  70
    32
  0
VERTEX
  8
0
  5
46B3
 10
45.6510
 20
106.974
 30
0.00000
  70
    32
  0
VERTEX
  8
0
  5
46B4
 10
45.5938
 20
106.960
 30
0.00000
  70
    32
  0
VERTEX
  8
0
  5
46B5
 10
45.5365
 20
106.949
 30
0.00000
  70
    32
  0
VERTEX
  8
0
  5
46B6
 10
45.4790
 20
106.940
 30
0.00000
  70
    32
  0
VERTEX
  8
0
  5
46B7
 10
45.4214
 20
106.934
 30
0.00000
  70
    32
  0
VERTEX
  8
0
  5
46B8
 10
45.3637
 20
106.930
 30
0.00000
  70
    32
  0
VERTEX
  8
0
  5
46B9
 10
45.3060
 20
106.928
 30
0.00000
  70
    32
  0
SEQEND
  8
0
  5
46BA
  0
POLYLINE
  5
36BC
  8
3
 10
46.8356397769984838
 20
108.6846253365682884
 30
0.0
 66
     1
 70
     8
  0
VERTEX
  8
3
  5
46BB
 10
46.8356
 20
108.685
 30
0.00000
  70
    32
  0
VERTEX
  8
3
  5
46BC
 10
46.8018
 20
108.689
 30
0.00000
  70
    32
  0
VERTEX
  8
3
  5
46BD
 10
46.7680
 20
108.696
 30
0.00000
  70
    32
  0
VERTEX
  8
3
  5
46BE
 10
46.7343
 20
108.703
 30
0.00000
  70
    32
  0
VERTEX
  8
3
  5
46BF
 10
46.7007
 20
108.712
 30
0.00000
  70
    32
  0
VERTEX
  8
3
  5
46C0
 10
46.6673
 20
108.722
 30
0.00000
  70
    32
  0
VERTEX
  8
3
  5
46C1
 10
46.6340
 20
108.734
 30
0.00000
  70
    32
  0
VERTEX
  8
3
  5
46C2
 10
46.6008
 20
108.747
 30
0.00000
  70
    32
  0
VERTEX
  8
3
  5
46C3
 10
46.5679
 20
108.761
 30
0.00000
  70
    32
  0
VERTEX
  8
3
  5
46C4
 10
46.5352
 20
108.777
 30
0.00000
  70
    32
  0
VERTEX
  8
3
  5
46C5
 10
46.5026
 20
108.794
 30
0.00000
  70
    32
  0
VERTEX
  8
3
  5
46C6
 10
46.4703
 20
108.812
 30
0.00000
  70
    32
  0
VERTEX
  8
3
  5
46C7
 10
46.4383
 20
108.831
 30
0.00000
  70
    32
  0
VERTEX
  8
3
  5
46C8
 10
46.4066
 20
108.852
 30
0.00000
  70
    32
  0
VERTEX
  8
3
  5
46C9
 10
46.3751
 20
108.874
 30
0.00000
  70
    32
  0
VERTEX
  8
3
  5
46CA
 10
46.3439
 20
108.898
 30
0.00000
  70
    32
  0
VERTEX
  8
3
  5
46CB
 10
46.3131
 20
108.922
 30
0.00000
  70
    32
  0
VERTEX
  8
3
  5
46CC
 10
46.2826
 20
108.948
 30
0.00000
  70
    32
  0
VERTEX
  8
3
  5
46CD
 10
46.2525
 20
108.975
 30
0.00000
  70
    32
  0
VERTEX
  8
3
  5
46CE
 10
46.2228
 20
109.004
 30
0.00000
  70
    32
  0
VERTEX
  8
3
  5
46CF
 10
46.1934
 20
109.033
 30
0.00000
  70
    32
  0
VERTEX
  8
3
  5
46D0
 10
46.1645
 20
109.064
 30
0.00000
  70
    32
  0
VERTEX
  8
3
  5
46D1
 10
46.1359
 20
109.096
 30
0.00000
  70
    32
  0
VERTEX
  8
3
  5
46D2
 10
46.1079
 20
109.129
 30
0.00000
  70
    32
  0
VERTEX
  8
3
  5
46D3
 10
46.0802
 20
109.163
 30
0.00000
  70
    32
  0
VERTEX
  8
3
  5
46D4
 10
46.0531
 20
109.198
 30
0.00000
  70
    32
  0
VERTEX
  8
3
  5
46D5
 10
46.0264
 20
109.234
 30
0.00000
  70
    32
  0
VERTEX
  8
3
  5
46D6
 10
46.0003
 20
109.272
 30
0.00000
  70
    32
  0
VERTEX
  8
3
  5
46D7
 10
45.9746
 20
109.310
 30
0.00000
  70
    32
  0
VERTEX
  8
3
  5
46D8
 10
45.9495
 20
109.350
 30
0.00000
  70
    32
  0
VERTEX
  8
3
  5
46D9
 10
45.9249
 20
109.390
 30
0.00000
  70
    32
  0
VERTEX
  8
3
  5
46DA
 10
45.9009
 20
109.431
 30
0.00000
  70
    32
  0
VERTEX
  8
3
  5
46DB
 10
45.8774
 20
109.474
 30
0.00000
  70
    32
  0
VERTEX
  8
3
  5
46DC
 10
45.8546
 20
109.517
 30
0.00000
  70
    32
  0
VERTEX
  8
3
  5
46DD
 10
45.8323
 20
109.561
 30
0.00000
  70
    32
  0
VERTEX
  8
3
  5
46DE
 10
45.8106
 20
109.607
 30
0.00000
  70
    32
  0
VERTEX
  8
3
  5
46DF
 10
45.7896
 20
109.653
 30
0.00000
  70
    32
  0
VERTEX
  8
3
  5
46E0
 10
45.7691
 20
109.699
 30
0.00000
  70
    32
  0
VERTEX
  8
3
  5
46E1
 10
45.7494
 20
109.747
 30
0.00000
  70
    32
  0
VERTEX
  8
3
  5
46E2
 10
45.7302
 20
109.796
 30
0.00000
  70
    32
  0
VERTEX
  8
3
  5
46E3
 10
45.7118
 20
109.845
 30
0.00000
  70
    32
  0
VERTEX
  8
3
  5
46E4
 10
45.6940
 20
109.895
 30
0.00000
  70
    32
  0
VERTEX
  8
3
  5
46E5
 10
45.6769
 20
109.945
 30
0.00000
  70
    32
  0
VERTEX
  8
3
  5
46E6
 10
45.6605
 20
109.997
 30
0.00000
  70
    32
  0
VERTEX
  8
3
  5
46E7
 10
45.6448
 20
110.049
 30
0.00000
  70
    32
  0
VERTEX
  8
3
  5
46E8
 10
45.6298
 20
110.101
 30
0.00000
  70
    32
  0
VERTEX
  8
3
  5
46E9
 10
45.6155
 20
110.154
 30
0.00000
  70
    32
  0
VERTEX
  8
3
  5
46EA
 10
45.6020
 20
110.208
 30
0.00000
  70
    32
  0
VERTEX
  8
3
  5
46EB
 10
45.5891
 20
110.262
 30
0.00000
  70
    32
  0
VERTEX
  8
3
  5
46EC
 10
45.5771
 20
110.317
 30
0.00000
  70
    32
  0
VERTEX
  8
3
  5
46ED
 10
45.5657
 20
110.373
 30
0.00000
  70
    32
  0
VERTEX
  8
3
  5
46EE
 10
45.5552
 20
110.428
 30
0.00000
  70
    32
  0
VERTEX
  8
3
  5
46EF
 10
45.5454
 20
110.484
 30
0.00000
  70
    32
  0
VERTEX
  8
3
  5
46F0
 10
45.5363
 20
110.541
 30
0.00000
  70
    32
  0
VERTEX
  8
3
  5
46F1
 10
45.5280
 20
110.598
 30
0.00000
  70
    32
  0
VERTEX
  8
3
  5
46F2
 10
45.5205
 20
110.655
 30
0.00000
  70
    32
  0
VERTEX
  8
3
  5
46F3
 10
45.5138
 20
110.712
 30
0.00000
  70
    32
  0
VERTEX
  8
3
  5
46F4
 10
45.5079
 20
110.770
 30
0.00000
  70
    32
  0
VERTEX
  8
3
  5
46F5
 10
45.5027
 20
110.828
 30
0.00000
  70
    32
  0
VERTEX
  8
3
  5
46F6
 10
45.4983
 20
110.886
 30
0.00000
  70
    32
  0
VERTEX
  8
3
  5
46F7
 10
45.4948
 20
110.944
 30
0.00000
  70
    32
  0
VERTEX
  8
3
  5
46F8
 10
45.4920
 20
111.003
 30
0.00000
  70
    32
  0
VERTEX
  8
3
  5
46F9
 10
45.4900
 20
111.061
 30
0.00000
  70
    32
  0
VERTEX
  8
3
  5
46FA
 10
45.4888
 20
111.120
 30
0.00000
  70
    32
  0
VERTEX
  8
3
  5
46FB
 10
45.4884
 20
111.178
 30
0.00000
  70
    32
  0
VERTEX
  8
3
  5
46FC
 10
45.4888
 20
111.237
 30
0.00000
  70
    32
  0
VERTEX
  8
3
  5
46FD
 10
45.4900
 20
111.296
 30
0.00000
  70
    32
  0
VERTEX
  8
3
  5
46FE
 10
45.4920
 20
111.354
 30
0.00000
  70
    32
  0
VERTEX
  8
3
  5
46FF
 10
45.4948
 20
111.413
 30
0.00000
  70
    32
  0
VERTEX
  8
3
  5
4700
 10
45.4983
 20
111.471
 30
0.00000
  70
    32
  0
VERTEX
  8
3
  5
4701
 10
45.5027
 20
111.529
 30
0.00000
  70
    32
  0
VERTEX
  8
3
  5
4702
 10
45.5079
 20
111.587
 30
0.00000
  70
    32
  0
VERTEX
  8
3
  5
4703
 10
45.5138
 20
111.645
 30
0.00000
  70
    32
  0
VERTEX
  8
3
  5
4704
 10
45.5205
 20
111.702
 30
0.00000
  70
    32
  0
VERTEX
  8
3
  5
4705
 10
45.5280
 20
111.759
 30
0.00000
  70
    32
  0
VERTEX
  8
3
  5
4706
 10
45.5363
 20
111.816
 30
0.00000
  70
    32
  0
VERTEX
  8
3
  5
4707
 10
45.5454
 20
111.873
 30
0.00000
  70
    32
  0
VERTEX
  8
3
  5
4708
 10
45.5552
 20
111.929
 30
0.00000
  70
    32
  0
VERTEX
  8
3
  5
4709
 10
45.5657
 20
111.984
 30
0.00000
  70
    32
  0
VERTEX
  8
3
  5
470A
 10
45.5771
 20
112.040
 30
0.00000
  70
    32
  0
VERTEX
  8
3
  5
470B
 10
45.5891
 20
112.094
 30
0.00000
  70
    32
  0
VERTEX
  8
3
  5
470C
 10
45.6020
 20
112.149
 30
0.00000
  70
    32
  0
VERTEX
  8
3
  5
470D
 10
45.6155
 20
112.202
 30
0.00000
  70
    32
  0
VERTEX
  8
3
  5
470E
 10
45.6298
 20
112.256
 30
0.00000
  70
    32
  0
VERTEX
  8
3
  5
470F
 10
45.6448
 20
112.308
 30
0.00000
  70
    32
  0
VERTEX
  8
3
  5
4710
 10
45.6605
 20
112.360
 30
0.00000
  70
    32
  0
VERTEX
  8
3
  5
4711
 10
45.6769
 20
112.412
 30
0.00000
  70
    32
  0
VERTEX
  8
3
  5
4712
 10
45.6940
 20
112.462
 30
0.00000
  70
    32
  0
VERTEX
  8
3
  5
4713
 10
45.7118
 20
112.512
 30
0.00000
  70
    32
  0
VERTEX
  8
3
  5
4714
 10
45.7302
 20
112.561
 30
0.00000
  70
    32
  0
VERTEX
  8
3
  5
4715
 10
45.7494
 20
112.610
 30
0.00000
  70
    32
  0
VERTEX
  8
3
  5
4716
 10
45.7691
 20
112.657
 30
0.00000
  70
    32
  0
VERTEX
  8
3
  5
4717
 10
45.7896
 20
112.704
 30
0.00000
  70
    32
  0
VERTEX
  8
3
  5
4718
 10
45.8106
 20
112.750
 30
0.00000
  70
    32
  0
VERTEX
  8
3
  5
4719
 10
45.8323
 20
112.795
 30
0.00000
  70
    32
  0
VERTEX
  8
3
  5
471A
 10
45.8546
 20
112.840
 30
0.00000
  70
    32
  0
VERTEX
  8
3
  5
471B
 10
45.8774
 20
112.883
 30
0.00000
  70
    32
  0
VERTEX
  8
3
  5
471C
 10
45.9009
 20
112.925
 30
0.00000
  70
    32
  0
VERTEX
  8
3
  5
471D
 10
45.9249
 20
112.967
 30
0.00000
  70
    32
  0
VERTEX
  8
3
  5
471E
 10
45.9495
 20
113.007
 30
0.00000
  70
    32
  0
VERTEX
  8
3
  5
471F
 10
45.9746
 20
113.047
 30
0.00000
  70
    32
  0
VERTEX
  8
3
  5
4720
 10
46.0003
 20
113.085
 30
0.00000
  70
    32
  0
VERTEX
  8
3
  5
4721
 10
46.0264
 20
113.123
 30
0.00000
  70
    32
  0
VERTEX
  8
3
  5
4722
 10
46.0531
 20
113.159
 30
0.00000
  70
    32
  0
VERTEX
  8
3
  5
4723
 10
46.0802
 20
113.194
 30
0.00000
  70
    32
  0
VERTEX
  8
3
  5
4724
 10
46.1079
 20
113.228
 30
0.00000
  70
    32
  0
VERTEX
  8
3
  5
4725
 10
46.1359
 20
113.261
 30
0.00000
  70
    32
  0
VERTEX
  8
3
  5
4726
 10
46.1645
 20
113.293
 30
0.00000
  70
    32
  0
VERTEX
  8
3
  5
4727
 10
46.1934
 20
113.324
 30
0.00000
  70
    32
  0
VERTEX
  8
3
  5
4728
 10
46.2228
 20
113.353
 30
0.00000
  70
    32
  0
VERTEX
  8
3
  5
4729
 10
46.2525
 20
113.382
 30
0.00000
  70
    32
  0
VERTEX
  8
3
  5
472A
 10
46.2826
 20
113.409
 30
0.00000
  70
    32
  0
VERTEX
  8
3
  5
472B
 10
46.3131
 20
113.435
 30
0.00000
  70
    32
  0
VERTEX
  8
3
  5
472C
 10
46.3439
 20
113.459
 30
0.00000
  70
    32
  0
VERTEX
  8
3
  5
472D
 10
46.3751
 20
113.483
 30
0.00000
  70
    32
  0
VERTEX
  8
3
  5
472E
 10
46.4066
 20
113.505
 30
0.00000
  70
    32
  0
VERTEX
  8
3
  5
472F
 10
46.4383
 20
113.526
 30
0.00000
  70
    32
  0
VERTEX
  8
3
  5
4730
 10
46.4703
 20
113.545
 30
0.00000
  70
    32
  0
VERTEX
  8
3
  5
4731
 10
46.5026
 20
113.563
 30
0.00000
  70
    32
  0
VERTEX
  8
3
  5
4732
 10
46.5352
 20
113.580
 30
0.00000
  70
    32
  0
VERTEX
  8
3
  5
4733
 10
46.5679
 20
113.596
 30
0.00000
  70
    32
  0
VERTEX
  8
3
  5
4734
 10
46.6008
 20
113.610
 30
0.00000
  70
    32
  0
VERTEX
  8
3
  5
4735
 10
46.6340
 20
113.623
 30
0.00000
  70
    32
  0
VERTEX
  8
3
  5
4736
 10
46.6673
 20
113.635
 30
0.00000
  70
    32
  0
VERTEX
  8
3
  5
4737
 10
46.7007
 20
113.645
 30
0.00000
  70
    32
  0
VERTEX
  8
3
  5
4738
 10
46.7343
 20
113.654
 30
0.00000
  70
    32
  0
VERTEX
  8
3
  5
4739
 10
46.7680
 20
113.661
 30
0.00000
  70
    32
  0
VERTEX
  8
3
  5
473A
 10
46.8018
 20
113.667
 30
0.00000
  70
    32
  0
VERTEX
  8
3
  5
473B
 10
46.8356
 20
113.672
 30
0.00000
  70
    32
  0
SEQEND
  8
3
  5
473C
  0
LINE
  5
36BF
  8
0
 10
43.9006227255158024
 20
115.1784574382247968
 30
0.0
 11
43.9006227255159089
 21
107.1784574382247968
 31
0.0
  0
LINE
  5
36C0
  8
0
 10
43.9006227255158024
 20
115.1784574382247968
 30
0.0
 11
44.8873150425250103
 21
115.1784574382247968
 31
0.0
  0
LINE
  5
36C1
  8
0
 10
50.2607429325893804
 20
107.1784574382247968
 30
0.0
 11
46.100521093741861
 21
107.1784574382248962
 31
0.0
  0
LINE
  5
36C2
  8
0
 10
52.7478404958031319
 20
115.1784574382247968
 30
0.0
 11
73.9006227255158024
 21
115.1784574382247968
 31
0.0
  0
LINE
  5
36C3
  8
0
 10
43.9006227255155679
 20
107.1784574382247968
 30
0.0
 11
44.9006227255155679
 21
106.1784574382247968
 31
0.0
  0
LINE
  5
36C4
  8
0
 10
44.9006227255153476
 20
116.1784574382247968
 30
0.0
 11
43.9006227255153405
 21
115.1784574382247968
 31
0.0
  0
POLYLINE
  5
36C5
  8
0
 10
51.4006227255155679
 20
106.9284574382247968
 30
0.0
 66
     1
 70
     8
  0
VERTEX
  8
0
  5
473D
 10
51.4006
 20
106.928
 30
0.00000
  70
    32
  0
VERTEX
  8
0
  5
473E
 10
51.3178
 20
106.930
 30
0.00000
  70
    32
  0
VERTEX
  8
0
  5
473F
 10
51.2351
 20
106.934
 30
0.00000
  70
    32
  0
VERTEX
  8
0
  5
4740
 10
51.1525
 20
106.940
 30
0.00000
  70
    32
  0
VERTEX
  8
0
  5
4741
 10
51.0700
 20
106.949
 30
0.00000
  70
    32
  0
VERTEX
  8
0
  5
4742
 10
50.9877
 20
106.960
 30
0.00000
  70
    32
  0
VERTEX
  8
0
  5
4743
 10
50.9057
 20
106.974
 30
0.00000
  70
    32
  0
VERTEX
  8
0
  5
4744
 10
50.8239
 20
106.991
 30
0.00000
  70
    32
  0
VERTEX
  8
0
  5
4745
 10
50.7425
 20
107.010
 30
0.00000
  70
    32
  0
VERTEX
  8
0
  5
4746
 10
50.6615
 20
107.032
 30
0.00000
  70
    32
  0
VERTEX
  8
0
  5
4747
 10
50.5810
 20
107.056
 30
0.00000
  70
    32
  0
VERTEX
  8
0
  5
4748
 10
50.5009
 20
107.082
 30
0.00000
  70
    32
  0
VERTEX
  8
0
  5
4749
 10
50.4214
 20
107.111
 30
0.00000
  70
    32
  0
VERTEX
  8
0
  5
474A
 10
50.3425
 20
107.143
 30
0.00000
  70
    32
  0
VERTEX
  8
0
  5
474B
 10
50.2642
 20
107.177
 30
0.00000
  70
    32
  0
VERTEX
  8
0
  5
474C
 10
50.1866
 20
107.213
 30
0.00000
  70
    32
  0
VERTEX
  8
0
  5
474D
 10
50.1097
 20
107.252
 30
0.00000
  70
    32
  0
VERTEX
  8
0
  5
474E
 10
50.0336
 20
107.293
 30
0.00000
  70
    32
  0
VERTEX
  8
0
  5
474F
 10
49.9584
 20
107.337
 30
0.00000
  70
    32
  0
VERTEX
  8
0
  5
4750
 10
49.8840
 20
107.382
 30
0.00000
  70
    32
  0
VERTEX
  8
0
  5
4751
 10
49.8105
 20
107.430
 30
0.00000
  70
    32
  0
VERTEX
  8
0
  5
4752
 10
49.7379
 20
107.481
 30
0.00000
  70
    32
  0
VERTEX
  8
0
  5
4753
 10
49.6664
 20
107.533
 30
0.00000
  70
    32
  0
VERTEX
  8
0
  5
4754
 10
49.5959
 20
107.588
 30
0.00000
  70
    32
  0
VERTEX
  8
0
  5
4755
 10
49.5265
 20
107.645
 30
0.00000
  70
    32
  0
VERTEX
  8
0
  5
4756
 10
49.4583
 20
107.704
 30
0.00000
  70
    32
  0
VERTEX
  8
0
  5
4757
 10
49.3912
 20
107.765
 30
0.00000
  70
    32
  0
VERTEX
  8
0
  5
4758
 10
49.3253
 20
107.828
 30
0.00000
  70
    32
  0
VERTEX
  8
0
  5
4759
 10
49.2606
 20
107.893
 30
0.00000
  70
    32
  0
VERTEX
  8
0
  5
475A
 10
49.1973
 20
107.960
 30
0.00000
  70
    32
  0
VERTEX
  8
0
  5
475B
 10
49.1353
 20
108.029
 30
0.00000
  70
    32
  0
VERTEX
  8
0
  5
475C
 10
49.0746
 20
108.100
 30
0.00000
  70
    32
  0
VERTEX
  8
0
  5
475D
 10
49.0154
 20
108.173
 30
0.00000
  70
    32
  0
VERTEX
  8
0
  5
475E
 10
48.9575
 20
108.248
 30
0.00000
  70
    32
  0
VERTEX
  8
0
  5
475F
 10
48.9012
 20
108.324
 30
0.00000
  70
    32
  0
VERTEX
  8
0
  5
4760
 10
48.8464
 20
108.402
 30
0.00000
  70
    32
  0
VERTEX
  8
0
  5
4761
 10
48.7931
 20
108.482
 30
0.00000
  70
    32
  0
VERTEX
  8
0
  5
4762
 10
48.7413
 20
108.564
 30
0.00000
  70
    32
  0
VERTEX
  8
0
  5
4763
 10
48.6912
 20
108.647
 30
0.00000
  70
    32
  0
VERTEX
  8
0
  5
4764
 10
48.6427
 20
108.731
 30
0.00000
  70
    32
  0
VERTEX
  8
0
  5
4765
 10
48.5959
 20
108.817
 30
0.00000
  70
    32
  0
VERTEX
  8
0
  5
4766
 10
48.5507
 20
108.905
 30
0.00000
  70
    32
  0
VERTEX
  8
0
  5
4767
 10
48.5073
 20
108.994
 30
0.00000
  70
    32
  0
VERTEX
  8
0
  5
4768
 10
48.4656
 20
109.084
 30
0.00000
  70
    32
  0
VERTEX
  8
0
  5
4769
 10
48.4257
 20
109.175
 30
0.00000
  70
    32
  0
VERTEX
  8
0
  5
476A
 10
48.3875
 20
109.268
 30
0.00000
  70
    32
  0
VERTEX
  8
0
  5
476B
 10
48.3512
 20
109.361
 30
0.00000
  70
    32
  0
VERTEX
  8
0
  5
476C
 10
48.3167
 20
109.456
 30
0.00000
  70
    32
  0
VERTEX
  8
0
  5
476D
 10
48.2841
 20
109.552
 30
0.00000
  70
    32
  0
VERTEX
  8
0
  5
476E
 10
48.2534
 20
109.649
 30
0.00000
  70
    32
  0
VERTEX
  8
0
  5
476F
 10
48.2245
 20
109.747
 30
0.00000
  70
    32
  0
VERTEX
  8
0
  5
4770
 10
48.1976
 20
109.845
 30
0.00000
  70
    32
  0
VERTEX
  8
0
  5
4771
 10
48.1726
 20
109.945
 30
0.00000
  70
    32
  0
VERTEX
  8
0
  5
4772
 10
48.1495
 20
110.045
 30
0.00000
  70
    32
  0
VERTEX
  8
0
  5
4773
 10
48.1284
 20
110.146
 30
0.00000
  70
    32
  0
VERTEX
  8
0
  5
4774
 10
48.1093
 20
110.247
 30
0.00000
  70
    32
  0
VERTEX
  8
0
  5
4775
 10
48.0922
 20
110.349
 30
0.00000
  70
    32
  0
VERTEX
  8
0
  5
4776
 10
48.0770
 20
110.452
 30
0.00000
  70
    32
  0
VERTEX
  8
0
  5
4777
 10
48.0639
 20
110.555
 30
0.00000
  70
    32
  0
VERTEX
  8
0
  5
4778
 10
48.0527
 20
110.658
 30
0.00000
  70
    32
  0
VERTEX
  8
0
  5
4779
 10
48.0436
 20
110.762
 30
0.00000
  70
    32
  0
VERTEX
  8
0
  5
477A
 10
48.0365
 20
110.866
 30
0.00000
  70
    32
  0
VERTEX
  8
0
  5
477B
 10
48.0314
 20
110.970
 30
0.00000
  70
    32
  0
VERTEX
  8
0
  5
477C
 10
48.0284
 20
111.074
 30
0.00000
  70
    32
  0
VERTEX
  8
0
  5
477D
 10
48.0274
 20
111.178
 30
0.00000
  70
    32
  0
VERTEX
  8
0
  5
477E
 10
48.0284
 20
111.283
 30
0.00000
  70
    32
  0
VERTEX
  8
0
  5
477F
 10
48.0314
 20
111.387
 30
0.00000
  70
    32
  0
VERTEX
  8
0
  5
4780
 10
48.0365
 20
111.491
 30
0.00000
  70
    32
  0
VERTEX
  8
0
  5
4781
 10
48.0436
 20
111.595
 30
0.00000
  70
    32
  0
VERTEX
  8
0
  5
4782
 10
48.0527
 20
111.699
 30
0.00000
  70
    32
  0
VERTEX
  8
0
  5
4783
 10
48.0639
 20
111.802
 30
0.00000
  70
    32
  0
VERTEX
  8
0
  5
4784
 10
48.0770
 20
111.905
 30
0.00000
  70
    32
  0
VERTEX
  8
0
  5
4785
 10
48.0922
 20
112.008
 30
0.00000
  70
    32
  0
VERTEX
  8
0
  5
4786
 10
48.1093
 20
112.110
 30
0.00000
  70
    32
  0
VERTEX
  8
0
  5
4787
 10
48.1284
 20
112.211
 30
0.00000
  70
    32
  0
VERTEX
  8
0
  5
4788
 10
48.1495
 20
112.312
 30
0.00000
  70
    32
  0
VERTEX
  8
0
  5
4789
 10
48.1726
 20
112.412
 30
0.00000
  70
    32
  0
VERTEX
  8
0
  5
478A
 10
48.1976
 20
112.512
 30
0.00000
  70
    32
  0
VERTEX
  8
0
  5
478B
 10
48.2245
 20
112.610
 30
0.00000
  70
    32
  0
VERTEX
  8
0
  5
478C
 10
48.2534
 20
112.708
 30
0.00000
  70
    32
  0
VERTEX
  8
0
  5
478D
 10
48.2841
 20
112.805
 30
0.00000
  70
    32
  0
VERTEX
  8
0
  5
478E
 10
48.3167
 20
112.901
 30
0.00000
  70
    32
  0
VERTEX
  8
0
  5
478F
 10
48.3512
 20
112.996
 30
0.00000
  70
    32
  0
VERTEX
  8
0
  5
4790
 10
48.3875
 20
113.089
 30
0.00000
  70
    32
  0
VERTEX
  8
0
  5
4791
 10
48.4257
 20
113.182
 30
0.00000
  70
    32
  0
VERTEX
  8
0
  5
4792
 10
48.4656
 20
113.273
 30
0.00000
  70
    32
  0
VERTEX
  8
0
  5
4793
 10
48.5073
 20
113.363
 30
0.00000
  70
    32
  0
VERTEX
  8
0
  5
4794
 10
48.5507
 20
113.452
 30
0.00000
  70
    32
  0
VERTEX
  8
0
  5
4795
 10
48.5959
 20
113.540
 30
0.00000
  70
    32
  0
VERTEX
  8
0
  5
4796
 10
48.6427
 20
113.626
 30
0.00000
  70
    32
  0
VERTEX
  8
0
  5
4797
 10
48.6912
 20
113.710
 30
0.00000
  70
    32
  0
VERTEX
  8
0
  5
4798
 10
48.7413
 20
113.793
 30
0.00000
  70
    32
  0
VERTEX
  8
0
  5
4799
 10
48.7931
 20
113.875
 30
0.00000
  70
    32
  0
VERTEX
  8
0
  5
479A
 10
48.8464
 20
113.954
 30
0.00000
  70
    32
  0
VERTEX
  8
0
  5
479B
 10
48.9012
 20
114.033
 30
0.00000
  70
    32
  0
VERTEX
  8
0
  5
479C
 10
48.9575
 20
114.109
 30
0.00000
  70
    32
  0
VERTEX
  8
0
  5
479D
 10
49.0154
 20
114.184
 30
0.00000
  70
    32
  0
VERTEX
  8
0
  5
479E
 10
49.0746
 20
114.257
 30
0.00000
  70
    32
  0
VERTEX
  8
0
  5
479F
 10
49.1353
 20
114.327
 30
0.00000
  70
    32
  0
VERTEX
  8
0
  5
47A0
 10
49.1973
 20
114.397
 30
0.00000
  70
    32
  0
VERTEX
  8
0
  5
47A1
 10
49.2606
 20
114.464
 30
0.00000
  70
    32
  0
VERTEX
  8
0
  5
47A2
 10
49.3253
 20
114.529
 30
0.00000
  70
    32
  0
VERTEX
  8
0
  5
47A3
 10
49.3912
 20
114.592
 30
0.00000
  70
    32
  0
VERTEX
  8
0
  5
47A4
 10
49.4583
 20
114.653
 30
0.00000
  70
    32
  0
VERTEX
  8
0
  5
47A5
 10
49.5265
 20
114.712
 30
0.00000
  70
    32
  0
VERTEX
  8
0
  5
47A6
 10
49.5959
 20
114.769
 30
0.00000
  70
    32
  0
VERTEX
  8
0
  5
47A7
 10
49.6664
 20
114.824
 30
0.00000
  70
    32
  0
VERTEX
  8
0
  5
47A8
 10
49.7379
 20
114.876
 30
0.00000
  70
    32
  0
VERTEX
  8
0
  5
47A9
 10
49.8105
 20
114.927
 30
0.00000
  70
    32
  0
VERTEX
  8
0
  5
47AA
 10
49.8840
 20
114.975
 30
0.00000
  70
    32
  0
VERTEX
  8
0
  5
47AB
 10
49.9584
 20
115.020
 30
0.00000
  70
    32
  0
VERTEX
  8
0
  5
47AC
 10
50.0336
 20
115.064
 30
0.00000
  70
    32
  0
VERTEX
  8
0
  5
47AD
 10
50.1097
 20
115.105
 30
0.00000
  70
    32
  0
VERTEX
  8
0
  5
47AE
 10
50.1866
 20
115.144
 30
0.00000
  70
    32
  0
VERTEX
  8
0
  5
47AF
 10
50.2642
 20
115.180
 30
0.00000
  70
    32
  0
VERTEX
  8
0
  5
47B0
 10
50.3425
 20
115.214
 30
0.00000
  70
    32
  0
VERTEX
  8
0
  5
47B1
 10
50.4214
 20
115.245
 30
0.00000
  70
    32
  0
VERTEX
  8
0
  5
47B2
 10
50.5009
 20
115.275
 30
0.00000
  70
    32
  0
VERTEX
  8
0
  5
47B3
 10
50.5810
 20
115.301
 30
0.00000
  70
    32
  0
VERTEX
  8
0
  5
47B4
 10
50.6615
 20
115.325
 30
0.00000
  70
    32
  0
VERTEX
  8
0
  5
47B5
 10
50.7425
 20
115.347
 30
0.00000
  70
    32
  0
VERTEX
  8
0
  5
47B6
 10
50.8239
 20
115.366
 30
0.00000
  70
    32
  0
VERTEX
  8
0
  5
47B7
 10
50.9057
 20
115.382
 30
0.00000
  70
    32
  0
VERTEX
  8
0
  5
47B8
 10
50.9877
 20
115.396
 30
0.00000
  70
    32
  0
VERTEX
  8
0
  5
47B9
 10
51.0700
 20
115.408
 30
0.00000
  70
    32
  0
VERTEX
  8
0
  5
47BA
 10
51.1525
 20
115.417
 30
0.00000
  70
    32
  0
VERTEX
  8
0
  5
47BB
 10
51.2351
 20
115.423
 30
0.00000
  70
    32
  0
VERTEX
  8
0
  5
47BC
 10
51.3178
 20
115.427
 30
0.00000
  70
    32
  0
VERTEX
  8
0
  5
47BD
 10
51.4006
 20
115.428
 30
0.00000
  70
    32
  0
SEQEND
  8
0
  5
47BE
  0
POLYLINE
  5
36C6
  8
0
 10
51.4006227255155679
 20
115.4284574382247968
 30
0.0
 66
     1
 70
     8
  0
VERTEX
  8
0
  5
47BF
 10
51.4006
 20
115.428
 30
0.00000
  70
    32
  0
VERTEX
  8
0
  5
47C0
 10
51.4985
 20
115.427
 30
0.00000
  70
    32
  0
VERTEX
  8
0
  5
47C1
 10
51.5962
 20
115.423
 30
0.00000
  70
    32
  0
VERTEX
  8
0
  5
47C2
 10
51.6939
 20
115.417
 30
0.00000
  70
    32
  0
VERTEX
  8
0
  5
47C3
 10
51.7914
 20
115.408
 30
0.00000
  70
    32
  0
VERTEX
  8
0
  5
47C4
 10
51.8887
 20
115.396
 30
0.00000
  70
    32
  0
VERTEX
  8
0
  5
47C5
 10
51.9856
 20
115.382
 30
0.00000
  70
    32
  0
VERTEX
  8
0
  5
47C6
 10
52.0822
 20
115.366
 30
0.00000
  70
    32
  0
VERTEX
  8
0
  5
47C7
 10
52.1784
 20
115.347
 30
0.00000
  70
    32
  0
VERTEX
  8
0
  5
47C8
 10
52.2741
 20
115.325
 30
0.00000
  70
    32
  0
VERTEX
  8
0
  5
47C9
 10
52.3693
 20
115.301
 30
0.00000
  70
    32
  0
VERTEX
  8
0
  5
47CA
 10
52.4640
 20
115.275
 30
0.00000
  70
    32
  0
VERTEX
  8
0
  5
47CB
 10
52.5579
 20
115.245
 30
0.00000
  70
    32
  0
VERTEX
  8
0
  5
47CC
 10
52.6512
 20
115.214
 30
0.00000
  70
    32
  0
VERTEX
  8
0
  5
47CD
 10
52.7438
 20
115.180
 30
0.00000
  70
    32
  0
VERTEX
  8
0
  5
47CE
 10
52.8355
 20
115.144
 30
0.00000
  70
    32
  0
VERTEX
  8
0
  5
47CF
 10
52.9263
 20
115.105
 30
0.00000
  70
    32
  0
VERTEX
  8
0
  5
47D0
 10
53.0163
 20
115.064
 30
0.00000
  70
    32
  0
VERTEX
  8
0
  5
47D1
 10
53.1052
 20
115.020
 30
0.00000
  70
    32
  0
VERTEX
  8
0
  5
47D2
 10
53.1932
 20
114.975
 30
0.00000
  70
    32
  0
VERTEX
  8
0
  5
47D3
 10
53.2800
 20
114.927
 30
0.00000
  70
    32
  0
VERTEX
  8
0
  5
47D4
 10
53.3657
 20
114.876
 30
0.00000
  70
    32
  0
VERTEX
  8
0
  5
47D5
 10
53.4503
 20
114.824
 30
0.00000
  70
    32
  0
VERTEX
  8
0
  5
47D6
 10
53.5336
 20
114.769
 30
0.00000
  70
    32
  0
VERTEX
  8
0
  5
47D7
 10
53.6156
 20
114.712
 30
0.00000
  70
    32
  0
VERTEX
  8
0
  5
47D8
 10
53.6963
 20
114.653
 30
0.00000
  70
    32
  0
VERTEX
  8
0
  5
47D9
 10
53.7756
 20
114.592
 30
0.00000
  70
    32
  0
VERTEX
  8
0
  5
47DA
 10
53.8535
 20
114.529
 30
0.00000
  70
    32
  0
VERTEX
  8
0
  5
47DB
 10
53.9299
 20
114.464
 30
0.00000
  70
    32
  0
VERTEX
  8
0
  5
47DC
 10
54.0047
 20
114.397
 30
0.00000
  70
    32
  0
VERTEX
  8
0
  5
47DD
 10
54.0780
 20
114.327
 30
0.00000
  70
    32
  0
VERTEX
  8
0
  5
47DE
 10
54.1497
 20
114.257
 30
0.00000
  70
    32
  0
VERTEX
  8
0
  5
47DF
 10
54.2198
 20
114.184
 30
0.00000
  70
    32
  0
VERTEX
  8
0
  5
47E0
 10
54.2881
 20
114.109
 30
0.00000
  70
    32
  0
VERTEX
  8
0
  5
47E1
 10
54.3547
 20
114.033
 30
0.00000
  70
    32
  0
VERTEX
  8
0
  5
47E2
 10
54.4195
 20
113.954
 30
0.00000
  70
    32
  0
VERTEX
  8
0
  5
47E3
 10
54.4825
 20
113.875
 30
0.00000
  70
    32
  0
VERTEX
  8
0
  5
47E4
 10
54.5436
 20
113.793
 30
0.00000
  70
    32
  0
VERTEX
  8
0
  5
47E5
 10
54.6029
 20
113.710
 30
0.00000
  70
    32
  0
VERTEX
  8
0
  5
47E6
 10
54.6602
 20
113.626
 30
0.00000
  70
    32
  0
VERTEX
  8
0
  5
47E7
 10
54.7156
 20
113.540
 30
0.00000
  70
    32
  0
VERTEX
  8
0
  5
47E8
 10
54.7689
 20
113.452
 30
0.00000
  70
    32
  0
VERTEX
  8
0
  5
47E9
 10
54.8203
 20
113.363
 30
0.00000
  70
    32
  0
VERTEX
  8
0
  5
47EA
 10
54.8695
 20
113.273
 30
0.00000
  70
    32
  0
VERTEX
  8
0
  5
47EB
 10
54.9167
 20
113.182
 30
0.00000
  70
    32
  0
VERTEX
  8
0
  5
47EC
 10
54.9618
 20
113.089
 30
0.00000
  70
    32
  0
VERTEX
  8
0
  5
47ED
 10
55.0047
 20
112.996
 30
0.00000
  70
    32
  0
VERTEX
  8
0
  5
47EE
 10
55.0454
 20
112.901
 30
0.00000
  70
    32
  0
VERTEX
  8
0
  5
47EF
 10
55.0840
 20
112.805
 30
0.00000
  70
    32
  0
VERTEX
  8
0
  5
47F0
 10
55.1203
 20
112.708
 30
0.00000
  70
    32
  0
VERTEX
  8
0
  5
47F1
 10
55.1544
 20
112.610
 30
0.00000
  70
    32
  0
VERTEX
  8
0
  5
47F2
 10
55.1862
 20
112.512
 30
0.00000
  70
    32
  0
VERTEX
  8
0
  5
47F3
 10
55.2158
 20
112.412
 30
0.00000
  70
    32
  0
VERTEX
  8
0
  5
47F4
 10
55.2431
 20
112.312
 30
0.00000
  70
    32
  0
VERTEX
  8
0
  5
47F5
 10
55.2680
 20
112.211
 30
0.00000
  70
    32
  0
VERTEX
  8
0
  5
47F6
 10
55.2906
 20
112.110
 30
0.00000
  70
    32
  0
VERTEX
  8
0
  5
47F7
 10
55.3109
 20
112.008
 30
0.00000
  70
    32
  0
VERTEX
  8
0
  5
47F8
 10
55.3288
 20
111.905
 30
0.00000
  70
    32
  0
VERTEX
  8
0
  5
47F9
 10
55.3443
 20
111.802
 30
0.00000
  70
    32
  0
VERTEX
  8
0
  5
47FA
 10
55.3575
 20
111.699
 30
0.00000
  70
    32
  0
VERTEX
  8
0
  5
47FB
 10
55.3683
 20
111.595
 30
0.00000
  70
    32
  0
VERTEX
  8
0
  5
47FC
 10
55.3767
 20
111.491
 30
0.00000
  70
    32
  0
VERTEX
  8
0
  5
47FD
 10
55.3827
 20
111.387
 30
0.00000
  70
    32
  0
VERTEX
  8
0
  5
47FE
 10
55.3863
 20
111.283
 30
0.00000
  70
    32
  0
VERTEX
  8
0
  5
47FF
 10
55.3875
 20
111.178
 30
0.00000
  70
    32
  0
VERTEX
  8
0
  5
4800
 10
55.3863
 20
111.074
 30
0.00000
  70
    32
  0
VERTEX
  8
0
  5
4801
 10
55.3827
 20
110.970
 30
0.00000
  70
    32
  0
VERTEX
  8
0
  5
4802
 10
55.3767
 20
110.866
 30
0.00000
  70
    32
  0
VERTEX
  8
0
  5
4803
 10
55.3683
 20
110.762
 30
0.00000
  70
    32
  0
VERTEX
  8
0
  5
4804
 10
55.3575
 20
110.658
 30
0.00000
  70
    32
  0
VERTEX
  8
0
  5
4805
 10
55.3443
 20
110.555
 30
0.00000
  70
    32
  0
VERTEX
  8
0
  5
4806
 10
55.3288
 20
110.452
 30
0.00000
  70
    32
  0
VERTEX
  8
0
  5
4807
 10
55.3109
 20
110.349
 30
0.00000
  70
    32
  0
VERTEX
  8
0
  5
4808
 10
55.2906
 20
110.247
 30
0.00000
  70
    32
  0
VERTEX
  8
0
  5
4809
 10
55.2680
 20
110.146
 30
0.00000
  70
    32
  0
VERTEX
  8
0
  5
480A
 10
55.2431
 20
110.045
 30
0.00000
  70
    32
  0
VERTEX
  8
0
  5
480B
 10
55.2158
 20
109.945
 30
0.00000
  70
    32
  0
VERTEX
  8
0
  5
480C
 10
55.1862
 20
109.845
 30
0.00000
  70
    32
  0
VERTEX
  8
0
  5
480D
 10
55.1544
 20
109.747
 30
0.00000
  70
    32
  0
VERTEX
  8
0
  5
480E
 10
55.1203
 20
109.649
 30
0.00000
  70
    32
  0
VERTEX
  8
0
  5
480F
 10
55.0840
 20
109.552
 30
0.00000
  70
    32
  0
VERTEX
  8
0
  5
4810
 10
55.0454
 20
109.456
 30
0.00000
  70
    32
  0
VERTEX
  8
0
  5
4811
 10
55.0047
 20
109.361
 30
0.00000
  70
    32
  0
VERTEX
  8
0
  5
4812
 10
54.9618
 20
109.268
 30
0.00000
  70
    32
  0
VERTEX
  8
0
  5
4813
 10
54.9167
 20
109.175
 30
0.00000
  70
    32
  0
VERTEX
  8
0
  5
4814
 10
54.8695
 20
109.084
 30
0.00000
  70
    32
  0
VERTEX
  8
0
  5
4815
 10
54.8203
 20
108.994
 30
0.00000
  70
    32
  0
VERTEX
  8
0
  5
4816
 10
54.7689
 20
108.905
 30
0.00000
  70
    32
  0
VERTEX
  8
0
  5
4817
 10
54.7156
 20
108.817
 30
0.00000
  70
    32
  0
VERTEX
  8
0
  5
4818
 10
54.6602
 20
108.731
 30
0.00000
  70
    32
  0
VERTEX
  8
0
  5
4819
 10
54.6029
 20
108.647
 30
0.00000
  70
    32
  0
VERTEX
  8
0
  5
481A
 10
54.5436
 20
108.564
 30
0.00000
  70
    32
  0
VERTEX
  8
0
  5
481B
 10
54.4825
 20
108.482
 30
0.00000
  70
    32
  0
VERTEX
  8
0
  5
481C
 10
54.4195
 20
108.402
 30
0.00000
  70
    32
  0
VERTEX
  8
0
  5
481D
 10
54.3547
 20
108.324
 30
0.00000
  70
    32
  0
VERTEX
  8
0
  5
481E
 10
54.2881
 20
108.248
 30
0.00000
  70
    32
  0
VERTEX
  8
0
  5
481F
 10
54.2198
 20
108.173
 30
0.00000
  70
    32
  0
VERTEX
  8
0
  5
4820
 10
54.1497
 20
108.100
 30
0.00000
  70
    32
  0
VERTEX
  8
0
  5
4821
 10
54.0780
 20
108.029
 30
0.00000
  70
    32
  0
VERTEX
  8
0
  5
4822
 10
54.0047
 20
107.960
 30
0.00000
  70
    32
  0
VERTEX
  8
0
  5
4823
 10
53.9299
 20
107.893
 30
0.00000
  70
    32
  0
VERTEX
  8
0
  5
4824
 10
53.8535
 20
107.828
 30
0.00000
  70
    32
  0
VERTEX
  8
0
  5
4825
 10
53.7756
 20
107.765
 30
0.00000
  70
    32
  0
VERTEX
  8
0
  5
4826
 10
53.6963
 20
107.704
 30
0.00000
  70
    32
  0
VERTEX
  8
0
  5
4827
 10
53.6156
 20
107.645
 30
0.00000
  70
    32
  0
VERTEX
  8
0
  5
4828
 10
53.5336
 20
107.588
 30
0.00000
  70
    32
  0
VERTEX
  8
0
  5
4829
 10
53.4503
 20
107.533
 30
0.00000
  70
    32
  0
VERTEX
  8
0
  5
482A
 10
53.3657
 20
107.481
 30
0.00000
  70
    32
  0
VERTEX
  8
0
  5
482B
 10
53.2800
 20
107.430
 30
0.00000
  70
    32
  0
VERTEX
  8
0
  5
482C
 10
53.1932
 20
107.382
 30
0.00000
  70
    32
  0
VERTEX
  8
0
  5
482D
 10
53.1052
 20
107.337
 30
0.00000
  70
    32
  0
VERTEX
  8
0
  5
482E
 10
53.0163
 20
107.293
 30
0.00000
  70
    32
  0
VERTEX
  8
0
  5
482F
 10
52.9263
 20
107.252
 30
0.00000
  70
    32
  0
VERTEX
  8
0
  5
4830
 10
52.8355
 20
107.213
 30
0.00000
  70
    32
  0
VERTEX
  8
0
  5
4831
 10
52.7438
 20
107.177
 30
0.00000
  70
    32
  0
VERTEX
  8
0
  5
4832
 10
52.6512
 20
107.143
 30
0.00000
  70
    32
  0
VERTEX
  8
0
  5
4833
 10
52.5579
 20
107.111
 30
0.00000
  70
    32
  0
VERTEX
  8
0
  5
4834
 10
52.4640
 20
107.082
 30
0.00000
  70
    32
  0
VERTEX
  8
0
  5
4835
 10
52.3693
 20
107.056
 30
0.00000
  70
    32
  0
VERTEX
  8
0
  5
4836
 10
52.2741
 20
107.032
 30
0.00000
  70
    32
  0
VERTEX
  8
0
  5
4837
 10
52.1784
 20
107.010
 30
0.00000
  70
    32
  0
VERTEX
  8
0
  5
4838
 10
52.0822
 20
106.991
 30
0.00000
  70
    32
  0
VERTEX
  8
0
  5
4839
 10
51.9856
 20
106.974
 30
0.00000
  70
    32
  0
VERTEX
  8
0
  5
483A
 10
51.8887
 20
106.960
 30
0.00000
  70
    32
  0
VERTEX
  8
0
  5
483B
 10
51.7914
 20
106.949
 30
0.00000
  70
    32
  0
VERTEX
  8
0
  5
483C
 10
51.6939
 20
106.940
 30
0.00000
  70
    32
  0
VERTEX
  8
0
  5
483D
 10
51.5962
 20
106.934
 30
0.00000
  70
    32
  0
VERTEX
  8
0
  5
483E
 10
51.4985
 20
106.930
 30
0.00000
  70
    32
  0
VERTEX
  8
0
  5
483F
 10
51.4006
 20
106.928
 30
0.00000
  70
    32
  0
SEQEND
  8
0
  5
4840
  0
POLYLINE
  5
36C7
  8
3
 10
51.9006229137362993
 20
108.6784574382247968
 30
0.0
 66
     1
 70
     8
  0
VERTEX
  8
3
  5
4841
 10
51.9006
 20
108.678
 30
0.00000
  70
    32
  0
VERTEX
  8
3
  5
4842
 10
51.8519
 20
108.679
 30
0.00000
  70
    32
  0
VERTEX
  8
3
  5
4843
 10
51.8033
 20
108.681
 30
0.00000
  70
    32
  0
VERTEX
  8
3
  5
4844
 10
51.7546
 20
108.685
 30
0.00000
  70
    32
  0
VERTEX
  8
3
  5
4845
 10
51.7061
 20
108.690
 30
0.00000
  70
    32
  0
VERTEX
  8
3
  5
4846
 10
51.6577
 20
108.697
 30
0.00000
  70
    32
  0
VERTEX
  8
3
  5
4847
 10
51.6095
 20
108.706
 30
0.00000
  70
    32
  0
VERTEX
  8
3
  5
4848
 10
51.5614
 20
108.715
 30
0.00000
  70
    32
  0
VERTEX
  8
3
  5
4849
 10
51.5135
 20
108.726
 30
0.00000
  70
    32
  0
VERTEX
  8
3
  5
484A
 10
51.4658
 20
108.739
 30
0.00000
  70
    32
  0
VERTEX
  8
3
  5
484B
 10
51.4185
 20
108.753
 30
0.00000
  70
    32
  0
VERTEX
  8
3
  5
484C
 10
51.3714
 20
108.769
 30
0.00000
  70
    32
  0
VERTEX
  8
3
  5
484D
 10
51.3246
 20
108.786
 30
0.00000
  70
    32
  0
VERTEX
  8
3
  5
484E
 10
51.2782
 20
108.805
 30
0.00000
  70
    32
  0
VERTEX
  8
3
  5
484F
 10
51.2321
 20
108.825
 30
0.00000
  70
    32
  0
VERTEX
  8
3
  5
4850
 10
51.1864
 20
108.846
 30
0.00000
  70
    32
  0
VERTEX
  8
3
  5
4851
 10
51.1412
 20
108.869
 30
0.00000
  70
    32
  0
VERTEX
  8
3
  5
4852
 10
51.0965
 20
108.893
 30
0.00000
  70
    32
  0
VERTEX
  8
3
  5
4853
 10
51.0522
 20
108.918
 30
0.00000
  70
    32
  0
VERTEX
  8
3
  5
4854
 10
51.0084
 20
108.945
 30
0.00000
  70
    32
  0
VERTEX
  8
3
  5
4855
 10
50.9652
 20
108.974
 30
0.00000
  70
    32
  0
VERTEX
  8
3
  5
4856
 10
50.9225
 20
109.003
 30
0.00000
  70
    32
  0
VERTEX
  8
3
  5
4857
 10
50.8804
 20
109.034
 30
0.00000
  70
    32
  0
VERTEX
  8
3
  5
4858
 10
50.8390
 20
109.066
 30
0.00000
  70
    32
  0
VERTEX
  8
3
  5
4859
 10
50.7982
 20
109.100
 30
0.00000
  70
    32
  0
VERTEX
  8
3
  5
485A
 10
50.7580
 20
109.134
 30
0.00000
  70
    32
  0
VERTEX
  8
3
  5
485B
 10
50.7185
 20
109.170
 30
0.00000
  70
    32
  0
VERTEX
  8
3
  5
485C
 10
50.6798
 20
109.208
 30
0.00000
  70
    32
  0
VERTEX
  8
3
  5
485D
 10
50.6417
 20
109.246
 30
0.00000
  70
    32
  0
VERTEX
  8
3
  5
485E
 10
50.6045
 20
109.285
 30
0.00000
  70
    32
  0
VERTEX
  8
3
  5
485F
 10
50.5680
 20
109.326
 30
0.00000
  70
    32
  0
VERTEX
  8
3
  5
4860
 10
50.5323
 20
109.368
 30
0.00000
  70
    32
  0
VERTEX
  8
3
  5
4861
 10
50.4974
 20
109.411
 30
0.00000
  70
    32
  0
VERTEX
  8
3
  5
4862
 10
50.4634
 20
109.455
 30
0.00000
  70
    32
  0
VERTEX
  8
3
  5
4863
 10
50.4303
 20
109.500
 30
0.00000
  70
    32
  0
VERTEX
  8
3
  5
4864
 10
50.3980
 20
109.546
 30
0.00000
  70
    32
  0
VERTEX
  8
3
  5
4865
 10
50.3667
 20
109.592
 30
0.00000
  70
    32
  0
VERTEX
  8
3
  5
4866
 10
50.3362
 20
109.640
 30
0.00000
  70
    32
  0
VERTEX
  8
3
  5
4867
 10
50.3067
 20
109.689
 30
0.00000
  70
    32
  0
VERTEX
  8
3
  5
4868
 10
50.2782
 20
109.739
 30
0.00000
  70
    32
  0
VERTEX
  8
3
  5
4869
 10
50.2507
 20
109.790
 30
0.00000
  70
    32
  0
VERTEX
  8
3
  5
486A
 10
50.2241
 20
109.841
 30
0.00000
  70
    32
  0
VERTEX
  8
3
  5
486B
 10
50.1986
 20
109.893
 30
0.00000
  70
    32
  0
VERTEX
  8
3
  5
486C
 10
50.1740
 20
109.946
 30
0.00000
  70
    32
  0
VERTEX
  8
3
  5
486D
 10
50.1505
 20
110.000
 30
0.00000
  70
    32
  0
VERTEX
  8
3
  5
486E
 10
50.1281
 20
110.054
 30
0.00000
  70
    32
  0
VERTEX
  8
3
  5
486F
 10
50.1068
 20
110.110
 30
0.00000
  70
    32
  0
VERTEX
  8
3
  5
4870
 10
50.0865
 20
110.165
 30
0.00000
  70
    32
  0
VERTEX
  8
3
  5
4871
 10
50.0673
 20
110.222
 30
0.00000
  70
    32
  0
VERTEX
  8
3
  5
4872
 10
50.0492
 20
110.279
 30
0.00000
  70
    32
  0
VERTEX
  8
3
  5
4873
 10
50.0322
 20
110.336
 30
0.00000
  70
    32
  0
VERTEX
  8
3
  5
4874
 10
50.0164
 20
110.394
 30
0.00000
  70
    32
  0
VERTEX
  8
3
  5
4875
 10
50.0017
 20
110.453
 30
0.00000
  70
    32
  0
VERTEX
  8
3
  5
4876
 10
49.9881
 20
110.512
 30
0.00000
  70
    32
  0
VERTEX
  8
3
  5
4877
 10
49.9757
 20
110.571
 30
0.00000
  70
    32
  0
VERTEX
  8
3
  5
4878
 10
49.9644
 20
110.631
 30
0.00000
  70
    32
  0
VERTEX
  8
3
  5
4879
 10
49.9544
 20
110.691
 30
0.00000
  70
    32
  0
VERTEX
  8
3
  5
487A
 10
49.9454
 20
110.751
 30
0.00000
  70
    32
  0
VERTEX
  8
3
  5
487B
 10
49.9377
 20
110.812
 30
0.00000
  70
    32
  0
VERTEX
  8
3
  5
487C
 10
49.9312
 20
110.872
 30
0.00000
  70
    32
  0
VERTEX
  8
3
  5
487D
 10
49.9258
 20
110.933
 30
0.00000
  70
    32
  0
VERTEX
  8
3
  5
487E
 10
49.9216
 20
110.995
 30
0.00000
  70
    32
  0
VERTEX
  8
3
  5
487F
 10
49.9186
 20
111.056
 30
0.00000
  70
    32
  0
VERTEX
  8
3
  5
4880
 10
49.9168
 20
111.117
 30
0.00000
  70
    32
  0
VERTEX
  8
3
  5
4881
 10
49.9162
 20
111.178
 30
0.00000
  70
    32
  0
VERTEX
  8
3
  5
4882
 10
49.9168
 20
111.240
 30
0.00000
  70
    32
  0
VERTEX
  8
3
  5
4883
 10
49.9186
 20
111.301
 30
0.00000
  70
    32
  0
VERTEX
  8
3
  5
4884
 10
49.9216
 20
111.362
 30
0.00000
  70
    32
  0
VERTEX
  8
3
  5
4885
 10
49.9258
 20
111.424
 30
0.00000
  70
    32
  0
VERTEX
  8
3
  5
4886
 10
49.9312
 20
111.484
 30
0.00000
  70
    32
  0
VERTEX
  8
3
  5
4887
 10
49.9377
 20
111.545
 30
0.00000
  70
    32
  0
VERTEX
  8
3
  5
4888
 10
49.9454
 20
111.606
 30
0.00000
  70
    32
  0
VERTEX
  8
3
  5
4889
 10
49.9544
 20
111.666
 30
0.00000
  70
    32
  0
VERTEX
  8
3
  5
488A
 10
49.9644
 20
111.726
 30
0.00000
  70
    32
  0
VERTEX
  8
3
  5
488B
 10
49.9757
 20
111.786
 30
0.00000
  70
    32
  0
VERTEX
  8
3
  5
488C
 10
49.9881
 20
111.845
 30
0.00000
  70
    32
  0
VERTEX
  8
3
  5
488D
 10
50.0017
 20
111.904
 30
0.00000
  70
    32
  0
VERTEX
  8
3
  5
488E
 10
50.0164
 20
111.963
 30
0.00000
  70
    32
  0
VERTEX
  8
3
  5
488F
 10
50.0322
 20
112.021
 30
0.00000
  70
    32
  0
VERTEX
  8
3
  5
4890
 10
50.0492
 20
112.078
 30
0.00000
  70
    32
  0
VERTEX
  8
3
  5
4891
 10
50.0673
 20
112.135
 30
0.00000
  70
    32
  0
VERTEX
  8
3
  5
4892
 10
50.0865
 20
112.192
 30
0.00000
  70
    32
  0
VERTEX
  8
3
  5
4893
 10
50.1068
 20
112.247
 30
0.00000
  70
    32
  0
VERTEX
  8
3
  5
4894
 10
50.1281
 20
112.302
 30
0.00000
  70
    32
  0
VERTEX
  8
3
  5
4895
 10
50.1505
 20
112.357
 30
0.00000
  70
    32
  0
VERTEX
  8
3
  5
4896
 10
50.1740
 20
112.411
 30
0.00000
  70
    32
  0
VERTEX
  8
3
  5
4897
 10
50.1986
 20
112.464
 30
0.00000
  70
    32
  0
VERTEX
  8
3
  5
4898
 10
50.2241
 20
112.516
 30
0.00000
  70
    32
  0
VERTEX
  8
3
  5
4899
 10
50.2507
 20
112.567
 30
0.00000
  70
    32
  0
VERTEX
  8
3
  5
489A
 10
50.2782
 20
112.618
 30
0.00000
  70
    32
  0
VERTEX
  8
3
  5
489B
 10
50.3067
 20
112.668
 30
0.00000
  70
    32
  0
VERTEX
  8
3
  5
489C
 10
50.3362
 20
112.717
 30
0.00000
  70
    32
  0
VERTEX
  8
3
  5
489D
 10
50.3667
 20
112.764
 30
0.00000
  70
    32
  0
VERTEX
  8
3
  5
489E
 10
50.3980
 20
112.811
 30
0.00000
  70
    32
  0
VERTEX
  8
3
  5
489F
 10
50.4303
 20
112.857
 30
0.00000
  70
    32
  0
VERTEX
  8
3
  5
48A0
 10
50.4634
 20
112.902
 30
0.00000
  70
    32
  0
VERTEX
  8
3
  5
48A1
 10
50.4974
 20
112.946
 30
0.00000
  70
    32
  0
VERTEX
  8
3
  5
48A2
 10
50.5323
 20
112.989
 30
0.00000
  70
    32
  0
VERTEX
  8
3
  5
48A3
 10
50.5680
 20
113.031
 30
0.00000
  70
    32
  0
VERTEX
  8
3
  5
48A4
 10
50.6045
 20
113.071
 30
0.00000
  70
    32
  0
VERTEX
  8
3
  5
48A5
 10
50.6417
 20
113.111
 30
0.00000
  70
    32
  0
VERTEX
  8
3
  5
48A6
 10
50.6798
 20
113.149
 30
0.00000
  70
    32
  0
VERTEX
  8
3
  5
48A7
 10
50.7185
 20
113.186
 30
0.00000
  70
    32
  0
VERTEX
  8
3
  5
48A8
 10
50.7580
 20
113.222
 30
0.00000
  70
    32
  0
VERTEX
  8
3
  5
48A9
 10
50.7982
 20
113.257
 30
0.00000
  70
    32
  0
VERTEX
  8
3
  5
48AA
 10
50.8390
 20
113.291
 30
0.00000
  70
    32
  0
VERTEX
  8
3
  5
48AB
 10
50.8804
 20
113.323
 30
0.00000
  70
    32
  0
VERTEX
  8
3
  5
48AC
 10
50.9225
 20
113.354
 30
0.00000
  70
    32
  0
VERTEX
  8
3
  5
48AD
 10
50.9652
 20
113.383
 30
0.00000
  70
    32
  0
VERTEX
  8
3
  5
48AE
 10
51.0084
 20
113.412
 30
0.00000
  70
    32
  0
VERTEX
  8
3
  5
48AF
 10
51.0522
 20
113.438
 30
0.00000
  70
    32
  0
VERTEX
  8
3
  5
48B0
 10
51.0965
 20
113.464
 30
0.00000
  70
    32
  0
VERTEX
  8
3
  5
48B1
 10
51.1412
 20
113.488
 30
0.00000
  70
    32
  0
VERTEX
  8
3
  5
48B2
 10
51.1864
 20
113.511
 30
0.00000
  70
    32
  0
VERTEX
  8
3
  5
48B3
 10
51.2321
 20
113.532
 30
0.00000
  70
    32
  0
VERTEX
  8
3
  5
48B4
 10
51.2782
 20
113.552
 30
0.00000
  70
    32
  0
VERTEX
  8
3
  5
48B5
 10
51.3246
 20
113.571
 30
0.00000
  70
    32
  0
VERTEX
  8
3
  5
48B6
 10
51.3714
 20
113.588
 30
0.00000
  70
    32
  0
VERTEX
  8
3
  5
48B7
 10
51.4185
 20
113.604
 30
0.00000
  70
    32
  0
VERTEX
  8
3
  5
48B8
 10
51.4658
 20
113.618
 30
0.00000
  70
    32
  0
VERTEX
  8
3
  5
48B9
 10
51.5135
 20
113.630
 30
0.00000
  70
    32
  0
VERTEX
  8
3
  5
48BA
 10
51.5614
 20
113.642
 30
0.00000
  70
    32
  0
VERTEX
  8
3
  5
48BB
 10
51.6095
 20
113.651
 30
0.00000
  70
    32
  0
VERTEX
  8
3
  5
48BC
 10
51.6577
 20
113.660
 30
0.00000
  70
    32
  0
VERTEX
  8
3
  5
48BD
 10
51.7061
 20
113.666
 30
0.00000
  70
    32
  0
VERTEX
  8
3
  5
48BE
 10
51.7546
 20
113.672
 30
0.00000
  70
    32
  0
VERTEX
  8
3
  5
48BF
 10
51.8033
 20
113.675
 30
0.00000
  70
    32
  0
VERTEX
  8
3
  5
48C0
 10
51.8519
 20
113.678
 30
0.00000
  70
    32
  0
VERTEX
  8
3
  5
48C1
 10
51.9006
 20
113.678
 30
0.00000
  70
    32
  0
SEQEND
  8
3
  5
48C2
  0
POLYLINE
  5
36C8
  8
3
 10
51.9006229137362993
 20
113.6784574382247968
 30
0.0
 66
     1
 70
     8
  0
VERTEX
  8
3
  5
48C3
 10
51.9006
 20
113.678
 30
0.00000
  70
    32
  0
VERTEX
  8
3
  5
48C4
 10
51.9582
 20
113.678
 30
0.00000
  70
    32
  0
VERTEX
  8
3
  5
48C5
 10
52.0157
 20
113.675
 30
0.00000
  70
    32
  0
VERTEX
  8
3
  5
48C6
 10
52.0732
 20
113.672
 30
0.00000
  70
    32
  0
VERTEX
  8
3
  5
48C7
 10
52.1305
 20
113.666
 30
0.00000
  70
    32
  0
VERTEX
  8
3
  5
48C8
 10
52.1878
 20
113.660
 30
0.00000
  70
    32
  0
VERTEX
  8
3
  5
48C9
 10
52.2448
 20
113.651
 30
0.00000
  70
    32
  0
VERTEX
  8
3
  5
48CA
 10
52.3017
 20
113.642
 30
0.00000
  70
    32
  0
VERTEX
  8
3
  5
48CB
 10
52.3583
 20
113.630
 30
0.00000
  70
    32
  0
VERTEX
  8
3
  5
48CC
 10
52.4146
 20
113.618
 30
0.00000
  70
    32
  0
VERTEX
  8
3
  5
48CD
 10
52.4706
 20
113.604
 30
0.00000
  70
    32
  0
VERTEX
  8
3
  5
48CE
 10
52.5263
 20
113.588
 30
0.00000
  70
    32
  0
VERTEX
  8
3
  5
48CF
 10
52.5816
 20
113.571
 30
0.00000
  70
    32
  0
VERTEX
  8
3
  5
48D0
 10
52.6364
 20
113.552
 30
0.00000
  70
    32
  0
VERTEX
  8
3
  5
48D1
 10
52.6909
 20
113.532
 30
0.00000
  70
    32
  0
VERTEX
  8
3
  5
48D2
 10
52.7448
 20
113.511
 30
0.00000
  70
    32
  0
VERTEX
  8
3
  5
48D3
 10
52.7983
 20
113.488
 30
0.00000
  70
    32
  0
VERTEX
  8
3
  5
48D4
 10
52.8512
 20
113.464
 30
0.00000
  70
    32
  0
VERTEX
  8
3
  5
48D5
 10
52.9036
 20
113.438
 30
0.00000
  70
    32
  0
VERTEX
  8
3
  5
48D6
 10
52.9553
 20
113.412
 30
0.00000
  70
    32
  0
VERTEX
  8
3
  5
48D7
 10
53.0064
 20
113.383
 30
0.00000
  70
    32
  0
VERTEX
  8
3
  5
48D8
 10
53.0568
 20
113.354
 30
0.00000
  70
    32
  0
VERTEX
  8
3
  5
48D9
 10
53.1066
 20
113.323
 30
0.00000
  70
    32
  0
VERTEX
  8
3
  5
48DA
 10
53.1556
 20
113.291
 30
0.00000
  70
    32
  0
VERTEX
  8
3
  5
48DB
 10
53.2038
 20
113.257
 30
0.00000
  70
    32
  0
VERTEX
  8
3
  5
48DC
 10
53.2513
 20
113.222
 30
0.00000
  70
    32
  0
VERTEX
  8
3
  5
48DD
 10
53.2980
 20
113.186
 30
0.00000
  70
    32
  0
VERTEX
  8
3
  5
48DE
 10
53.3438
 20
113.149
 30
0.00000
  70
    32
  0
VERTEX
  8
3
  5
48DF
 10
53.3887
 20
113.111
 30
0.00000
  70
    32
  0
VERTEX
  8
3
  5
48E0
 10
53.4328
 20
113.071
 30
0.00000
  70
    32
  0
VERTEX
  8
3
  5
48E1
 10
53.4759
 20
113.031
 30
0.00000
  70
    32
  0
VERTEX
  8
3
  5
48E2
 10
53.5181
 20
112.989
 30
0.00000
  70
    32
  0
VERTEX
  8
3
  5
48E3
 10
53.5593
 20
112.946
 30
0.00000
  70
    32
  0
VERTEX
  8
3
  5
48E4
 10
53.5995
 20
112.902
 30
0.00000
  70
    32
  0
VERTEX
  8
3
  5
48E5
 10
53.6387
 20
112.857
 30
0.00000
  70
    32
  0
VERTEX
  8
3
  5
48E6
 10
53.6768
 20
112.811
 30
0.00000
  70
    32
  0
VERTEX
  8
3
  5
48E7
 10
53.7139
 20
112.764
 30
0.00000
  70
    32
  0
VERTEX
  8
3
  5
48E8
 10
53.7499
 20
112.717
 30
0.00000
  70
    32
  0
VERTEX
  8
3
  5
48E9
 10
53.7847
 20
112.668
 30
0.00000
  70
    32
  0
VERTEX
  8
3
  5
48EA
 10
53.8185
 20
112.618
 30
0.00000
  70
    32
  0
VERTEX
  8
3
  5
48EB
 10
53.8510
 20
112.567
 30
0.00000
  70
    32
  0
VERTEX
  8
3
  5
48EC
 10
53.8824
 20
112.516
 30
0.00000
  70
    32
  0
VERTEX
  8
3
  5
48ED
 10
53.9126
 20
112.464
 30
0.00000
  70
    32
  0
VERTEX
  8
3
  5
48EE
 10
53.9416
 20
112.411
 30
0.00000
  70
    32
  0
VERTEX
  8
3
  5
48EF
 10
53.9694
 20
112.357
 30
0.00000
  70
    32
  0
VERTEX
  8
3
  5
48F0
 10
53.9959
 20
112.302
 30
0.00000
  70
    32
  0
VERTEX
  8
3
  5
48F1
 10
54.0211
 20
112.247
 30
0.00000
  70
    32
  0
VERTEX
  8
3
  5
48F2
 10
54.0451
 20
112.192
 30
0.00000
  70
    32
  0
VERTEX
  8
3
  5
48F3
 10
54.0678
 20
112.135
 30
0.00000
  70
    32
  0
VERTEX
  8
3
  5
48F4
 10
54.0892
 20
112.078
 30
0.00000
  70
    32
  0
VERTEX
  8
3
  5
48F5
 10
54.1092
 20
112.021
 30
0.00000
  70
    32
  0
VERTEX
  8
3
  5
48F6
 10
54.1280
 20
111.963
 30
0.00000
  70
    32
  0
VERTEX
  8
3
  5
48F7
 10
54.1454
 20
111.904
 30
0.00000
  70
    32
  0
VERTEX
  8
3
  5
48F8
 10
54.1614
 20
111.845
 30
0.00000
  70
    32
  0
VERTEX
  8
3
  5
48F9
 10
54.1761
 20
111.786
 30
0.00000
  70
    32
  0
VERTEX
  8
3
  5
48FA
 10
54.1894
 20
111.726
 30
0.00000
  70
    32
  0
VERTEX
  8
3
  5
48FB
 10
54.2013
 20
111.666
 30
0.00000
  70
    32
  0
VERTEX
  8
3
  5
48FC
 10
54.2118
 20
111.606
 30
0.00000
  70
    32
  0
VERTEX
  8
3
  5
48FD
 10
54.2210
 20
111.545
 30
0.00000
  70
    32
  0
VERTEX
  8
3
  5
48FE
 10
54.2287
 20
111.484
 30
0.00000
  70
    32
  0
VERTEX
  8
3
  5
48FF
 10
54.2351
 20
111.424
 30
0.00000
  70
    32
  0
VERTEX
  8
3
  5
4900
 10
54.2400
 20
111.362
 30
0.00000
  70
    32
  0
VERTEX
  8
3
  5
4901
 10
54.2435
 20
111.301
 30
0.00000
  70
    32
  0
VERTEX
  8
3
  5
4902
 10
54.2457
 20
111.240
 30
0.00000
  70
    32
  0
VERTEX
  8
3
  5
4903
 10
54.2464
 20
111.178
 30
0.00000
  70
    32
  0
VERTEX
  8
3
  5
4904
 10
54.2457
 20
111.117
 30
0.00000
  70
    32
  0
VERTEX
  8
3
  5
4905
 10
54.2435
 20
111.056
 30
0.00000
  70
    32
  0
VERTEX
  8
3
  5
4906
 10
54.2400
 20
110.995
 30
0.00000
  70
    32
  0
VERTEX
  8
3
  5
4907
 10
54.2351
 20
110.933
 30
0.00000
  70
    32
  0
VERTEX
  8
3
  5
4908
 10
54.2287
 20
110.872
 30
0.00000
  70
    32
  0
VERTEX
  8
3
  5
4909
 10
54.2210
 20
110.812
 30
0.00000
  70
    32
  0
VERTEX
  8
3
  5
490A
 10
54.2118
 20
110.751
 30
0.00000
  70
    32
  0
VERTEX
  8
3
  5
490B
 10
54.2013
 20
110.691
 30
0.00000
  70
    32
  0
VERTEX
  8
3
  5
490C
 10
54.1894
 20
110.631
 30
0.00000
  70
    32
  0
VERTEX
  8
3
  5
490D
 10
54.1761
 20
110.571
 30
0.00000
  70
    32
  0
VERTEX
  8
3
  5
490E
 10
54.1614
 20
110.512
 30
0.00000
  70
    32
  0
VERTEX
  8
3
  5
490F
 10
54.1454
 20
110.453
 30
0.00000
  70
    32
  0
VERTEX
  8
3
  5
4910
 10
54.1280
 20
110.394
 30
0.00000
  70
    32
  0
VERTEX
  8
3
  5
4911
 10
54.1092
 20
110.336
 30
0.00000
  70
    32
  0
VERTEX
  8
3
  5
4912
 10
54.0892
 20
110.279
 30
0.00000
  70
    32
  0
VERTEX
  8
3
  5
4913
 10
54.0678
 20
110.222
 30
0.00000
  70
    32
  0
VERTEX
  8
3
  5
4914
 10
54.0451
 20
110.165
 30
0.00000
  70
    32
  0
VERTEX
  8
3
  5
4915
 10
54.0211
 20
110.110
 30
0.00000
  70
    32
  0
VERTEX
  8
3
  5
4916
 10
53.9959
 20
110.054
 30
0.00000
  70
    32
  0
VERTEX
  8
3
  5
4917
 10
53.9694
 20
110.000
 30
0.00000
  70
    32
  0
VERTEX
  8
3
  5
4918
 10
53.9416
 20
109.946
 30
0.00000
  70
    32
  0
VERTEX
  8
3
  5
4919
 10
53.9126
 20
109.893
 30
0.00000
  70
    32
  0
VERTEX
  8
3
  5
491A
 10
53.8824
 20
109.841
 30
0.00000
  70
    32
  0
VERTEX
  8
3
  5
491B
 10
53.8510
 20
109.790
 30
0.00000
  70
    32
  0
VERTEX
  8
3
  5
491C
 10
53.8185
 20
109.739
 30
0.00000
  70
    32
  0
VERTEX
  8
3
  5
491D
 10
53.7847
 20
109.689
 30
0.00000
  70
    32
  0
VERTEX
  8
3
  5
491E
 10
53.7499
 20
109.640
 30
0.00000
  70
    32
  0
VERTEX
  8
3
  5
491F
 10
53.7139
 20
109.592
 30
0.00000
  70
    32
  0
VERTEX
  8
3
  5
4920
 10
53.6768
 20
109.546
 30
0.00000
  70
    32
  0
VERTEX
  8
3
  5
4921
 10
53.6387
 20
109.500
 30
0.00000
  70
    32
  0
VERTEX
  8
3
  5
4922
 10
53.5995
 20
109.455
 30
0.00000
  70
    32
  0
VERTEX
  8
3
  5
4923
 10
53.5593
 20
109.411
 30
0.00000
  70
    32
  0
VERTEX
  8
3
  5
4924
 10
53.5181
 20
109.368
 30
0.00000
  70
    32
  0
VERTEX
  8
3
  5
4925
 10
53.4759
 20
109.326
 30
0.00000
  70
    32
  0
VERTEX
  8
3
  5
4926
 10
53.4328
 20
109.285
 30
0.00000
  70
    32
  0
VERTEX
  8
3
  5
4927
 10
53.3887
 20
109.246
 30
0.00000
  70
    32
  0
VERTEX
  8
3
  5
4928
 10
53.3438
 20
109.208
 30
0.00000
  70
    32
  0
VERTEX
  8
3
  5
4929
 10
53.2980
 20
109.170
 30
0.00000
  70
    32
  0
VERTEX
  8
3
  5
492A
 10
53.2513
 20
109.134
 30
0.00000
  70
    32
  0
VERTEX
  8
3
  5
492B
 10
53.2038
 20
109.100
 30
0.00000
  70
    32
  0
VERTEX
  8
3
  5
492C
 10
53.1556
 20
109.066
 30
0.00000
  70
    32
  0
VERTEX
  8
3
  5
492D
 10
53.1066
 20
109.034
 30
0.00000
  70
    32
  0
VERTEX
  8
3
  5
492E
 10
53.0568
 20
109.003
 30
0.00000
  70
    32
  0
VERTEX
  8
3
  5
492F
 10
53.0064
 20
108.974
 30
0.00000
  70
    32
  0
VERTEX
  8
3
  5
4930
 10
52.9553
 20
108.945
 30
0.00000
  70
    32
  0
VERTEX
  8
3
  5
4931
 10
52.9036
 20
108.918
 30
0.00000
  70
    32
  0
VERTEX
  8
3
  5
4932
 10
52.8512
 20
108.893
 30
0.00000
  70
    32
  0
VERTEX
  8
3
  5
4933
 10
52.7983
 20
108.869
 30
0.00000
  70
    32
  0
VERTEX
  8
3
  5
4934
 10
52.7448
 20
108.846
 30
0.00000
  70
    32
  0
VERTEX
  8
3
  5
4935
 10
52.6909
 20
108.825
 30
0.00000
  70
    32
  0
VERTEX
  8
3
  5
4936
 10
52.6364
 20
108.805
 30
0.00000
  70
    32
  0
VERTEX
  8
3
  5
4937
 10
52.5816
 20
108.786
 30
0.00000
  70
    32
  0
VERTEX
  8
3
  5
4938
 10
52.5263
 20
108.769
 30
0.00000
  70
    32
  0
VERTEX
  8
3
  5
4939
 10
52.4706
 20
108.753
 30
0.00000
  70
    32
  0
VERTEX
  8
3
  5
493A
 10
52.4146
 20
108.739
 30
0.00000
  70
    32
  0
VERTEX
  8
3
  5
493B
 10
52.3583
 20
108.726
 30
0.00000
  70
    32
  0
VERTEX
  8
3
  5
493C
 10
52.3017
 20
108.715
 30
0.00000
  70
    32
  0
VERTEX
  8
3
  5
493D
 10
52.2448
 20
108.706
 30
0.00000
  70
    32
  0
VERTEX
  8
3
  5
493E
 10
52.1878
 20
108.697
 30
0.00000
  70
    32
  0
VERTEX
  8
3
  5
493F
 10
52.1305
 20
108.690
 30
0.00000
  70
    32
  0
VERTEX
  8
3
  5
4940
 10
52.0732
 20
108.685
 30
0.00000
  70
    32
  0
VERTEX
  8
3
  5
4941
 10
52.0157
 20
108.681
 30
0.00000
  70
    32
  0
VERTEX
  8
3
  5
4942
 10
51.9582
 20
108.679
 30
0.00000
  70
    32
  0
VERTEX
  8
3
  5
4943
 10
51.9006
 20
108.678
 30
0.00000
  70
    32
  0
SEQEND
  8
3
  5
4944
  0
POLYLINE
  5
36C9
  8
0
 10
51.9006229137362993
 20
109.1114574382248037
 30
0.0
 66
     1
 70
     8
  0
VERTEX
  8
0
  5
4945
 10
51.9006
 20
109.111
 30
0.00000
  70
    32
  0
VERTEX
  8
0
  5
4946
 10
51.8664
 20
109.112
 30
0.00000
  70
    32
  0
VERTEX
  8
0
  5
4947
 10
51.8323
 20
109.114
 30
0.00000
  70
    32
  0
VERTEX
  8
0
  5
4948
 10
51.7982
 20
109.117
 30
0.00000
  70
    32
  0
VERTEX
  8
0
  5
4949
 10
51.7641
 20
109.121
 30
0.00000
  70
    32
  0
VERTEX
  8
0
  5
494A
 10
51.7301
 20
109.127
 30
0.00000
  70
    32
  0
VERTEX
  8
0
  5
494B
 10
51.6962
 20
109.134
 30
0.00000
  70
    32
  0
VERTEX
  8
0
  5
494C
 10
51.6625
 20
109.142
 30
0.00000
  70
    32
  0
VERTEX
  8
0
  5
494D
 10
51.6289
 20
109.151
 30
0.00000
  70
    32
  0
VERTEX
  8
0
  5
494E
 10
51.5954
 20
109.162
 30
0.00000
  70
    32
  0
VERTEX
  8
0
  5
494F
 10
51.5622
 20
109.173
 30
0.00000
  70
    32
  0
VERTEX
  8
0
  5
4950
 10
51.5291
 20
109.186
 30
0.00000
  70
    32
  0
VERTEX
  8
0
  5
4951
 10
51.4963
 20
109.200
 30
0.00000
  70
    32
  0
VERTEX
  8
0
  5
4952
 10
51.4637
 20
109.216
 30
0.00000
  70
    32
  0
VERTEX
  8
0
  5
4953
 10
51.4314
 20
109.232
 30
0.00000
  70
    32
  0
VERTEX
  8
0
  5
4954
 10
51.3993
 20
109.250
 30
0.00000
  70
    32
  0
VERTEX
  8
0
  5
4955
 10
51.3676
 20
109.269
 30
0.00000
  70
    32
  0
VERTEX
  8
0
  5
4956
 10
51.3362
 20
109.289
 30
0.00000
  70
    32
  0
VERTEX
  8
0
  5
4957
 10
51.3051
 20
109.310
 30
0.00000
  70
    32
  0
VERTEX
  8
0
  5
4958
 10
51.2744
 20
109.332
 30
0.00000
  70
    32
  0
VERTEX
  8
0
  5
4959
 10
51.2440
 20
109.356
 30
0.00000
  70
    32
  0
VERTEX
  8
0
  5
495A
 10
51.2141
 20
109.380
 30
0.00000
  70
    32
  0
VERTEX
  8
0
  5
495B
 10
51.1845
 20
109.406
 30
0.00000
  70
    32
  0
VERTEX
  8
0
  5
495C
 10
51.1554
 20
109.432
 30
0.00000
  70
    32
  0
VERTEX
  8
0
  5
495D
 10
51.1268
 20
109.460
 30
0.00000
  70
    32
  0
VERTEX
  8
0
  5
495E
 10
51.0986
 20
109.489
 30
0.00000
  70
    32
  0
VERTEX
  8
0
  5
495F
 10
51.0709
 20
109.518
 30
0.00000
  70
    32
  0
VERTEX
  8
0
  5
4960
 10
51.0437
 20
109.549
 30
0.00000
  70
    32
  0
VERTEX
  8
0
  5
4961
 10
51.0170
 20
109.581
 30
0.00000
  70
    32
  0
VERTEX
  8
0
  5
4962
 10
50.9908
 20
109.613
 30
0.00000
  70
    32
  0
VERTEX
  8
0
  5
4963
 10
50.9652
 20
109.647
 30
0.00000
  70
    32
  0
VERTEX
  8
0
  5
4964
 10
50.9402
 20
109.681
 30
0.00000
  70
    32
  0
VERTEX
  8
0
  5
4965
 10
50.9157
 20
109.717
 30
0.00000
  70
    32
  0
VERTEX
  8
0
  5
4966
 10
50.8918
 20
109.753
 30
0.00000
  70
    32
  0
VERTEX
  8
0
  5
4967
 10
50.8685
 20
109.790
 30
0.00000
  70
    32
  0
VERTEX
  8
0
  5
4968
 10
50.8459
 20
109.828
 30
0.00000
  70
    32
  0
VERTEX
  8
0
  5
4969
 10
50.8239
 20
109.867
 30
0.00000
  70
    32
  0
VERTEX
  8
0
  5
496A
 10
50.8025
 20
109.907
 30
0.00000
  70
    32
  0
VERTEX
  8
0
  5
496B
 10
50.7818
 20
109.947
 30
0.00000
  70
    32
  0
VERTEX
  8
0
  5
496C
 10
50.7618
 20
109.988
 30
0.00000
  70
    32
  0
VERTEX
  8
0
  5
496D
 10
50.7425
 20
110.030
 30
0.00000
  70
    32
  0
VERTEX
  8
0
  5
496E
 10
50.7238
 20
110.073
 30
0.00000
  70
    32
  0
VERTEX
  8
0
  5
496F
 10
50.7059
 20
110.116
 30
0.00000
  70
    32
  0
VERTEX
  8
0
  5
4970
 10
50.6887
 20
110.160
 30
0.00000
  70
    32
  0
VERTEX
  8
0
  5
4971
 10
50.6722
 20
110.204
 30
0.00000
  70
    32
  0
VERTEX
  8
0
  5
4972
 10
50.6564
 20
110.249
 30
0.00000
  70
    32
  0
VERTEX
  8
0
  5
4973
 10
50.6415
 20
110.295
 30
0.00000
  70
    32
  0
VERTEX
  8
0
  5
4974
 10
50.6272
 20
110.341
 30
0.00000
  70
    32
  0
VERTEX
  8
0
  5
4975
 10
50.6137
 20
110.387
 30
0.00000
  70
    32
  0
VERTEX
  8
0
  5
4976
 10
50.6011
 20
110.435
 30
0.00000
  70
    32
  0
VERTEX
  8
0
  5
4977
 10
50.5891
 20
110.482
 30
0.00000
  70
    32
  0
VERTEX
  8
0
  5
4978
 10
50.5780
 20
110.530
 30
0.00000
  70
    32
  0
VERTEX
  8
0
  5
4979
 10
50.5677
 20
110.578
 30
0.00000
  70
    32
  0
VERTEX
  8
0
  5
497A
 10
50.5582
 20
110.627
 30
0.00000
  70
    32
  0
VERTEX
  8
0
  5
497B
 10
50.5495
 20
110.676
 30
0.00000
  70
    32
  0
VERTEX
  8
0
  5
497C
 10
50.5416
 20
110.726
 30
0.00000
  70
    32
  0
VERTEX
  8
0
  5
497D
 10
50.5345
 20
110.775
 30
0.00000
  70
    32
  0
VERTEX
  8
0
  5
497E
 10
50.5282
 20
110.825
 30
0.00000
  70
    32
  0
VERTEX
  8
0
  5
497F
 10
50.5228
 20
110.875
 30
0.00000
  70
    32
  0
VERTEX
  8
0
  5
4980
 10
50.5182
 20
110.925
 30
0.00000
  70
    32
  0
VERTEX
  8
0
  5
4981
 10
50.5144
 20
110.976
 30
0.00000
  70
    32
  0
VERTEX
  8
0
  5
4982
 10
50.5115
 20
111.026
 30
0.00000
  70
    32
  0
VERTEX
  8
0
  5
4983
 10
50.5094
 20
111.077
 30
0.00000
  70
    32
  0
VERTEX
  8
0
  5
4984
 10
50.5081
 20
111.128
 30
0.00000
  70
    32
  0
VERTEX
  8
0
  5
4985
 10
50.5077
 20
111.178
 30
0.00000
  70
    32
  0
VERTEX
  8
0
  5
4986
 10
50.5081
 20
111.229
 30
0.00000
  70
    32
  0
VERTEX
  8
0
  5
4987
 10
50.5094
 20
111.280
 30
0.00000
  70
    32
  0
VERTEX
  8
0
  5
4988
 10
50.5115
 20
111.331
 30
0.00000
  70
    32
  0
VERTEX
  8
0
  5
4989
 10
50.5144
 20
111.381
 30
0.00000
  70
    32
  0
VERTEX
  8
0
  5
498A
 10
50.5182
 20
111.431
 30
0.00000
  70
    32
  0
VERTEX
  8
0
  5
498B
 10
50.5228
 20
111.482
 30
0.00000
  70
    32
  0
VERTEX
  8
0
  5
498C
 10
50.5282
 20
111.532
 30
0.00000
  70
    32
  0
VERTEX
  8
0
  5
498D
 10
50.5345
 20
111.582
 30
0.00000
  70
    32
  0
VERTEX
  8
0
  5
498E
 10
50.5416
 20
111.631
 30
0.00000
  70
    32
  0
VERTEX
  8
0
  5
498F
 10
50.5495
 20
111.681
 30
0.00000
  70
    32
  0
VERTEX
  8
0
  5
4990
 10
50.5582
 20
111.730
 30
0.00000
  70
    32
  0
VERTEX
  8
0
  5
4991
 10
50.5677
 20
111.778
 30
0.00000
  70
    32
  0
VERTEX
  8
0
  5
4992
 10
50.5780
 20
111.827
 30
0.00000
  70
    32
  0
VERTEX
  8
0
  5
4993
 10
50.5891
 20
111.875
 30
0.00000
  70
    32
  0
VERTEX
  8
0
  5
4994
 10
50.6011
 20
111.922
 30
0.00000
  70
    32
  0
VERTEX
  8
0
  5
4995
 10
50.6137
 20
111.969
 30
0.00000
  70
    32
  0
VERTEX
  8
0
  5
4996
 10
50.6272
 20
112.016
 30
0.00000
  70
    32
  0
VERTEX
  8
0
  5
4997
 10
50.6415
 20
112.062
 30
0.00000
  70
    32
  0
VERTEX
  8
0
  5
4998
 10
50.6564
 20
112.108
 30
0.00000
  70
    32
  0
VERTEX
  8
0
  5
4999
 10
50.6722
 20
112.153
 30
0.00000
  70
    32
  0
VERTEX
  8
0
  5
499A
 10
50.6887
 20
112.197
 30
0.00000
  70
    32
  0
VERTEX
  8
0
  5
499B
 10
50.7059
 20
112.241
 30
0.00000
  70
    32
  0
VERTEX
  8
0
  5
499C
 10
50.7238
 20
112.284
 30
0.00000
  70
    32
  0
VERTEX
  8
0
  5
499D
 10
50.7425
 20
112.327
 30
0.00000
  70
    32
  0
VERTEX
  8
0
  5
499E
 10
50.7618
 20
112.369
 30
0.00000
  70
    32
  0
VERTEX
  8
0
  5
499F
 10
50.7818
 20
112.410
 30
0.00000
  70
    32
  0
VERTEX
  8
0
  5
49A0
 10
50.8025
 20
112.450
 30
0.00000
  70
    32
  0
VERTEX
  8
0
  5
49A1
 10
50.8239
 20
112.490
 30
0.00000
  70
    32
  0
VERTEX
  8
0
  5
49A2
 10
50.8459
 20
112.529
 30
0.00000
  70
    32
  0
VERTEX
  8
0
  5
49A3
 10
50.8685
 20
112.567
 30
0.00000
  70
    32
  0
VERTEX
  8
0
  5
49A4
 10
50.8918
 20
112.604
 30
0.00000
  70
    32
  0
VERTEX
  8
0
  5
49A5
 10
50.9157
 20
112.640
 30
0.00000
  70
    32
  0
VERTEX
  8
0
  5
49A6
 10
50.9402
 20
112.675
 30
0.00000
  70
    32
  0
VERTEX
  8
0
  5
49A7
 10
50.9652
 20
112.710
 30
0.00000
  70
    32
  0
VERTEX
  8
0
  5
49A8
 10
50.9908
 20
112.744
 30
0.00000
  70
    32
  0
VERTEX
  8
0
  5
49A9
 10
51.0170
 20
112.776
 30
0.00000
  70
    32
  0
VERTEX
  8
0
  5
49AA
 10
51.0437
 20
112.808
 30
0.00000
  70
    32
  0
VERTEX
  8
0
  5
49AB
 10
51.0709
 20
112.839
 30
0.00000
  70
    32
  0
VERTEX
  8
0
  5
49AC
 10
51.0986
 20
112.868
 30
0.00000
  70
    32
  0
VERTEX
  8
0
  5
49AD
 10
51.1268
 20
112.897
 30
0.00000
  70
    32
  0
VERTEX
  8
0
  5
49AE
 10
51.1554
 20
112.925
 30
0.00000
  70
    32
  0
VERTEX
  8
0
  5
49AF
 10
51.1845
 20
112.951
 30
0.00000
  70
    32
  0
VERTEX
  8
0
  5
49B0
 10
51.2141
 20
112.977
 30
0.00000
  70
    32
  0
VERTEX
  8
0
  5
49B1
 10
51.2440
 20
113.001
 30
0.00000
  70
    32
  0
VERTEX
  8
0
  5
49B2
 10
51.2744
 20
113.025
 30
0.00000
  70
    32
  0
VERTEX
  8
0
  5
49B3
 10
51.3051
 20
113.047
 30
0.00000
  70
    32
  0
VERTEX
  8
0
  5
49B4
 10
51.3362
 20
113.068
 30
0.00000
  70
    32
  0
VERTEX
  8
0
  5
49B5
 10
51.3676
 20
113.088
 30
0.00000
  70
    32
  0
VERTEX
  8
0
  5
49B6
 10
51.3993
 20
113.107
 30
0.00000
  70
    32
  0
VERTEX
  8
0
  5
49B7
 10
51.4314
 20
113.125
 30
0.00000
  70
    32
  0
VERTEX
  8
0
  5
49B8
 10
51.4637
 20
113.141
 30
0.00000
  70
    32
  0
VERTEX
  8
0
  5
49B9
 10
51.4963
 20
113.156
 30
0.00000
  70
    32
  0
VERTEX
  8
0
  5
49BA
 10
51.5291
 20
113.171
 30
0.00000
  70
    32
  0
VERTEX
  8
0
  5
49BB
 10
51.5622
 20
113.184
 30
0.00000
  70
    32
  0
VERTEX
  8
0
  5
49BC
 10
51.5954
 20
113.195
 30
0.00000
  70
    32
  0
VERTEX
  8
0
  5
49BD
 10
51.6289
 20
113.206
 30
0.00000
  70
    32
  0
VERTEX
  8
0
  5
49BE
 10
51.6625
 20
113.215
 30
0.00000
  70
    32
  0
VERTEX
  8
0
  5
49BF
 10
51.6962
 20
113.223
 30
0.00000
  70
    32
  0
VERTEX
  8
0
  5
49C0
 10
51.7301
 20
113.230
 30
0.00000
  70
    32
  0
VERTEX
  8
0
  5
49C1
 10
51.7641
 20
113.236
 30
0.00000
  70
    32
  0
VERTEX
  8
0
  5
49C2
 10
51.7982
 20
113.240
 30
0.00000
  70
    32
  0
VERTEX
  8
0
  5
49C3
 10
51.8323
 20
113.243
 30
0.00000
  70
    32
  0
VERTEX
  8
0
  5
49C4
 10
51.8664
 20
113.245
 30
0.00000
  70
    32
  0
VERTEX
  8
0
  5
49C5
 10
51.9006
 20
113.245
 30
0.00000
  70
    32
  0
SEQEND
  8
0
  5
49C6
  0
POLYLINE
  5
36CA
  8
0
 10
51.9006229137362993
 20
113.2454574382247898
 30
0.0
 66
     1
 70
     8
  0
VERTEX
  8
0
  5
49C7
 10
51.9006
 20
113.245
 30
0.00000
  70
    32
  0
VERTEX
  8
0
  5
49C8
 10
51.9543
 20
113.245
 30
0.00000
  70
    32
  0
VERTEX
  8
0
  5
49C9
 10
52.0079
 20
113.243
 30
0.00000
  70
    32
  0
VERTEX
  8
0
  5
49CA
 10
52.0615
 20
113.240
 30
0.00000
  70
    32
  0
VERTEX
  8
0
  5
49CB
 10
52.1150
 20
113.236
 30
0.00000
  70
    32
  0
VERTEX
  8
0
  5
49CC
 10
52.1684
 20
113.230
 30
0.00000
  70
    32
  0
VERTEX
  8
0
  5
49CD
 10
52.2216
 20
113.223
 30
0.00000
  70
    32
  0
VERTEX
  8
0
  5
49CE
 10
52.2746
 20
113.215
 30
0.00000
  70
    32
  0
VERTEX
  8
0
  5
49CF
 10
52.3273
 20
113.206
 30
0.00000
  70
    32
  0
VERTEX
  8
0
  5
49D0
 10
52.3799
 20
113.195
 30
0.00000
  70
    32
  0
VERTEX
  8
0
  5
49D1
 10
52.4321
 20
113.184
 30
0.00000
  70
    32
  0
VERTEX
  8
0
  5
49D2
 10
52.4840
 20
113.171
 30
0.00000
  70
    32
  0
VERTEX
  8
0
  5
49D3
 10
52.5355
 20
113.156
 30
0.00000
  70
    32
  0
VERTEX
  8
0
  5
49D4
 10
52.5867
 20
113.141
 30
0.00000
  70
    32
  0
VERTEX
  8
0
  5
49D5
 10
52.6375
 20
113.125
 30
0.00000
  70
    32
  0
VERTEX
  8
0
  5
49D6
 10
52.6878
 20
113.107
 30
0.00000
  70
    32
  0
VERTEX
  8
0
  5
49D7
 10
52.7376
 20
113.088
 30
0.00000
  70
    32
  0
VERTEX
  8
0
  5
49D8
 10
52.7870
 20
113.068
 30
0.00000
  70
    32
  0
VERTEX
  8
0
  5
49D9
 10
52.8358
 20
113.047
 30
0.00000
  70
    32
  0
VERTEX
  8
0
  5
49DA
 10
52.8840
 20
113.025
 30
0.00000
  70
    32
  0
VERTEX
  8
0
  5
49DB
 10
52.9317
 20
113.001
 30
0.00000
  70
    32
  0
VERTEX
  8
0
  5
49DC
 10
52.9787
 20
112.977
 30
0.00000
  70
    32
  0
VERTEX
  8
0
  5
49DD
 10
53.0251
 20
112.951
 30
0.00000
  70
    32
  0
VERTEX
  8
0
  5
49DE
 10
53.0708
 20
112.925
 30
0.00000
  70
    32
  0
VERTEX
  8
0
  5
49DF
 10
53.1158
 20
112.897
 30
0.00000
  70
    32
  0
VERTEX
  8
0
  5
49E0
 10
53.1601
 20
112.868
 30
0.00000
  70
    32
  0
VERTEX
  8
0
  5
49E1
 10
53.2036
 20
112.839
 30
0.00000
  70
    32
  0
VERTEX
  8
0
  5
49E2
 10
53.2463
 20
112.808
 30
0.00000
  70
    32
  0
VERTEX
  8
0
  5
49E3
 10
53.2882
 20
112.776
 30
0.00000
  70
    32
  0
VERTEX
  8
0
  5
49E4
 10
53.3293
 20
112.744
 30
0.00000
  70
    32
  0
VERTEX
  8
0
  5
49E5
 10
53.3695
 20
112.710
 30
0.00000
  70
    32
  0
VERTEX
  8
0
  5
49E6
 10
53.4088
 20
112.675
 30
0.00000
  70
    32
  0
VERTEX
  8
0
  5
49E7
 10
53.4472
 20
112.640
 30
0.00000
  70
    32
  0
VERTEX
  8
0
  5
49E8
 10
53.4847
 20
112.604
 30
0.00000
  70
    32
  0
VERTEX
  8
0
  5
49E9
 10
53.5213
 20
112.567
 30
0.00000
  70
    32
  0
VERTEX
  8
0
  5
49EA
 10
53.5568
 20
112.529
 30
0.00000
  70
    32
  0
VERTEX
  8
0
  5
49EB
 10
53.5914
 20
112.490
 30
0.00000
  70
    32
  0
VERTEX
  8
0
  5
49EC
 10
53.6249
 20
112.450
 30
0.00000
  70
    32
  0
VERTEX
  8
0
  5
49ED
 10
53.6574
 20
112.410
 30
0.00000
  70
    32
  0
VERTEX
  8
0
  5
49EE
 10
53.6889
 20
112.369
 30
0.00000
  70
    32
  0
VERTEX
  8
0
  5
49EF
 10
53.7193
 20
112.327
 30
0.00000
  70
    32
  0
VERTEX
  8
0
  5
49F0
 10
53.7485
 20
112.284
 30
0.00000
  70
    32
  0
VERTEX
  8
0
  5
49F1
 10
53.7767
 20
112.241
 30
0.00000
  70
    32
  0
VERTEX
  8
0
  5
49F2
 10
53.8037
 20
112.197
 30
0.00000
  70
    32
  0
VERTEX
  8
0
  5
49F3
 10
53.8296
 20
112.153
 30
0.00000
  70
    32
  0
VERTEX
  8
0
  5
49F4
 10
53.8543
 20
112.108
 30
0.00000
  70
    32
  0
VERTEX
  8
0
  5
49F5
 10
53.8779
 20
112.062
 30
0.00000
  70
    32
  0
VERTEX
  8
0
  5
49F6
 10
53.9002
 20
112.016
 30
0.00000
  70
    32
  0
VERTEX
  8
0
  5
49F7
 10
53.9214
 20
111.969
 30
0.00000
  70
    32
  0
VERTEX
  8
0
  5
49F8
 10
53.9413
 20
111.922
 30
0.00000
  70
    32
  0
VERTEX
  8
0
  5
49F9
 10
53.9600
 20
111.875
 30
0.00000
  70
    32
  0
VERTEX
  8
0
  5
49FA
 10
53.9775
 20
111.827
 30
0.00000
  70
    32
  0
VERTEX
  8
0
  5
49FB
 10
53.9937
 20
111.778
 30
0.00000
  70
    32
  0
VERTEX
  8
0
  5
49FC
 10
54.0086
 20
111.730
 30
0.00000
  70
    32
  0
VERTEX
  8
0
  5
49FD
 10
54.0223
 20
111.681
 30
0.00000
  70
    32
  0
VERTEX
  8
0
  5
49FE
 10
54.0347
 20
111.631
 30
0.00000
  70
    32
  0
VERTEX
  8
0
  5
49FF
 10
54.0458
 20
111.582
 30
0.00000
  70
    32
  0
VERTEX
  8
0
  5
4A00
 10
54.0557
 20
111.532
 30
0.00000
  70
    32
  0
VERTEX
  8
0
  5
4A01
 10
54.0642
 20
111.482
 30
0.00000
  70
    32
  0
VERTEX
  8
0
  5
4A02
 10
54.0714
 20
111.431
 30
0.00000
  70
    32
  0
VERTEX
  8
0
  5
4A03
 10
54.0773
 20
111.381
 30
0.00000
  70
    32
  0
VERTEX
  8
0
  5
4A04
 10
54.0819
 20
111.331
 30
0.00000
  70
    32
  0
VERTEX
  8
0
  5
4A05
 10
54.0852
 20
111.280
 30
0.00000
  70
    32
  0
VERTEX
  8
0
  5
4A06
 10
54.0872
 20
111.229
 30
0.00000
  70
    32
  0
VERTEX
  8
0
  5
4A07
 10
54.0879
 20
111.178
 30
0.00000
  70
    32
  0
VERTEX
  8
0
  5
4A08
 10
54.0872
 20
111.128
 30
0.00000
  70
    32
  0
VERTEX
  8
0
  5
4A09
 10
54.0852
 20
111.077
 30
0.00000
  70
    32
  0
VERTEX
  8
0
  5
4A0A
 10
54.0819
 20
111.026
 30
0.00000
  70
    32
  0
VERTEX
  8
0
  5
4A0B
 10
54.0773
 20
110.976
 30
0.00000
  70
    32
  0
VERTEX
  8
0
  5
4A0C
 10
54.0714
 20
110.925
 30
0.00000
  70
    32
  0
VERTEX
  8
0
  5
4A0D
 10
54.0642
 20
110.875
 30
0.00000
  70
    32
  0
VERTEX
  8
0
  5
4A0E
 10
54.0557
 20
110.825
 30
0.00000
  70
    32
  0
VERTEX
  8
0
  5
4A0F
 10
54.0458
 20
110.775
 30
0.00000
  70
    32
  0
VERTEX
  8
0
  5
4A10
 10
54.0347
 20
110.726
 30
0.00000
  70
    32
  0
VERTEX
  8
0
  5
4A11
 10
54.0223
 20
110.676
 30
0.00000
  70
    32
  0
VERTEX
  8
0
  5
4A12
 10
54.0086
 20
110.627
 30
0.00000
  70
    32
  0
VERTEX
  8
0
  5
4A13
 10
53.9937
 20
110.578
 30
0.00000
  70
    32
  0
VERTEX
  8
0
  5
4A14
 10
53.9775
 20
110.530
 30
0.00000
  70
    32
  0
VERTEX
  8
0
  5
4A15
 10
53.9600
 20
110.482
 30
0.00000
  70
    32
  0
VERTEX
  8
0
  5
4A16
 10
53.9413
 20
110.435
 30
0.00000
  70
    32
  0
VERTEX
  8
0
  5
4A17
 10
53.9214
 20
110.387
 30
0.00000
  70
    32
  0
VERTEX
  8
0
  5
4A18
 10
53.9002
 20
110.341
 30
0.00000
  70
    32
  0
VERTEX
  8
0
  5
4A19
 10
53.8779
 20
110.295
 30
0.00000
  70
    32
  0
VERTEX
  8
0
  5
4A1A
 10
53.8543
 20
110.249
 30
0.00000
  70
    32
  0
VERTEX
  8
0
  5
4A1B
 10
53.8296
 20
110.204
 30
0.00000
  70
    32
  0
VERTEX
  8
0
  5
4A1C
 10
53.8037
 20
110.160
 30
0.00000
  70
    32
  0
VERTEX
  8
0
  5
4A1D
 10
53.7767
 20
110.116
 30
0.00000
  70
    32
  0
VERTEX
  8
0
  5
4A1E
 10
53.7485
 20
110.073
 30
0.00000
  70
    32
  0
VERTEX
  8
0
  5
4A1F
 10
53.7193
 20
110.030
 30
0.00000
  70
    32
  0
VERTEX
  8
0
  5
4A20
 10
53.6889
 20
109.988
 30
0.00000
  70
    32
  0
VERTEX
  8
0
  5
4A21
 10
53.6574
 20
109.947
 30
0.00000
  70
    32
  0
VERTEX
  8
0
  5
4A22
 10
53.6249
 20
109.907
 30
0.00000
  70
    32
  0
VERTEX
  8
0
  5
4A23
 10
53.5914
 20
109.867
 30
0.00000
  70
    32
  0
VERTEX
  8
0
  5
4A24
 10
53.5568
 20
109.828
 30
0.00000
  70
    32
  0
VERTEX
  8
0
  5
4A25
 10
53.5213
 20
109.790
 30
0.00000
  70
    32
  0
VERTEX
  8
0
  5
4A26
 10
53.4847
 20
109.753
 30
0.00000
  70
    32
  0
VERTEX
  8
0
  5
4A27
 10
53.4472
 20
109.717
 30
0.00000
  70
    32
  0
VERTEX
  8
0
  5
4A28
 10
53.4088
 20
109.681
 30
0.00000
  70
    32
  0
VERTEX
  8
0
  5
4A29
 10
53.3695
 20
109.647
 30
0.00000
  70
    32
  0
VERTEX
  8
0
  5
4A2A
 10
53.3293
 20
109.613
 30
0.00000
  70
    32
  0
VERTEX
  8
0
  5
4A2B
 10
53.2882
 20
109.581
 30
0.00000
  70
    32
  0
VERTEX
  8
0
  5
4A2C
 10
53.2463
 20
109.549
 30
0.00000
  70
    32
  0
VERTEX
  8
0
  5
4A2D
 10
53.2036
 20
109.518
 30
0.00000
  70
    32
  0
VERTEX
  8
0
  5
4A2E
 10
53.1601
 20
109.489
 30
0.00000
  70
    32
  0
VERTEX
  8
0
  5
4A2F
 10
53.1158
 20
109.460
 30
0.00000
  70
    32
  0
VERTEX
  8
0
  5
4A30
 10
53.0708
 20
109.432
 30
0.00000
  70
    32
  0
VERTEX
  8
0
  5
4A31
 10
53.0251
 20
109.406
 30
0.00000
  70
    32
  0
VERTEX
  8
0
  5
4A32
 10
52.9787
 20
109.380
 30
0.00000
  70
    32
  0
VERTEX
  8
0
  5
4A33
 10
52.9317
 20
109.356
 30
0.00000
  70
    32
  0
VERTEX
  8
0
  5
4A34
 10
52.8840
 20
109.332
 30
0.00000
  70
    32
  0
VERTEX
  8
0
  5
4A35
 10
52.8358
 20
109.310
 30
0.00000
  70
    32
  0
VERTEX
  8
0
  5
4A36
 10
52.7870
 20
109.289
 30
0.00000
  70
    32
  0
VERTEX
  8
0
  5
4A37
 10
52.7376
 20
109.269
 30
0.00000
  70
    32
  0
VERTEX
  8
0
  5
4A38
 10
52.6878
 20
109.250
 30
0.00000
  70
    32
  0
VERTEX
  8
0
  5
4A39
 10
52.6375
 20
109.232
 30
0.00000
  70
    32
  0
VERTEX
  8
0
  5
4A3A
 10
52.5867
 20
109.216
 30
0.00000
  70
    32
  0
VERTEX
  8
0
  5
4A3B
 10
52.5355
 20
109.200
 30
0.00000
  70
    32
  0
VERTEX
  8
0
  5
4A3C
 10
52.4840
 20
109.186
 30
0.00000
  70
    32
  0
VERTEX
  8
0
  5
4A3D
 10
52.4321
 20
109.173
 30
0.00000
  70
    32
  0
VERTEX
  8
0
  5
4A3E
 10
52.3799
 20
109.162
 30
0.00000
  70
    32
  0
VERTEX
  8
0
  5
4A3F
 10
52.3273
 20
109.151
 30
0.00000
  70
    32
  0
VERTEX
  8
0
  5
4A40
 10
52.2746
 20
109.142
 30
0.00000
  70
    32
  0
VERTEX
  8
0
  5
4A41
 10
52.2216
 20
109.134
 30
0.00000
  70
    32
  0
VERTEX
  8
0
  5
4A42
 10
52.1684
 20
109.127
 30
0.00000
  70
    32
  0
VERTEX
  8
0
  5
4A43
 10
52.1150
 20
109.121
 30
0.00000
  70
    32
  0
VERTEX
  8
0
  5
4A44
 10
52.0615
 20
109.117
 30
0.00000
  70
    32
  0
VERTEX
  8
0
  5
4A45
 10
52.0079
 20
109.114
 30
0.00000
  70
    32
  0
VERTEX
  8
0
  5
4A46
 10
51.9543
 20
109.112
 30
0.00000
  70
    32
  0
VERTEX
  8
0
  5
4A47
 10
51.9006
 20
109.111
 30
0.00000
  70
    32
  0
SEQEND
  8
0
  5
4A48
  0
LINE
  5
36CB
  8
0
 10
72.9006227255158024
 20
116.1784574382247968
 30
0.0
 11
73.9006227255158024
 21
115.1784574382247968
 31
0.0
  0
LINE
  5
36CC
  8
0
 10
73.9006227255158024
 20
115.1784574382247968
 30
0.0
 11
73.9006227255156887
 21
107.1784574382247968
 31
0.0
  0
LINE
  5
36CD
  8
0
 10
73.9006227255156887
 20
107.1784574382247968
 30
0.0
 11
72.9006227255156887
 21
106.1784574382247968
 31
0.0
  0
LINE
  5
36CE
  8
0
 10
72.9006227255158024
 20
116.1784574382247968
 30
0.0
 11
44.9006227255155679
 21
116.1784574382247968
 31
0.0
  0
LINE
  5
36CF
  8
0
 10
73.9006227255156887
 20
107.1784574382247968
 30
0.0
 11
52.7478404958032527
 21
107.1784574382247968
 31
0.0
  0
LINE
  5
36D1
  8
1
 10
57.8872525085871672
 20
111.1784574382247968
 30
0.0
 11
41.5669353182472605
 21
111.1784574382247968
 31
0.0
  0
POLYLINE
  5
36D2
  8
3
 10
271.3455678646380989
 20
108.7000362289096955
 30
0.0
 66
     1
 70
     8
  0
VERTEX
  8
3
  5
4A49
 10
271.346
 20
108.700
 30
0.00000
  70
    32
  0
VERTEX
  8
3
  5
4A4A
 10
271.346
 20
108.700
 30
0.00000
  70
    32
  0
VERTEX
  8
3
  5
4A4B
 10
271.347
 20
108.699
 30
0.00000
  70
    32
  0
VERTEX
  8
3
  5
4A4C
 10
271.348
 20
108.699
 30
0.00000
  70
    32
  0
VERTEX
  8
3
  5
4A4D
 10
271.349
 20
108.699
 30
0.00000
  70
    32
  0
VERTEX
  8
3
  5
4A4E
 10
271.350
 20
108.698
 30
0.00000
  70
    32
  0
VERTEX
  8
3
  5
4A4F
 10
271.350
 20
108.698
 30
0.00000
  70
    32
  0
VERTEX
  8
3
  5
4A50
 10
271.351
 20
108.698
 30
0.00000
  70
    32
  0
VERTEX
  8
3
  5
4A51
 10
271.352
 20
108.697
 30
0.00000
  70
    32
  0
VERTEX
  8
3
  5
4A52
 10
271.353
 20
108.697
 30
0.00000
  70
    32
  0
VERTEX
  8
3
  5
4A53
 10
271.354
 20
108.697
 30
0.00000
  70
    32
  0
VERTEX
  8
3
  5
4A54
 10
271.354
 20
108.696
 30
0.00000
  70
    32
  0
VERTEX
  8
3
  5
4A55
 10
271.355
 20
108.696
 30
0.00000
  70
    32
  0
VERTEX
  8
3
  5
4A56
 10
271.356
 20
108.696
 30
0.00000
  70
    32
  0
VERTEX
  8
3
  5
4A57
 10
271.357
 20
108.696
 30
0.00000
  70
    32
  0
VERTEX
  8
3
  5
4A58
 10
271.358
 20
108.695
 30
0.00000
  70
    32
  0
VERTEX
  8
3
  5
4A59
 10
271.359
 20
108.695
 30
0.00000
  70
    32
  0
VERTEX
  8
3
  5
4A5A
 10
271.359
 20
108.695
 30
0.00000
  70
    32
  0
VERTEX
  8
3
  5
4A5B
 10
271.360
 20
108.694
 30
0.00000
  70
    32
  0
VERTEX
  8
3
  5
4A5C
 10
271.361
 20
108.694
 30
0.00000
  70
    32
  0
VERTEX
  8
3
  5
4A5D
 10
271.362
 20
108.694
 30
0.00000
  70
    32
  0
VERTEX
  8
3
  5
4A5E
 10
271.363
 20
108.694
 30
0.00000
  70
    32
  0
VERTEX
  8
3
  5
4A5F
 10
271.363
 20
108.693
 30
0.00000
  70
    32
  0
VERTEX
  8
3
  5
4A60
 10
271.364
 20
108.693
 30
0.00000
  70
    32
  0
VERTEX
  8
3
  5
4A61
 10
271.365
 20
108.693
 30
0.00000
  70
    32
  0
VERTEX
  8
3
  5
4A62
 10
271.366
 20
108.692
 30
0.00000
  70
    32
  0
VERTEX
  8
3
  5
4A63
 10
271.367
 20
108.692
 30
0.00000
  70
    32
  0
VERTEX
  8
3
  5
4A64
 10
271.367
 20
108.692
 30
0.00000
  70
    32
  0
VERTEX
  8
3
  5
4A65
 10
271.368
 20
108.692
 30
0.00000
  70
    32
  0
VERTEX
  8
3
  5
4A66
 10
271.369
 20
108.691
 30
0.00000
  70
    32
  0
VERTEX
  8
3
  5
4A67
 10
271.370
 20
108.691
 30
0.00000
  70
    32
  0
VERTEX
  8
3
  5
4A68
 10
271.371
 20
108.691
 30
0.00000
  70
    32
  0
VERTEX
  8
3
  5
4A69
 10
271.372
 20
108.691
 30
0.00000
  70
    32
  0
VERTEX
  8
3
  5
4A6A
 10
271.372
 20
108.690
 30
0.00000
  70
    32
  0
VERTEX
  8
3
  5
4A6B
 10
271.373
 20
108.690
 30
0.00000
  70
    32
  0
VERTEX
  8
3
  5
4A6C
 10
271.374
 20
108.690
 30
0.00000
  70
    32
  0
VERTEX
  8
3
  5
4A6D
 10
271.375
 20
108.690
 30
0.00000
  70
    32
  0
VERTEX
  8
3
  5
4A6E
 10
271.376
 20
108.689
 30
0.00000
  70
    32
  0
VERTEX
  8
3
  5
4A6F
 10
271.376
 20
108.689
 30
0.00000
  70
    32
  0
VERTEX
  8
3
  5
4A70
 10
271.377
 20
108.689
 30
0.00000
  70
    32
  0
VERTEX
  8
3
  5
4A71
 10
271.378
 20
108.689
 30
0.00000
  70
    32
  0
VERTEX
  8
3
  5
4A72
 10
271.379
 20
108.688
 30
0.00000
  70
    32
  0
VERTEX
  8
3
  5
4A73
 10
271.380
 20
108.688
 30
0.00000
  70
    32
  0
VERTEX
  8
3
  5
4A74
 10
271.380
 20
108.688
 30
0.00000
  70
    32
  0
VERTEX
  8
3
  5
4A75
 10
271.381
 20
108.688
 30
0.00000
  70
    32
  0
VERTEX
  8
3
  5
4A76
 10
271.382
 20
108.688
 30
0.00000
  70
    32
  0
VERTEX
  8
3
  5
4A77
 10
271.383
 20
108.687
 30
0.00000
  70
    32
  0
VERTEX
  8
3
  5
4A78
 10
271.384
 20
108.687
 30
0.00000
  70
    32
  0
VERTEX
  8
3
  5
4A79
 10
271.385
 20
108.687
 30
0.00000
  70
    32
  0
VERTEX
  8
3
  5
4A7A
 10
271.385
 20
108.687
 30
0.00000
  70
    32
  0
VERTEX
  8
3
  5
4A7B
 10
271.386
 20
108.686
 30
0.00000
  70
    32
  0
VERTEX
  8
3
  5
4A7C
 10
271.387
 20
108.686
 30
0.00000
  70
    32
  0
VERTEX
  8
3
  5
4A7D
 10
271.388
 20
108.686
 30
0.00000
  70
    32
  0
VERTEX
  8
3
  5
4A7E
 10
271.389
 20
108.686
 30
0.00000
  70
    32
  0
VERTEX
  8
3
  5
4A7F
 10
271.389
 20
108.686
 30
0.00000
  70
    32
  0
VERTEX
  8
3
  5
4A80
 10
271.390
 20
108.685
 30
0.00000
  70
    32
  0
VERTEX
  8
3
  5
4A81
 10
271.391
 20
108.685
 30
0.00000
  70
    32
  0
VERTEX
  8
3
  5
4A82
 10
271.392
 20
108.685
 30
0.00000
  70
    32
  0
VERTEX
  8
3
  5
4A83
 10
271.393
 20
108.685
 30
0.00000
  70
    32
  0
VERTEX
  8
3
  5
4A84
 10
271.393
 20
108.685
 30
0.00000
  70
    32
  0
VERTEX
  8
3
  5
4A85
 10
271.394
 20
108.685
 30
0.00000
  70
    32
  0
VERTEX
  8
3
  5
4A86
 10
271.395
 20
108.684
 30
0.00000
  70
    32
  0
VERTEX
  8
3
  5
4A87
 10
271.396
 20
108.684
 30
0.00000
  70
    32
  0
VERTEX
  8
3
  5
4A88
 10
271.397
 20
108.684
 30
0.00000
  70
    32
  0
VERTEX
  8
3
  5
4A89
 10
271.398
 20
108.684
 30
0.00000
  70
    32
  0
VERTEX
  8
3
  5
4A8A
 10
271.398
 20
108.684
 30
0.00000
  70
    32
  0
VERTEX
  8
3
  5
4A8B
 10
271.399
 20
108.684
 30
0.00000
  70
    32
  0
VERTEX
  8
3
  5
4A8C
 10
271.400
 20
108.683
 30
0.00000
  70
    32
  0
VERTEX
  8
3
  5
4A8D
 10
271.401
 20
108.683
 30
0.00000
  70
    32
  0
VERTEX
  8
3
  5
4A8E
 10
271.402
 20
108.683
 30
0.00000
  70
    32
  0
VERTEX
  8
3
  5
4A8F
 10
271.402
 20
108.683
 30
0.00000
  70
    32
  0
VERTEX
  8
3
  5
4A90
 10
271.403
 20
108.683
 30
0.00000
  70
    32
  0
VERTEX
  8
3
  5
4A91
 10
271.404
 20
108.683
 30
0.00000
  70
    32
  0
VERTEX
  8
3
  5
4A92
 10
271.405
 20
108.682
 30
0.00000
  70
    32
  0
VERTEX
  8
3
  5
4A93
 10
271.406
 20
108.682
 30
0.00000
  70
    32
  0
VERTEX
  8
3
  5
4A94
 10
271.406
 20
108.682
 30
0.00000
  70
    32
  0
VERTEX
  8
3
  5
4A95
 10
271.407
 20
108.682
 30
0.00000
  70
    32
  0
VERTEX
  8
3
  5
4A96
 10
271.408
 20
108.682
 30
0.00000
  70
    32
  0
VERTEX
  8
3
  5
4A97
 10
271.409
 20
108.682
 30
0.00000
  70
    32
  0
VERTEX
  8
3
  5
4A98
 10
271.410
 20
108.682
 30
0.00000
  70
    32
  0
VERTEX
  8
3
  5
4A99
 10
271.411
 20
108.681
 30
0.00000
  70
    32
  0
VERTEX
  8
3
  5
4A9A
 10
271.411
 20
108.681
 30
0.00000
  70
    32
  0
VERTEX
  8
3
  5
4A9B
 10
271.412
 20
108.681
 30
0.00000
  70
    32
  0
VERTEX
  8
3
  5
4A9C
 10
271.413
 20
108.681
 30
0.00000
  70
    32
  0
VERTEX
  8
3
  5
4A9D
 10
271.414
 20
108.681
 30
0.00000
  70
    32
  0
VERTEX
  8
3
  5
4A9E
 10
271.415
 20
108.681
 30
0.00000
  70
    32
  0
VERTEX
  8
3
  5
4A9F
 10
271.415
 20
108.681
 30
0.00000
  70
    32
  0
VERTEX
  8
3
  5
4AA0
 10
271.416
 20
108.681
 30
0.00000
  70
    32
  0
VERTEX
  8
3
  5
4AA1
 10
271.417
 20
108.681
 30
0.00000
  70
    32
  0
VERTEX
  8
3
  5
4AA2
 10
271.418
 20
108.680
 30
0.00000
  70
    32
  0
VERTEX
  8
3
  5
4AA3
 10
271.419
 20
108.680
 30
0.00000
  70
    32
  0
VERTEX
  8
3
  5
4AA4
 10
271.420
 20
108.680
 30
0.00000
  70
    32
  0
VERTEX
  8
3
  5
4AA5
 10
271.420
 20
108.680
 30
0.00000
  70
    32
  0
VERTEX
  8
3
  5
4AA6
 10
271.421
 20
108.680
 30
0.00000
  70
    32
  0
VERTEX
  8
3
  5
4AA7
 10
271.422
 20
108.680
 30
0.00000
  70
    32
  0
VERTEX
  8
3
  5
4AA8
 10
271.423
 20
108.680
 30
0.00000
  70
    32
  0
VERTEX
  8
3
  5
4AA9
 10
271.424
 20
108.680
 30
0.00000
  70
    32
  0
VERTEX
  8
3
  5
4AAA
 10
271.424
 20
108.680
 30
0.00000
  70
    32
  0
VERTEX
  8
3
  5
4AAB
 10
271.425
 20
108.680
 30
0.00000
  70
    32
  0
VERTEX
  8
3
  5
4AAC
 10
271.426
 20
108.680
 30
0.00000
  70
    32
  0
VERTEX
  8
3
  5
4AAD
 10
271.427
 20
108.679
 30
0.00000
  70
    32
  0
VERTEX
  8
3
  5
4AAE
 10
271.428
 20
108.679
 30
0.00000
  70
    32
  0
VERTEX
  8
3
  5
4AAF
 10
271.429
 20
108.679
 30
0.00000
  70
    32
  0
VERTEX
  8
3
  5
4AB0
 10
271.429
 20
108.679
 30
0.00000
  70
    32
  0
VERTEX
  8
3
  5
4AB1
 10
271.430
 20
108.679
 30
0.00000
  70
    32
  0
VERTEX
  8
3
  5
4AB2
 10
271.431
 20
108.679
 30
0.00000
  70
    32
  0
VERTEX
  8
3
  5
4AB3
 10
271.432
 20
108.679
 30
0.00000
  70
    32
  0
VERTEX
  8
3
  5
4AB4
 10
271.433
 20
108.679
 30
0.00000
  70
    32
  0
VERTEX
  8
3
  5
4AB5
 10
271.433
 20
108.679
 30
0.00000
  70
    32
  0
VERTEX
  8
3
  5
4AB6
 10
271.434
 20
108.679
 30
0.00000
  70
    32
  0
VERTEX
  8
3
  5
4AB7
 10
271.435
 20
108.679
 30
0.00000
  70
    32
  0
VERTEX
  8
3
  5
4AB8
 10
271.436
 20
108.679
 30
0.00000
  70
    32
  0
VERTEX
  8
3
  5
4AB9
 10
271.437
 20
108.679
 30
0.00000
  70
    32
  0
VERTEX
  8
3
  5
4ABA
 10
271.437
 20
108.679
 30
0.00000
  70
    32
  0
VERTEX
  8
3
  5
4ABB
 10
271.438
 20
108.679
 30
0.00000
  70
    32
  0
VERTEX
  8
3
  5
4ABC
 10
271.439
 20
108.679
 30
0.00000
  70
    32
  0
VERTEX
  8
3
  5
4ABD
 10
271.440
 20
108.679
 30
0.00000
  70
    32
  0
VERTEX
  8
3
  5
4ABE
 10
271.441
 20
108.679
 30
0.00000
  70
    32
  0
VERTEX
  8
3
  5
4ABF
 10
271.442
 20
108.679
 30
0.00000
  70
    32
  0
VERTEX
  8
3
  5
4AC0
 10
271.442
 20
108.679
 30
0.00000
  70
    32
  0
VERTEX
  8
3
  5
4AC1
 10
271.443
 20
108.679
 30
0.00000
  70
    32
  0
VERTEX
  8
3
  5
4AC2
 10
271.444
 20
108.679
 30
0.00000
  70
    32
  0
VERTEX
  8
3
  5
4AC3
 10
271.445
 20
108.679
 30
0.00000
  70
    32
  0
VERTEX
  8
3
  5
4AC4
 10
271.446
 20
108.678
 30
0.00000
  70
    32
  0
VERTEX
  8
3
  5
4AC5
 10
271.446
 20
108.678
 30
0.00000
  70
    32
  0
VERTEX
  8
3
  5
4AC6
 10
271.447
 20
108.678
 30
0.00000
  70
    32
  0
VERTEX
  8
3
  5
4AC7
 10
271.448
 20
108.678
 30
0.00000
  70
    32
  0
VERTEX
  8
3
  5
4AC8
 10
271.449
 20
108.678
 30
0.00000
  70
    32
  0
VERTEX
  8
3
  5
4AC9
 10
271.450
 20
108.678
 30
0.00000
  70
    32
  0
SEQEND
  8
3
  5
4ACA
  0
POLYLINE
  5
36D3
  8
3
 10
271.4497199764691118
 20
108.6784574382248962
 30
0.0
 66
     1
 70
     8
  0
VERTEX
  8
3
  5
4ACB
 10
271.450
 20
108.678
 30
0.00000
  70
    32
  0
VERTEX
  8
3
  5
4ACC
 10
271.452
 20
108.679
 30
0.00000
  70
    32
  0
VERTEX
  8
3
  5
4ACD
 10
271.453
 20
108.681
 30
0.00000
  70
    32
  0
VERTEX
  8
3
  5
4ACE
 10
271.455
 20
108.685
 30
0.00000
  70
    32
  0
VERTEX
  8
3
  5
4ACF
 10
271.457
 20
108.690
 30
0.00000
  70
    32
  0
VERTEX
  8
3
  5
4AD0
 10
271.459
 20
108.697
 30
0.00000
  70
    32
  0
VERTEX
  8
3
  5
4AD1
 10
271.461
 20
108.706
 30
0.00000
  70
    32
  0
VERTEX
  8
3
  5
4AD2
 10
271.462
 20
108.715
 30
0.00000
  70
    32
  0
VERTEX
  8
3
  5
4AD3
 10
271.464
 20
108.726
 30
0.00000
  70
    32
  0
VERTEX
  8
3
  5
4AD4
 10
271.466
 20
108.739
 30
0.00000
  70
    32
  0
VERTEX
  8
3
  5
4AD5
 10
271.468
 20
108.753
 30
0.00000
  70
    32
  0
VERTEX
  8
3
  5
4AD6
 10
271.469
 20
108.769
 30
0.00000
  70
    32
  0
VERTEX
  8
3
  5
4AD7
 10
271.471
 20
108.786
 30
0.00000
  70
    32
  0
VERTEX
  8
3
  5
4AD8
 10
271.473
 20
108.805
 30
0.00000
  70
    32
  0
VERTEX
  8
3
  5
4AD9
 10
271.475
 20
108.825
 30
0.00000
  70
    32
  0
VERTEX
  8
3
  5
4ADA
 10
271.476
 20
108.846
 30
0.00000
  70
    32
  0
VERTEX
  8
3
  5
4ADB
 10
271.478
 20
108.869
 30
0.00000
  70
    32
  0
VERTEX
  8
3
  5
4ADC
 10
271.480
 20
108.893
 30
0.00000
  70
    32
  0
VERTEX
  8
3
  5
4ADD
 10
271.481
 20
108.918
 30
0.00000
  70
    32
  0
VERTEX
  8
3
  5
4ADE
 10
271.483
 20
108.945
 30
0.00000
  70
    32
  0
VERTEX
  8
3
  5
4ADF
 10
271.485
 20
108.974
 30
0.00000
  70
    32
  0
VERTEX
  8
3
  5
4AE0
 10
271.486
 20
109.003
 30
0.00000
  70
    32
  0
VERTEX
  8
3
  5
4AE1
 10
271.488
 20
109.034
 30
0.00000
  70
    32
  0
VERTEX
  8
3
  5
4AE2
 10
271.489
 20
109.066
 30
0.00000
  70
    32
  0
VERTEX
  8
3
  5
4AE3
 10
271.491
 20
109.100
 30
0.00000
  70
    32
  0
VERTEX
  8
3
  5
4AE4
 10
271.492
 20
109.134
 30
0.00000
  70
    32
  0
VERTEX
  8
3
  5
4AE5
 10
271.494
 20
109.170
 30
0.00000
  70
    32
  0
VERTEX
  8
3
  5
4AE6
 10
271.495
 20
109.208
 30
0.00000
  70
    32
  0
VERTEX
  8
3
  5
4AE7
 10
271.497
 20
109.246
 30
0.00000
  70
    32
  0
VERTEX
  8
3
  5
4AE8
 10
271.498
 20
109.285
 30
0.00000
  70
    32
  0
VERTEX
  8
3
  5
4AE9
 10
271.499
 20
109.326
 30
0.00000
  70
    32
  0
VERTEX
  8
3
  5
4AEA
 10
271.501
 20
109.368
 30
0.00000
  70
    32
  0
VERTEX
  8
3
  5
4AEB
 10
271.502
 20
109.411
 30
0.00000
  70
    32
  0
VERTEX
  8
3
  5
4AEC
 10
271.503
 20
109.455
 30
0.00000
  70
    32
  0
VERTEX
  8
3
  5
4AED
 10
271.504
 20
109.500
 30
0.00000
  70
    32
  0
VERTEX
  8
3
  5
4AEE
 10
271.506
 20
109.546
 30
0.00000
  70
    32
  0
VERTEX
  8
3
  5
4AEF
 10
271.507
 20
109.592
 30
0.00000
  70
    32
  0
VERTEX
  8
3
  5
4AF0
 10
271.508
 20
109.640
 30
0.00000
  70
    32
  0
VERTEX
  8
3
  5
4AF1
 10
271.509
 20
109.689
 30
0.00000
  70
    32
  0
VERTEX
  8
3
  5
4AF2
 10
271.510
 20
109.739
 30
0.00000
  70
    32
  0
VERTEX
  8
3
  5
4AF3
 10
271.511
 20
109.790
 30
0.00000
  70
    32
  0
VERTEX
  8
3
  5
4AF4
 10
271.512
 20
109.841
 30
0.00000
  70
    32
  0
VERTEX
  8
3
  5
4AF5
 10
271.513
 20
109.893
 30
0.00000
  70
    32
  0
VERTEX
  8
3
  5
4AF6
 10
271.514
 20
109.946
 30
0.00000
  70
    32
  0
VERTEX
  8
3
  5
4AF7
 10
271.515
 20
110.000
 30
0.00000
  70
    32
  0
VERTEX
  8
3
  5
4AF8
 10
271.516
 20
110.054
 30
0.00000
  70
    32
  0
VERTEX
  8
3
  5
4AF9
 10
271.516
 20
110.110
 30
0.00000
  70
    32
  0
VERTEX
  8
3
  5
4AFA
 10
271.517
 20
110.165
 30
0.00000
  70
    32
  0
VERTEX
  8
3
  5
4AFB
 10
271.518
 20
110.222
 30
0.00000
  70
    32
  0
VERTEX
  8
3
  5
4AFC
 10
271.519
 20
110.279
 30
0.00000
  70
    32
  0
VERTEX
  8
3
  5
4AFD
 10
271.519
 20
110.336
 30
0.00000
  70
    32
  0
VERTEX
  8
3
  5
4AFE
 10
271.520
 20
110.394
 30
0.00000
  70
    32
  0
VERTEX
  8
3
  5
4AFF
 10
271.520
 20
110.453
 30
0.00000
  70
    32
  0
VERTEX
  8
3
  5
4B00
 10
271.521
 20
110.512
 30
0.00000
  70
    32
  0
VERTEX
  8
3
  5
4B01
 10
271.521
 20
110.571
 30
0.00000
  70
    32
  0
VERTEX
  8
3
  5
4B02
 10
271.522
 20
110.631
 30
0.00000
  70
    32
  0
VERTEX
  8
3
  5
4B03
 10
271.522
 20
110.691
 30
0.00000
  70
    32
  0
VERTEX
  8
3
  5
4B04
 10
271.522
 20
110.751
 30
0.00000
  70
    32
  0
VERTEX
  8
3
  5
4B05
 10
271.523
 20
110.812
 30
0.00000
  70
    32
  0
VERTEX
  8
3
  5
4B06
 10
271.523
 20
110.872
 30
0.00000
  70
    32
  0
VERTEX
  8
3
  5
4B07
 10
271.523
 20
110.933
 30
0.00000
  70
    32
  0
VERTEX
  8
3
  5
4B08
 10
271.523
 20
110.995
 30
0.00000
  70
    32
  0
VERTEX
  8
3
  5
4B09
 10
271.523
 20
111.056
 30
0.00000
  70
    32
  0
VERTEX
  8
3
  5
4B0A
 10
271.524
 20
111.117
 30
0.00000
  70
    32
  0
VERTEX
  8
3
  5
4B0B
 10
271.524
 20
111.178
 30
0.00000
  70
    32
  0
VERTEX
  8
3
  5
4B0C
 10
271.524
 20
111.240
 30
0.00000
  70
    32
  0
VERTEX
  8
3
  5
4B0D
 10
271.523
 20
111.301
 30
0.00000
  70
    32
  0
VERTEX
  8
3
  5
4B0E
 10
271.523
 20
111.362
 30
0.00000
  70
    32
  0
VERTEX
  8
3
  5
4B0F
 10
271.523
 20
111.424
 30
0.00000
  70
    32
  0
VERTEX
  8
3
  5
4B10
 10
271.523
 20
111.484
 30
0.00000
  70
    32
  0
VERTEX
  8
3
  5
4B11
 10
271.523
 20
111.545
 30
0.00000
  70
    32
  0
VERTEX
  8
3
  5
4B12
 10
271.522
 20
111.606
 30
0.00000
  70
    32
  0
VERTEX
  8
3
  5
4B13
 10
271.522
 20
111.666
 30
0.00000
  70
    32
  0
VERTEX
  8
3
  5
4B14
 10
271.522
 20
111.726
 30
0.00000
  70
    32
  0
VERTEX
  8
3
  5
4B15
 10
271.521
 20
111.786
 30
0.00000
  70
    32
  0
VERTEX
  8
3
  5
4B16
 10
271.521
 20
111.845
 30
0.00000
  70
    32
  0
VERTEX
  8
3
  5
4B17
 10
271.520
 20
111.904
 30
0.00000
  70
    32
  0
VERTEX
  8
3
  5
4B18
 10
271.520
 20
111.963
 30
0.00000
  70
    32
  0
VERTEX
  8
3
  5
4B19
 10
271.519
 20
112.021
 30
0.00000
  70
    32
  0
VERTEX
  8
3
  5
4B1A
 10
271.519
 20
112.078
 30
0.00000
  70
    32
  0
VERTEX
  8
3
  5
4B1B
 10
271.518
 20
112.135
 30
0.00000
  70
    32
  0
VERTEX
  8
3
  5
4B1C
 10
271.517
 20
112.192
 30
0.00000
  70
    32
  0
VERTEX
  8
3
  5
4B1D
 10
271.516
 20
112.247
 30
0.00000
  70
    32
  0
VERTEX
  8
3
  5
4B1E
 10
271.516
 20
112.302
 30
0.00000
  70
    32
  0
VERTEX
  8
3
  5
4B1F
 10
271.515
 20
112.357
 30
0.00000
  70
    32
  0
VERTEX
  8
3
  5
4B20
 10
271.514
 20
112.411
 30
0.00000
  70
    32
  0
VERTEX
  8
3
  5
4B21
 10
271.513
 20
112.464
 30
0.00000
  70
    32
  0
VERTEX
  8
3
  5
4B22
 10
271.512
 20
112.516
 30
0.00000
  70
    32
  0
VERTEX
  8
3
  5
4B23
 10
271.511
 20
112.567
 30
0.00000
  70
    32
  0
VERTEX
  8
3
  5
4B24
 10
271.510
 20
112.618
 30
0.00000
  70
    32
  0
VERTEX
  8
3
  5
4B25
 10
271.509
 20
112.668
 30
0.00000
  70
    32
  0
VERTEX
  8
3
  5
4B26
 10
271.508
 20
112.717
 30
0.00000
  70
    32
  0
VERTEX
  8
3
  5
4B27
 10
271.507
 20
112.764
 30
0.00000
  70
    32
  0
VERTEX
  8
3
  5
4B28
 10
271.506
 20
112.811
 30
0.00000
  70
    32
  0
VERTEX
  8
3
  5
4B29
 10
271.504
 20
112.857
 30
0.00000
  70
    32
  0
VERTEX
  8
3
  5
4B2A
 10
271.503
 20
112.902
 30
0.00000
  70
    32
  0
VERTEX
  8
3
  5
4B2B
 10
271.502
 20
112.946
 30
0.00000
  70
    32
  0
VERTEX
  8
3
  5
4B2C
 10
271.501
 20
112.989
 30
0.00000
  70
    32
  0
VERTEX
  8
3
  5
4B2D
 10
271.499
 20
113.031
 30
0.00000
  70
    32
  0
VERTEX
  8
3
  5
4B2E
 10
271.498
 20
113.071
 30
0.00000
  70
    32
  0
VERTEX
  8
3
  5
4B2F
 10
271.497
 20
113.111
 30
0.00000
  70
    32
  0
VERTEX
  8
3
  5
4B30
 10
271.495
 20
113.149
 30
0.00000
  70
    32
  0
VERTEX
  8
3
  5
4B31
 10
271.494
 20
113.186
 30
0.00000
  70
    32
  0
VERTEX
  8
3
  5
4B32
 10
271.492
 20
113.222
 30
0.00000
  70
    32
  0
VERTEX
  8
3
  5
4B33
 10
271.491
 20
113.257
 30
0.00000
  70
    32
  0
VERTEX
  8
3
  5
4B34
 10
271.489
 20
113.291
 30
0.00000
  70
    32
  0
VERTEX
  8
3
  5
4B35
 10
271.488
 20
113.323
 30
0.00000
  70
    32
  0
VERTEX
  8
3
  5
4B36
 10
271.486
 20
113.354
 30
0.00000
  70
    32
  0
VERTEX
  8
3
  5
4B37
 10
271.485
 20
113.383
 30
0.00000
  70
    32
  0
VERTEX
  8
3
  5
4B38
 10
271.483
 20
113.412
 30
0.00000
  70
    32
  0
VERTEX
  8
3
  5
4B39
 10
271.481
 20
113.438
 30
0.00000
  70
    32
  0
VERTEX
  8
3
  5
4B3A
 10
271.480
 20
113.464
 30
0.00000
  70
    32
  0
VERTEX
  8
3
  5
4B3B
 10
271.478
 20
113.488
 30
0.00000
  70
    32
  0
VERTEX
  8
3
  5
4B3C
 10
271.476
 20
113.511
 30
0.00000
  70
    32
  0
VERTEX
  8
3
  5
4B3D
 10
271.475
 20
113.532
 30
0.00000
  70
    32
  0
VERTEX
  8
3
  5
4B3E
 10
271.473
 20
113.552
 30
0.00000
  70
    32
  0
VERTEX
  8
3
  5
4B3F
 10
271.471
 20
113.571
 30
0.00000
  70
    32
  0
VERTEX
  8
3
  5
4B40
 10
271.469
 20
113.588
 30
0.00000
  70
    32
  0
VERTEX
  8
3
  5
4B41
 10
271.468
 20
113.604
 30
0.00000
  70
    32
  0
VERTEX
  8
3
  5
4B42
 10
271.466
 20
113.618
 30
0.00000
  70
    32
  0
VERTEX
  8
3
  5
4B43
 10
271.464
 20
113.630
 30
0.00000
  70
    32
  0
VERTEX
  8
3
  5
4B44
 10
271.462
 20
113.642
 30
0.00000
  70
    32
  0
VERTEX
  8
3
  5
4B45
 10
271.461
 20
113.651
 30
0.00000
  70
    32
  0
VERTEX
  8
3
  5
4B46
 10
271.459
 20
113.660
 30
0.00000
  70
    32
  0
VERTEX
  8
3
  5
4B47
 10
271.457
 20
113.666
 30
0.00000
  70
    32
  0
VERTEX
  8
3
  5
4B48
 10
271.455
 20
113.672
 30
0.00000
  70
    32
  0
VERTEX
  8
3
  5
4B49
 10
271.453
 20
113.675
 30
0.00000
  70
    32
  0
VERTEX
  8
3
  5
4B4A
 10
271.452
 20
113.678
 30
0.00000
  70
    32
  0
VERTEX
  8
3
  5
4B4B
 10
271.450
 20
113.678
 30
0.00000
  70
    32
  0
SEQEND
  8
3
  5
4B4C
  0
POLYLINE
  5
36D4
  8
3
 10
271.4497199764691118
 20
113.6784574382248962
 30
0.0
 66
     1
 70
     8
  0
VERTEX
  8
3
  5
4B4D
 10
271.450
 20
113.678
 30
0.00000
  70
    32
  0
VERTEX
  8
3
  5
4B4E
 10
271.449
 20
113.678
 30
0.00000
  70
    32
  0
VERTEX
  8
3
  5
4B4F
 10
271.448
 20
113.678
 30
0.00000
  70
    32
  0
VERTEX
  8
3
  5
4B50
 10
271.447
 20
113.678
 30
0.00000
  70
    32
  0
VERTEX
  8
3
  5
4B51
 10
271.446
 20
113.678
 30
0.00000
  70
    32
  0
VERTEX
  8
3
  5
4B52
 10
271.446
 20
113.678
 30
0.00000
  70
    32
  0
VERTEX
  8
3
  5
4B53
 10
271.445
 20
113.678
 30
0.00000
  70
    32
  0
VERTEX
  8
3
  5
4B54
 10
271.444
 20
113.678
 30
0.00000
  70
    32
  0
VERTEX
  8
3
  5
4B55
 10
271.443
 20
113.678
 30
0.00000
  70
    32
  0
VERTEX
  8
3
  5
4B56
 10
271.442
 20
113.678
 30
0.00000
  70
    32
  0
VERTEX
  8
3
  5
4B57
 10
271.442
 20
113.678
 30
0.00000
  70
    32
  0
VERTEX
  8
3
  5
4B58
 10
271.441
 20
113.678
 30
0.00000
  70
    32
  0
VERTEX
  8
3
  5
4B59
 10
271.440
 20
113.678
 30
0.00000
  70
    32
  0
VERTEX
  8
3
  5
4B5A
 10
271.439
 20
113.678
 30
0.00000
  70
    32
  0
VERTEX
  8
3
  5
4B5B
 10
271.438
 20
113.678
 30
0.00000
  70
    32
  0
VERTEX
  8
3
  5
4B5C
 10
271.437
 20
113.678
 30
0.00000
  70
    32
  0
VERTEX
  8
3
  5
4B5D
 10
271.437
 20
113.678
 30
0.00000
  70
    32
  0
VERTEX
  8
3
  5
4B5E
 10
271.436
 20
113.678
 30
0.00000
  70
    32
  0
VERTEX
  8
3
  5
4B5F
 10
271.435
 20
113.678
 30
0.00000
  70
    32
  0
VERTEX
  8
3
  5
4B60
 10
271.434
 20
113.678
 30
0.00000
  70
    32
  0
VERTEX
  8
3
  5
4B61
 10
271.433
 20
113.678
 30
0.00000
  70
    32
  0
VERTEX
  8
3
  5
4B62
 10
271.433
 20
113.678
 30
0.00000
  70
    32
  0
VERTEX
  8
3
  5
4B63
 10
271.432
 20
113.678
 30
0.00000
  70
    32
  0
VERTEX
  8
3
  5
4B64
 10
271.431
 20
113.678
 30
0.00000
  70
    32
  0
VERTEX
  8
3
  5
4B65
 10
271.430
 20
113.678
 30
0.00000
  70
    32
  0
VERTEX
  8
3
  5
4B66
 10
271.429
 20
113.678
 30
0.00000
  70
    32
  0
VERTEX
  8
3
  5
4B67
 10
271.429
 20
113.678
 30
0.00000
  70
    32
  0
VERTEX
  8
3
  5
4B68
 10
271.428
 20
113.677
 30
0.00000
  70
    32
  0
VERTEX
  8
3
  5
4B69
 10
271.427
 20
113.677
 30
0.00000
  70
    32
  0
VERTEX
  8
3
  5
4B6A
 10
271.426
 20
113.677
 30
0.00000
  70
    32
  0
VERTEX
  8
3
  5
4B6B
 10
271.425
 20
113.677
 30
0.00000
  70
    32
  0
VERTEX
  8
3
  5
4B6C
 10
271.424
 20
113.677
 30
0.00000
  70
    32
  0
VERTEX
  8
3
  5
4B6D
 10
271.424
 20
113.677
 30
0.00000
  70
    32
  0
VERTEX
  8
3
  5
4B6E
 10
271.423
 20
113.677
 30
0.00000
  70
    32
  0
VERTEX
  8
3
  5
4B6F
 10
271.422
 20
113.677
 30
0.00000
  70
    32
  0
VERTEX
  8
3
  5
4B70
 10
271.421
 20
113.677
 30
0.00000
  70
    32
  0
VERTEX
  8
3
  5
4B71
 10
271.420
 20
113.677
 30
0.00000
  70
    32
  0
VERTEX
  8
3
  5
4B72
 10
271.420
 20
113.677
 30
0.00000
  70
    32
  0
VERTEX
  8
3
  5
4B73
 10
271.419
 20
113.677
 30
0.00000
  70
    32
  0
VERTEX
  8
3
  5
4B74
 10
271.418
 20
113.676
 30
0.00000
  70
    32
  0
VERTEX
  8
3
  5
4B75
 10
271.417
 20
113.676
 30
0.00000
  70
    32
  0
VERTEX
  8
3
  5
4B76
 10
271.416
 20
113.676
 30
0.00000
  70
    32
  0
VERTEX
  8
3
  5
4B77
 10
271.415
 20
113.676
 30
0.00000
  70
    32
  0
VERTEX
  8
3
  5
4B78
 10
271.415
 20
113.676
 30
0.00000
  70
    32
  0
VERTEX
  8
3
  5
4B79
 10
271.414
 20
113.676
 30
0.00000
  70
    32
  0
VERTEX
  8
3
  5
4B7A
 10
271.413
 20
113.676
 30
0.00000
  70
    32
  0
VERTEX
  8
3
  5
4B7B
 10
271.412
 20
113.676
 30
0.00000
  70
    32
  0
VERTEX
  8
3
  5
4B7C
 10
271.411
 20
113.676
 30
0.00000
  70
    32
  0
VERTEX
  8
3
  5
4B7D
 10
271.411
 20
113.675
 30
0.00000
  70
    32
  0
VERTEX
  8
3
  5
4B7E
 10
271.410
 20
113.675
 30
0.00000
  70
    32
  0
VERTEX
  8
3
  5
4B7F
 10
271.409
 20
113.675
 30
0.00000
  70
    32
  0
VERTEX
  8
3
  5
4B80
 10
271.408
 20
113.675
 30
0.00000
  70
    32
  0
VERTEX
  8
3
  5
4B81
 10
271.407
 20
113.675
 30
0.00000
  70
    32
  0
VERTEX
  8
3
  5
4B82
 10
271.406
 20
113.675
 30
0.00000
  70
    32
  0
VERTEX
  8
3
  5
4B83
 10
271.406
 20
113.675
 30
0.00000
  70
    32
  0
VERTEX
  8
3
  5
4B84
 10
271.405
 20
113.674
 30
0.00000
  70
    32
  0
VERTEX
  8
3
  5
4B85
 10
271.404
 20
113.674
 30
0.00000
  70
    32
  0
VERTEX
  8
3
  5
4B86
 10
271.403
 20
113.674
 30
0.00000
  70
    32
  0
VERTEX
  8
3
  5
4B87
 10
271.402
 20
113.674
 30
0.00000
  70
    32
  0
VERTEX
  8
3
  5
4B88
 10
271.402
 20
113.674
 30
0.00000
  70
    32
  0
VERTEX
  8
3
  5
4B89
 10
271.401
 20
113.674
 30
0.00000
  70
    32
  0
VERTEX
  8
3
  5
4B8A
 10
271.400
 20
113.674
 30
0.00000
  70
    32
  0
VERTEX
  8
3
  5
4B8B
 10
271.399
 20
113.673
 30
0.00000
  70
    32
  0
VERTEX
  8
3
  5
4B8C
 10
271.398
 20
113.673
 30
0.00000
  70
    32
  0
VERTEX
  8
3
  5
4B8D
 10
271.398
 20
113.673
 30
0.00000
  70
    32
  0
VERTEX
  8
3
  5
4B8E
 10
271.397
 20
113.673
 30
0.00000
  70
    32
  0
VERTEX
  8
3
  5
4B8F
 10
271.396
 20
113.673
 30
0.00000
  70
    32
  0
VERTEX
  8
3
  5
4B90
 10
271.395
 20
113.673
 30
0.00000
  70
    32
  0
VERTEX
  8
3
  5
4B91
 10
271.394
 20
113.672
 30
0.00000
  70
    32
  0
VERTEX
  8
3
  5
4B92
 10
271.393
 20
113.672
 30
0.00000
  70
    32
  0
VERTEX
  8
3
  5
4B93
 10
271.393
 20
113.672
 30
0.00000
  70
    32
  0
VERTEX
  8
3
  5
4B94
 10
271.392
 20
113.672
 30
0.00000
  70
    32
  0
VERTEX
  8
3
  5
4B95
 10
271.391
 20
113.672
 30
0.00000
  70
    32
  0
VERTEX
  8
3
  5
4B96
 10
271.390
 20
113.671
 30
0.00000
  70
    32
  0
VERTEX
  8
3
  5
4B97
 10
271.389
 20
113.671
 30
0.00000
  70
    32
  0
VERTEX
  8
3
  5
4B98
 10
271.389
 20
113.671
 30
0.00000
  70
    32
  0
VERTEX
  8
3
  5
4B99
 10
271.388
 20
113.671
 30
0.00000
  70
    32
  0
VERTEX
  8
3
  5
4B9A
 10
271.387
 20
113.671
 30
0.00000
  70
    32
  0
VERTEX
  8
3
  5
4B9B
 10
271.386
 20
113.670
 30
0.00000
  70
    32
  0
VERTEX
  8
3
  5
4B9C
 10
271.385
 20
113.670
 30
0.00000
  70
    32
  0
VERTEX
  8
3
  5
4B9D
 10
271.385
 20
113.670
 30
0.00000
  70
    32
  0
VERTEX
  8
3
  5
4B9E
 10
271.384
 20
113.670
 30
0.00000
  70
    32
  0
VERTEX
  8
3
  5
4B9F
 10
271.383
 20
113.670
 30
0.00000
  70
    32
  0
VERTEX
  8
3
  5
4BA0
 10
271.382
 20
113.669
 30
0.00000
  70
    32
  0
VERTEX
  8
3
  5
4BA1
 10
271.381
 20
113.669
 30
0.00000
  70
    32
  0
VERTEX
  8
3
  5
4BA2
 10
271.380
 20
113.669
 30
0.00000
  70
    32
  0
VERTEX
  8
3
  5
4BA3
 10
271.380
 20
113.669
 30
0.00000
  70
    32
  0
VERTEX
  8
3
  5
4BA4
 10
271.379
 20
113.668
 30
0.00000
  70
    32
  0
VERTEX
  8
3
  5
4BA5
 10
271.378
 20
113.668
 30
0.00000
  70
    32
  0
VERTEX
  8
3
  5
4BA6
 10
271.377
 20
113.668
 30
0.00000
  70
    32
  0
VERTEX
  8
3
  5
4BA7
 10
271.376
 20
113.668
 30
0.00000
  70
    32
  0
VERTEX
  8
3
  5
4BA8
 10
271.376
 20
113.668
 30
0.00000
  70
    32
  0
VERTEX
  8
3
  5
4BA9
 10
271.375
 20
113.667
 30
0.00000
  70
    32
  0
VERTEX
  8
3
  5
4BAA
 10
271.374
 20
113.667
 30
0.00000
  70
    32
  0
VERTEX
  8
3
  5
4BAB
 10
271.373
 20
113.667
 30
0.00000
  70
    32
  0
VERTEX
  8
3
  5
4BAC
 10
271.372
 20
113.667
 30
0.00000
  70
    32
  0
VERTEX
  8
3
  5
4BAD
 10
271.372
 20
113.666
 30
0.00000
  70
    32
  0
VERTEX
  8
3
  5
4BAE
 10
271.371
 20
113.666
 30
0.00000
  70
    32
  0
VERTEX
  8
3
  5
4BAF
 10
271.370
 20
113.666
 30
0.00000
  70
    32
  0
VERTEX
  8
3
  5
4BB0
 10
271.369
 20
113.666
 30
0.00000
  70
    32
  0
VERTEX
  8
3
  5
4BB1
 10
271.368
 20
113.665
 30
0.00000
  70
    32
  0
VERTEX
  8
3
  5
4BB2
 10
271.367
 20
113.665
 30
0.00000
  70
    32
  0
VERTEX
  8
3
  5
4BB3
 10
271.367
 20
113.665
 30
0.00000
  70
    32
  0
VERTEX
  8
3
  5
4BB4
 10
271.366
 20
113.664
 30
0.00000
  70
    32
  0
VERTEX
  8
3
  5
4BB5
 10
271.365
 20
113.664
 30
0.00000
  70
    32
  0
VERTEX
  8
3
  5
4BB6
 10
271.364
 20
113.664
 30
0.00000
  70
    32
  0
VERTEX
  8
3
  5
4BB7
 10
271.363
 20
113.664
 30
0.00000
  70
    32
  0
VERTEX
  8
3
  5
4BB8
 10
271.363
 20
113.663
 30
0.00000
  70
    32
  0
VERTEX
  8
3
  5
4BB9
 10
271.362
 20
113.663
 30
0.00000
  70
    32
  0
VERTEX
  8
3
  5
4BBA
 10
271.361
 20
113.663
 30
0.00000
  70
    32
  0
VERTEX
  8
3
  5
4BBB
 10
271.360
 20
113.663
 30
0.00000
  70
    32
  0
VERTEX
  8
3
  5
4BBC
 10
271.359
 20
113.662
 30
0.00000
  70
    32
  0
VERTEX
  8
3
  5
4BBD
 10
271.359
 20
113.662
 30
0.00000
  70
    32
  0
VERTEX
  8
3
  5
4BBE
 10
271.358
 20
113.662
 30
0.00000
  70
    32
  0
VERTEX
  8
3
  5
4BBF
 10
271.357
 20
113.661
 30
0.00000
  70
    32
  0
VERTEX
  8
3
  5
4BC0
 10
271.356
 20
113.661
 30
0.00000
  70
    32
  0
VERTEX
  8
3
  5
4BC1
 10
271.355
 20
113.661
 30
0.00000
  70
    32
  0
VERTEX
  8
3
  5
4BC2
 10
271.354
 20
113.660
 30
0.00000
  70
    32
  0
VERTEX
  8
3
  5
4BC3
 10
271.354
 20
113.660
 30
0.00000
  70
    32
  0
VERTEX
  8
3
  5
4BC4
 10
271.353
 20
113.660
 30
0.00000
  70
    32
  0
VERTEX
  8
3
  5
4BC5
 10
271.352
 20
113.659
 30
0.00000
  70
    32
  0
VERTEX
  8
3
  5
4BC6
 10
271.351
 20
113.659
 30
0.00000
  70
    32
  0
VERTEX
  8
3
  5
4BC7
 10
271.350
 20
113.659
 30
0.00000
  70
    32
  0
VERTEX
  8
3
  5
4BC8
 10
271.350
 20
113.659
 30
0.00000
  70
    32
  0
VERTEX
  8
3
  5
4BC9
 10
271.349
 20
113.658
 30
0.00000
  70
    32
  0
VERTEX
  8
3
  5
4BCA
 10
271.348
 20
113.658
 30
0.00000
  70
    32
  0
VERTEX
  8
3
  5
4BCB
 10
271.347
 20
113.658
 30
0.00000
  70
    32
  0
VERTEX
  8
3
  5
4BCC
 10
271.346
 20
113.657
 30
0.00000
  70
    32
  0
VERTEX
  8
3
  5
4BCD
 10
271.346
 20
113.657
 30
0.00000
  70
    32
  0
SEQEND
  8
3
  5
4BCE
  0
POLYLINE
  5
36D5
  8
0
 10
272.4135214987046538
 20
115.4279079194608784
 30
0.0
 66
     1
 70
     8
  0
VERTEX
  8
0
  5
4BCF
 10
272.414
 20
115.428
 30
0.00000
  70
    32
  0
VERTEX
  8
0
  5
4BD0
 10
272.381
 20
115.425
 30
0.00000
  70
    32
  0
VERTEX
  8
0
  5
4BD1
 10
272.348
 20
115.420
 30
0.00000
  70
    32
  0
VERTEX
  8
0
  5
4BD2
 10
272.316
 20
115.412
 30
0.00000
  70
    32
  0
VERTEX
  8
0
  5
4BD3
 10
272.284
 20
115.401
 30
0.00000
  70
    32
  0
VERTEX
  8
0
  5
4BD4
 10
272.251
 20
115.388
 30
0.00000
  70
    32
  0
VERTEX
  8
0
  5
4BD5
 10
272.219
 20
115.373
 30
0.00000
  70
    32
  0
VERTEX
  8
0
  5
4BD6
 10
272.187
 20
115.355
 30
0.00000
  70
    32
  0
VERTEX
  8
0
  5
4BD7
 10
272.155
 20
115.335
 30
0.00000
  70
    32
  0
VERTEX
  8
0
  5
4BD8
 10
272.123
 20
115.312
 30
0.00000
  70
    32
  0
VERTEX
  8
0
  5
4BD9
 10
272.092
 20
115.287
 30
0.00000
  70
    32
  0
VERTEX
  8
0
  5
4BDA
 10
272.060
 20
115.259
 30
0.00000
  70
    32
  0
VERTEX
  8
0
  5
4BDB
 10
272.029
 20
115.229
 30
0.00000
  70
    32
  0
VERTEX
  8
0
  5
4BDC
 10
271.998
 20
115.197
 30
0.00000
  70
    32
  0
VERTEX
  8
0
  5
4BDD
 10
271.967
 20
115.162
 30
0.00000
  70
    32
  0
VERTEX
  8
0
  5
4BDE
 10
271.937
 20
115.125
 30
0.00000
  70
    32
  0
VERTEX
  8
0
  5
4BDF
 10
271.907
 20
115.085
 30
0.00000
  70
    32
  0
VERTEX
  8
0
  5
4BE0
 10
271.877
 20
115.043
 30
0.00000
  70
    32
  0
VERTEX
  8
0
  5
4BE1
 10
271.848
 20
114.999
 30
0.00000
  70
    32
  0
VERTEX
  8
0
  5
4BE2
 10
271.819
 20
114.953
 30
0.00000
  70
    32
  0
VERTEX
  8
0
  5
4BE3
 10
271.790
 20
114.904
 30
0.00000
  70
    32
  0
VERTEX
  8
0
  5
4BE4
 10
271.761
 20
114.853
 30
0.00000
  70
    32
  0
VERTEX
  8
0
  5
4BE5
 10
271.733
 20
114.801
 30
0.00000
  70
    32
  0
VERTEX
  8
0
  5
4BE6
 10
271.706
 20
114.745
 30
0.00000
  70
    32
  0
VERTEX
  8
0
  5
4BE7
 10
271.679
 20
114.688
 30
0.00000
  70
    32
  0
VERTEX
  8
0
  5
4BE8
 10
271.652
 20
114.629
 30
0.00000
  70
    32
  0
VERTEX
  8
0
  5
4BE9
 10
271.626
 20
114.568
 30
0.00000
  70
    32
  0
VERTEX
  8
0
  5
4BEA
 10
271.600
 20
114.504
 30
0.00000
  70
    32
  0
VERTEX
  8
0
  5
4BEB
 10
271.575
 20
114.439
 30
0.00000
  70
    32
  0
VERTEX
  8
0
  5
4BEC
 10
271.550
 20
114.372
 30
0.00000
  70
    32
  0
VERTEX
  8
0
  5
4BED
 10
271.526
 20
114.303
 30
0.00000
  70
    32
  0
VERTEX
  8
0
  5
4BEE
 10
271.502
 20
114.232
 30
0.00000
  70
    32
  0
VERTEX
  8
0
  5
4BEF
 10
271.479
 20
114.159
 30
0.00000
  70
    32
  0
VERTEX
  8
0
  5
4BF0
 10
271.457
 20
114.085
 30
0.00000
  70
    32
  0
VERTEX
  8
0
  5
4BF1
 10
271.435
 20
114.009
 30
0.00000
  70
    32
  0
VERTEX
  8
0
  5
4BF2
 10
271.413
 20
113.931
 30
0.00000
  70
    32
  0
VERTEX
  8
0
  5
4BF3
 10
271.392
 20
113.851
 30
0.00000
  70
    32
  0
VERTEX
  8
0
  5
4BF4
 10
271.372
 20
113.770
 30
0.00000
  70
    32
  0
VERTEX
  8
0
  5
4BF5
 10
271.353
 20
113.688
 30
0.00000
  70
    32
  0
VERTEX
  8
0
  5
4BF6
 10
271.334
 20
113.604
 30
0.00000
  70
    32
  0
VERTEX
  8
0
  5
4BF7
 10
271.315
 20
113.518
 30
0.00000
  70
    32
  0
VERTEX
  8
0
  5
4BF8
 10
271.298
 20
113.431
 30
0.00000
  70
    32
  0
VERTEX
  8
0
  5
4BF9
 10
271.281
 20
113.343
 30
0.00000
  70
    32
  0
VERTEX
  8
0
  5
4BFA
 10
271.265
 20
113.254
 30
0.00000
  70
    32
  0
VERTEX
  8
0
  5
4BFB
 10
271.249
 20
113.163
 30
0.00000
  70
    32
  0
VERTEX
  8
0
  5
4BFC
 10
271.234
 20
113.071
 30
0.00000
  70
    32
  0
VERTEX
  8
0
  5
4BFD
 10
271.220
 20
112.978
 30
0.00000
  70
    32
  0
VERTEX
  8
0
  5
4BFE
 10
271.207
 20
112.884
 30
0.00000
  70
    32
  0
VERTEX
  8
0
  5
4BFF
 10
271.194
 20
112.789
 30
0.00000
  70
    32
  0
VERTEX
  8
0
  5
4C00
 10
271.182
 20
112.693
 30
0.00000
  70
    32
  0
VERTEX
  8
0
  5
4C01
 10
271.171
 20
112.596
 30
0.00000
  70
    32
  0
VERTEX
  8
0
  5
4C02
 10
271.160
 20
112.498
 30
0.00000
  70
    32
  0
VERTEX
  8
0
  5
4C03
 10
271.150
 20
112.400
 30
0.00000
  70
    32
  0
VERTEX
  8
0
  5
4C04
 10
271.142
 20
112.301
 30
0.00000
  70
    32
  0
VERTEX
  8
0
  5
4C05
 10
271.133
 20
112.201
 30
0.00000
  70
    32
  0
VERTEX
  8
0
  5
4C06
 10
271.126
 20
112.100
 30
0.00000
  70
    32
  0
VERTEX
  8
0
  5
4C07
 10
271.119
 20
111.999
 30
0.00000
  70
    32
  0
VERTEX
  8
0
  5
4C08
 10
271.113
 20
111.898
 30
0.00000
  70
    32
  0
VERTEX
  8
0
  5
4C09
 10
271.108
 20
111.796
 30
0.00000
  70
    32
  0
VERTEX
  8
0
  5
4C0A
 10
271.104
 20
111.693
 30
0.00000
  70
    32
  0
VERTEX
  8
0
  5
4C0B
 10
271.100
 20
111.591
 30
0.00000
  70
    32
  0
VERTEX
  8
0
  5
4C0C
 10
271.097
 20
111.488
 30
0.00000
  70
    32
  0
VERTEX
  8
0
  5
4C0D
 10
271.095
 20
111.385
 30
0.00000
  70
    32
  0
VERTEX
  8
0
  5
4C0E
 10
271.094
 20
111.282
 30
0.00000
  70
    32
  0
VERTEX
  8
0
  5
4C0F
 10
271.094
 20
111.178
 30
0.00000
  70
    32
  0
VERTEX
  8
0
  5
4C10
 10
271.094
 20
111.075
 30
0.00000
  70
    32
  0
VERTEX
  8
0
  5
4C11
 10
271.095
 20
110.972
 30
0.00000
  70
    32
  0
VERTEX
  8
0
  5
4C12
 10
271.097
 20
110.869
 30
0.00000
  70
    32
  0
VERTEX
  8
0
  5
4C13
 10
271.100
 20
110.766
 30
0.00000
  70
    32
  0
VERTEX
  8
0
  5
4C14
 10
271.104
 20
110.664
 30
0.00000
  70
    32
  0
VERTEX
  8
0
  5
4C15
 10
271.108
 20
110.561
 30
0.00000
  70
    32
  0
VERTEX
  8
0
  5
4C16
 10
271.113
 20
110.459
 30
0.00000
  70
    32
  0
VERTEX
  8
0
  5
4C17
 10
271.119
 20
110.358
 30
0.00000
  70
    32
  0
VERTEX
  8
0
  5
4C18
 10
271.126
 20
110.257
 30
0.00000
  70
    32
  0
VERTEX
  8
0
  5
4C19
 10
271.133
 20
110.156
 30
0.00000
  70
    32
  0
VERTEX
  8
0
  5
4C1A
 10
271.142
 20
110.056
 30
0.00000
  70
    32
  0
VERTEX
  8
0
  5
4C1B
 10
271.150
 20
109.957
 30
0.00000
  70
    32
  0
VERTEX
  8
0
  5
4C1C
 10
271.160
 20
109.858
 30
0.00000
  70
    32
  0
VERTEX
  8
0
  5
4C1D
 10
271.171
 20
109.761
 30
0.00000
  70
    32
  0
VERTEX
  8
0
  5
4C1E
 10
271.182
 20
109.664
 30
0.00000
  70
    32
  0
VERTEX
  8
0
  5
4C1F
 10
271.194
 20
109.568
 30
0.00000
  70
    32
  0
VERTEX
  8
0
  5
4C20
 10
271.207
 20
109.473
 30
0.00000
  70
    32
  0
VERTEX
  8
0
  5
4C21
 10
271.220
 20
109.379
 30
0.00000
  70
    32
  0
VERTEX
  8
0
  5
4C22
 10
271.234
 20
109.286
 30
0.00000
  70
    32
  0
VERTEX
  8
0
  5
4C23
 10
271.249
 20
109.194
 30
0.00000
  70
    32
  0
VERTEX
  8
0
  5
4C24
 10
271.265
 20
109.103
 30
0.00000
  70
    32
  0
VERTEX
  8
0
  5
4C25
 10
271.281
 20
109.014
 30
0.00000
  70
    32
  0
VERTEX
  8
0
  5
4C26
 10
271.298
 20
108.926
 30
0.00000
  70
    32
  0
VERTEX
  8
0
  5
4C27
 10
271.315
 20
108.839
 30
0.00000
  70
    32
  0
VERTEX
  8
0
  5
4C28
 10
271.334
 20
108.753
 30
0.00000
  70
    32
  0
VERTEX
  8
0
  5
4C29
 10
271.353
 20
108.669
 30
0.00000
  70
    32
  0
VERTEX
  8
0
  5
4C2A
 10
271.372
 20
108.587
 30
0.00000
  70
    32
  0
VERTEX
  8
0
  5
4C2B
 10
271.392
 20
108.505
 30
0.00000
  70
    32
  0
VERTEX
  8
0
  5
4C2C
 10
271.413
 20
108.426
 30
0.00000
  70
    32
  0
VERTEX
  8
0
  5
4C2D
 10
271.435
 20
108.348
 30
0.00000
  70
    32
  0
VERTEX
  8
0
  5
4C2E
 10
271.457
 20
108.272
 30
0.00000
  70
    32
  0
VERTEX
  8
0
  5
4C2F
 10
271.479
 20
108.198
 30
0.00000
  70
    32
  0
VERTEX
  8
0
  5
4C30
 10
271.502
 20
108.125
 30
0.00000
  70
    32
  0
VERTEX
  8
0
  5
4C31
 10
271.526
 20
108.054
 30
0.00000
  70
    32
  0
VERTEX
  8
0
  5
4C32
 10
271.550
 20
107.985
 30
0.00000
  70
    32
  0
VERTEX
  8
0
  5
4C33
 10
271.575
 20
107.918
 30
0.00000
  70
    32
  0
VERTEX
  8
0
  5
4C34
 10
271.600
 20
107.852
 30
0.00000
  70
    32
  0
VERTEX
  8
0
  5
4C35
 10
271.626
 20
107.789
 30
0.00000
  70
    32
  0
VERTEX
  8
0
  5
4C36
 10
271.652
 20
107.728
 30
0.00000
  70
    32
  0
VERTEX
  8
0
  5
4C37
 10
271.679
 20
107.669
 30
0.00000
  70
    32
  0
VERTEX
  8
0
  5
4C38
 10
271.706
 20
107.611
 30
0.00000
  70
    32
  0
VERTEX
  8
0
  5
4C39
 10
271.733
 20
107.556
 30
0.00000
  70
    32
  0
VERTEX
  8
0
  5
4C3A
 10
271.761
 20
107.503
 30
0.00000
  70
    32
  0
VERTEX
  8
0
  5
4C3B
 10
271.790
 20
107.453
 30
0.00000
  70
    32
  0
VERTEX
  8
0
  5
4C3C
 10
271.819
 20
107.404
 30
0.00000
  70
    32
  0
VERTEX
  8
0
  5
4C3D
 10
271.848
 20
107.358
 30
0.00000
  70
    32
  0
VERTEX
  8
0
  5
4C3E
 10
271.877
 20
107.314
 30
0.00000
  70
    32
  0
VERTEX
  8
0
  5
4C3F
 10
271.907
 20
107.272
 30
0.00000
  70
    32
  0
VERTEX
  8
0
  5
4C40
 10
271.937
 20
107.232
 30
0.00000
  70
    32
  0
VERTEX
  8
0
  5
4C41
 10
271.967
 20
107.195
 30
0.00000
  70
    32
  0
VERTEX
  8
0
  5
4C42
 10
271.998
 20
107.160
 30
0.00000
  70
    32
  0
VERTEX
  8
0
  5
4C43
 10
272.029
 20
107.128
 30
0.00000
  70
    32
  0
VERTEX
  8
0
  5
4C44
 10
272.060
 20
107.098
 30
0.00000
  70
    32
  0
VERTEX
  8
0
  5
4C45
 10
272.092
 20
107.070
 30
0.00000
  70
    32
  0
VERTEX
  8
0
  5
4C46
 10
272.123
 20
107.045
 30
0.00000
  70
    32
  0
VERTEX
  8
0
  5
4C47
 10
272.155
 20
107.022
 30
0.00000
  70
    32
  0
VERTEX
  8
0
  5
4C48
 10
272.187
 20
107.002
 30
0.00000
  70
    32
  0
VERTEX
  8
0
  5
4C49
 10
272.219
 20
106.984
 30
0.00000
  70
    32
  0
VERTEX
  8
0
  5
4C4A
 10
272.251
 20
106.969
 30
0.00000
  70
    32
  0
VERTEX
  8
0
  5
4C4B
 10
272.284
 20
106.956
 30
0.00000
  70
    32
  0
VERTEX
  8
0
  5
4C4C
 10
272.316
 20
106.945
 30
0.00000
  70
    32
  0
VERTEX
  8
0
  5
4C4D
 10
272.348
 20
106.937
 30
0.00000
  70
    32
  0
VERTEX
  8
0
  5
4C4E
 10
272.381
 20
106.932
 30
0.00000
  70
    32
  0
VERTEX
  8
0
  5
4C4F
 10
272.414
 20
106.929
 30
0.00000
  70
    32
  0
SEQEND
  8
0
  5
4C50
  0
LINE
  5
36D6
  8
0
 10
271.6629719799406075
 20
116.1784574382248962
 30
0.0
 11
272.6629719799406075
 21
115.1784574382247968
 31
0.0
  0
LINE
  5
36D7
  8
0
 10
272.6629719799406075
 20
115.1784574382247968
 30
0.0
 11
272.6629719799404938
 21
107.1784574382247968
 31
0.0
  0
LINE
  5
36D8
  8
0
 10
271.9818824039555238
 20
115.1784574382248962
 30
0.0
 11
242.6629719799404086
 21
115.1784574382247968
 31
0.0
  0
LINE
  5
36D9
  8
0
 10
243.6629719799404086
 20
116.1784574382248962
 30
0.0
 11
271.6629719799404938
 21
116.1784574382248962
 31
0.0
  0
LINE
  5
36DA
  8
1
 10
268.593904580149399
 20
111.1784574382248962
 30
0.0
 11
275.1629719799406075
 21
111.1784574382248962
 31
0.0
  0
LINE
  5
36DB
  8
0
 10
271.6629719799406075
 20
106.1784574382247968
 30
0.0
 11
243.6629719799404938
 21
106.1784574382247968
 31
0.0
  0
LINE
  5
36DC
  8
0
 10
242.6629719799404938
 20
107.1784574382247968
 30
0.0
 11
271.9818824039555238
 21
107.1784574382247968
 31
0.0
  0
LINE
  5
36DD
  8
0
 10
242.6629719799404938
 20
107.1784574382247968
 30
0.0
 11
243.6629719799404938
 21
106.1784574382247968
 31
0.0
  0
LINE
  5
36DE
  8
0
 10
242.6629719799404086
 20
115.1784574382247968
 30
0.0
 11
242.6629719799404938
 21
107.1784574382247968
 31
0.0
  0
LINE
  5
36DF
  8
0
 10
272.6629719799404938
 20
107.1784574382247968
 30
0.0
 11
271.6629719799404938
 21
106.1784574382247968
 31
0.0
  0
LINE
  5
36E0
  8
0
 10
243.6629719799404086
 20
116.1784574382248962
 30
0.0
 11
242.6629719799404086
 21
115.1784574382247968
 31
0.0
  0
LINE
  5
36EB
  8
0
 10
354.7419055179930751
 20
107.1784574382248962
 30
0.0
 11
356.2245811957191108
 21
107.1784574382248962
 31
0.0
  0
LINE
  5
36EC
  8
0
 10
353.3253086318424039
 20
115.1784574382247968
 30
0.0
 11
348.7740133377592997
 21
115.1784574382247968
 31
0.0
  0
LINE
  5
36ED
  8
0
 10
348.7740133377589018
 20
107.1784574382248962
 30
0.0
 11
353.3253086318447913
 21
107.1784574382248962
 31
0.0
  0
LINE
  5
36EE
  8
0
 10
346.175359663240215
 20
115.1784574382247968
 30
0.0
 11
340.0701607154903741
 21
115.1784574382248962
 31
0.0
  0
LINE
  5
36EF
  8
1
 10
332.0405614172904052
 20
111.1784574382249957
 30
0.0
 11
358.3076358155785215
 21
111.1784574382249957
 31
0.0
  0
LINE
  5
36F0
  8
0
 10
353.3253086318429155
 20
115.1784574382250952
 30
0.0
 11
348.7740133377589018
 21
115.1784574382248962
 31
0.0
  0
POLYLINE
  5
36F1
  8
0
 66
     1
 10
0.0
 20
0.0
 30
0.0
  0
VERTEX
  5
36F2
  8
0
 10
354.2149622524855772
 20
115.4284576691934063
 30
0.0
 42
-0.21193537167749
  0
VERTEX
  5
36F3
  8
0
 10
354.7194681082336274
 20
115.2045554712295967
 30
0.0
 42
-0.0944966141019624
  0
VERTEX
  5
36F4
  8
0
 10
355.3411525291651856
 20
114.1836614215873027
 30
0.0
 42
-0.0511827251509154
 70
     2
 50
290.5433204339071267
  0
VERTEX
  5
36F5
  8
0
 10
355.6736919736591744
 20
112.9145918859511966
 30
0.0
 42
-0.0385180759938612
  0
VERTEX
  5
36F6
  8
0
 10
355.8076358155789194
 20
111.1784574382253936
 30
0.0
 42
-0.0385180759939312
  0
VERTEX
  5
36F7
  8
0
 10
355.6736919736588902
 20
109.4423229904968053
 30
0.0
 42
-0.051182725150819
  0
VERTEX
  5
36F8
  8
0
 10
355.3411525291655266
 20
108.1732534548634987
 30
0.0
 42
-0.0944966141020446
 70
     2
 50
249.4566795660963123
  0
VERTEX
  5
36F9
  8
0
 10
354.7194681082336274
 20
107.1523594052212047
 30
0.0
 42
-0.2119353716775553
  0
VERTEX
  5
36FA
  8
0
 10
354.2149622524858046
 20
106.9284572072573951
 30
0.0
 42
-0.2119353716774791
  0
SEQEND
  5
36FB
  8
0
  0
POLYLINE
  5
36FC
  8
0
 66
     1
 10
0.0
 20
0.0
 30
0.0
  0
VERTEX
  5
36FD
  8
0
 10
354.2149622524858046
 20
106.9284572072573951
 30
0.0
 42
-0.1473256884481574
  0
VERTEX
  5
36FE
  8
0
 10
353.2716909631845965
 20
107.2125597979607932
 30
0.0
 42
-0.1071373878280996
  0
VERTEX
  5
36FF
  8
0
 10
352.3359486767341195
 20
108.1732534548633993
 30
0.0
 42
-0.0764889341664651
 70
     2
 50
122.015816540113093
  0
VERTEX
  5
3700
  8
0
 10
351.7739913393849065
 20
109.4801209829581978
 30
0.0
 42
-0.0634399673700871
  0
VERTEX
  5
3701
  8
0
 10
351.5576357697744925
 20
111.1784574382252941
 30
0.0
 42
-0.0634399673701196
  0
VERTEX
  5
3702
  8
0
 10
351.7739913393849065
 20
112.8767938934932005
 30
0.0
 42
-0.0764889341664119
  0
VERTEX
  5
3703
  8
0
 10
352.3359486767338922
 20
114.1836614215872032
 30
0.0
 42
-0.1071373878279469
 70
     2
 50
57.9841834598902608
  0
VERTEX
  5
3704
  8
0
 10
353.2716909631839144
 20
115.1443550784898946
 30
0.0
 42
-0.1473256884480329
  0
VERTEX
  5
3705
  8
0
 10
354.2149622524855772
 20
115.4284576691934063
 30
0.0
 42
-0.1473256884481574
  0
SEQEND
  5
3706
  8
0
  0
POLYLINE
  5
3707
  8
0
 66
     1
 10
0.0
 20
0.0
 30
0.0
  0
VERTEX
  5
3708
  8
0
 10
354.2149622524858046
 20
106.9284572072573951
 30
0.0
 42
-0.1473256884481574
  0
VERTEX
  5
3709
  8
0
 10
353.2716909631845965
 20
107.2125597979607932
 30
0.0
 42
-0.1071373878280996
  0
VERTEX
  5
370A
  8
0
 10
352.3359486767341195
 20
108.1732534548633993
 30
0.0
 42
-0.0764889341664651
 70
     2
 50
122.015816540113093
  0
VERTEX
  5
370B
  8
0
 10
351.7739913393849065
 20
109.4801209829581978
 30
0.0
 42
-0.0634399673700871
  0
VERTEX
  5
370C
  8
0
 10
351.5576357697744925
 20
111.1784574382252941
 30
0.0
 42
-0.0634399673701196
  0
VERTEX
  5
370D
  8
0
 10
351.7739913393849065
 20
112.8767938934932005
 30
0.0
 42
-0.0764889341664119
  0
VERTEX
  5
370E
  8
0
 10
352.3359486767338922
 20
114.1836614215872032
 30
0.0
 42
-0.1071373878279469
 70
     2
 50
57.9841834598902608
  0
VERTEX
  5
370F
  8
0
 10
353.2716909631839144
 20
115.1443550784898946
 30
0.0
 42
-0.1473256884480296
  0
VERTEX
  5
3710
  8
0
 10
354.2149622524855772
 20
115.4284576691934063
 30
0.0
 42
-0.1473256884481574
  0
SEQEND
  5
3711
  8
0
  0
POLYLINE
  5
3712
  8
0
 66
     1
 10
0.0
 20
0.0
 30
0.0
 70
     1
  0
VERTEX
  5
3713
  8
0
 10
353.3505494992068066
 20
114.078457401344906
 30
0.0
 42
-0.1748453498593685
  0
VERTEX
  5
3714
  8
0
 10
353.8410799762099259
 20
113.9015141415503933
 30
0.0
 42
-0.1041772284685958
  0
VERTEX
  5
3715
  8
0
 10
354.37471425683799
 20
113.2290670775880983
 30
0.0
 42
-0.0648918548135216
 70
     2
 50
296.5395620667733851
  0
VERTEX
  5
3716
  8
0
 10
354.678884788018479
 20
112.3513644166678063
 30
0.0
 42
-0.0510439485154489
  0
VERTEX
  5
3717
  8
0
 10
354.7989371895538966
 20
111.1784574382254931
 30
0.0
 42
-0.0510439485155688
  0
VERTEX
  5
3718
  8
0
 10
354.678884788018479
 20
110.0055504597829952
 30
0.0
 42
-0.0648918548136345
  0
VERTEX
  5
3719
  8
0
 10
354.3747142568385016
 20
109.1278477988629021
 30
0.0
 42
-0.104177228468529
 70
     2
 50
243.4604379332390067
  0
VERTEX
  5
371A
  8
0
 10
353.841079976210608
 20
108.4554007349004934
 30
0.0
 42
-0.1748453498592686
  0
VERTEX
  5
371B
  8
0
 10
353.350549499207375
 20
108.2784574751056965
 30
0.0
 42
-0.1748453498594448
  0
VERTEX
  5
371C
  8
0
 10
352.860019022204483
 20
108.4554007349001949
 30
0.0
 42
-0.1041772284687008
  0
VERTEX
  5
371D
  8
0
 10
352.3263847415761916
 20
109.1278477988625042
 30
0.0
 42
-0.0648918548135215
 70
     2
 50
116.5395620667733994
  0
VERTEX
  5
371E
  8
0
 10
352.0222142103957026
 20
110.0055504597828957
 30
0.0
 42
-0.0510439485154489
  0
VERTEX
  5
371F
  8
0
 10
351.902161808860626
 20
111.1784574382251947
 30
0.0
 42
-0.051043948515512
  0
VERTEX
  5
3720
  8
0
 10
352.0222142103954184
 20
112.3513644166666978
 30
0.0
 42
-0.0648918548136792
  0
VERTEX
  5
3721
  8
0
 10
352.32638474157568
 20
113.2290670775877999
 30
0.0
 42
-0.1041772284686756
 70
     2
 50
63.4604379332389499
  0
VERTEX
  5
3722
  8
0
 10
352.8600190222038009
 20
113.9015141415500949
 30
0.0
 42
-0.1748453498594505
  0
SEQEND
  5
3723
  8
0
  0
POLYLINE
  5
3724
  8
3
 66
     1
 10
0.0
 20
0.0
 30
0.0
  0
VERTEX
  5
3725
  8
3
 10
352.3813180994728782
 20
113.3346455495217953
 30
0.0
 42
-0.0383623919748078
 70
     2
 50
63.4349488229330092
  0
VERTEX
  5
3726
  8
3
 10
352.5790803760440895
 20
113.5258434339150995
 30
0.0
 42
-0.1747045211891356
  0
VERTEX
  5
3727
  8
3
 10
353.0025266871876966
 20
113.6784574382252941
 30
0.0
 42
-0.1747045211891031
  0
SEQEND
  5
3728
  8
3
  0
POLYLINE
  5
3729
  8
3
 66
     1
 10
0.0
 20
0.0
 30
0.0
  0
VERTEX
  5
372A
  8
3
 10
353.0025266871876966
 20
113.6784574382252941
 30
0.0
 42
-0.1747045211891031
  0
VERTEX
  5
372B
  8
3
 10
353.4259729983314742
 20
113.5258434339151989
 30
0.0
 42
-0.1042029417662982
  0
VERTEX
  5
372C
  8
3
 10
353.8864101636708028
 20
112.9462243911918051
 30
0.0
 42
-0.0649481016504532
 70
     2
 50
296.5650511770807043
  0
VERTEX
  5
372D
  8
3
 10
354.1489255196539716
 20
112.1895344260719014
 30
0.0
 42
-0.0510992989622097
  0
VERTEX
  5
372E
  8
3
 10
354.2525266871879239
 20
111.1784574382254931
 30
0.0
 42
-0.0510992989621501
  0
VERTEX
  5
372F
  8
3
 10
354.1489255196544264
 20
110.1673804503789
 30
0.0
 42
-0.0649481016503387
  0
VERTEX
  5
3730
  8
3
 10
353.8864101636713144
 20
109.4106904852590958
 30
0.0
 42
-0.1042029417664632
 70
     2
 50
243.434948822932995
  0
VERTEX
  5
3731
  8
3
 10
353.4259729983318152
 20
108.8310714425354035
 30
0.0
 42
-0.1747045211891015
  0
VERTEX
  5
3732
  8
3
 10
353.0025266871883787
 20
108.6784574382252941
 30
0.0
 42
-0.1747045211891031
  0
VERTEX
  5
3733
  8
3
 10
352.5790803760444874
 20
108.8310714425354035
 30
0.0
 42
-0.0383623919748699
  0
VERTEX
  5
3734
  8
3
 10
352.3813180994728782
 20
109.0222693269291057
 30
0.0
 42
-0.0649481016501836
 70
     2
 50
116.5650511770806048
  0
SEQEND
  5
3735
  8
3
  0
POLYLINE
  5
3736
  8
0
 66
     1
 10
0.0
 20
0.0
 30
0.0
  0
VERTEX
  5
3737
  8
0
 10
352.2803134566717063
 20
113.1333055727844936
 30
0.0
 42
-0.004360639477812
 70
     2
 50
63.4349459854361371
  0
VERTEX
  5
3738
  8
0
 10
352.3004217005089913
 20
113.1502616674359984
 30
0.0
 42
-0.174704505519177
  0
VERTEX
  5
3739
  8
0
 10
352.6561166556732019
 20
113.2784574382254021
 30
0.0
 42
-0.1747045055191127
  0
SEQEND
  5
373A
  8
0
  0
POLYLINE
  5
373B
  8
0
 66
     1
 10
0.0
 20
0.0
 30
0.0
  0
VERTEX
  5
373C
  8
0
 10
352.6561166556732019
 20
113.2784574382254021
 30
0.0
 42
-0.1747045055191127
  0
VERTEX
  5
373D
  8
0
 10
353.0118116108376967
 20
113.150261667435899
 30
0.0
 42
-0.1042029446220009
  0
VERTEX
  5
373E
  8
0
 10
353.398578867842275
 20
112.6633816787171014
 30
0.0
 42
-0.0649481079107131
 70
     2
 50
296.5650540145671812
  0
VERTEX
  5
373F
  8
0
 10
353.6190917948709966
 20
112.0277621033618942
 30
0.0
 42
-0.0510993051247251
  0
VERTEX
  5
3740
  8
0
 10
353.7061167856725774
 20
111.1784574382253936
 30
0.0
 42
-0.0510993051251475
  0
VERTEX
  5
3741
  8
0
 10
353.6190917948703145
 20
110.3291527730871024
 30
0.0
 42
-0.0649481079109093
  0
VERTEX
  5
3742
  8
0
 10
353.3985788678425024
 20
109.6935331977334016
 30
0.0
 42
-0.1042029446220308
 70
     2
 50
243.4349459854360873
  0
VERTEX
  5
3743
  8
0
 10
353.0118116108376967
 20
109.2066532090144051
 30
0.0
 42
-0.1747045055189262
  0
VERTEX
  5
3744
  8
0
 10
352.6561166556733724
 20
109.0784574382251009
 30
0.0
 42
-0.1747045055189906
  0
VERTEX
  5
3745
  8
0
 10
352.3004217005095029
 20
109.2066532090143056
 30
0.0
 42
-0.0043606394778386
  0
VERTEX
  5
3746
  8
0
 10
352.2803134566718768
 20
109.2236093036658957
 30
0.0
 42
-0.0649481079107489
 70
     2
 50
116.5650540145671954
  0
SEQEND
  5
3747
  8
0
  0
POLYLINE
  5
3748
  8
0
 66
     1
 10
0.0
 20
0.0
 30
0.0
  0
VERTEX
  5
3749
  8
0
 10
347.5638551218298176
 20
115.4284576691931932
 30
0.0
 42
-0.1143909099589
  0
VERTEX
  5
374A
  8
0
 10
348.9075570025648858
 20
115.1169671669649972
 30
0.0
 42
-0.1037179872580481
  0
VERTEX
  5
374B
  8
0
 10
350.1044631264679765
 20
114.1836614215872032
 30
0.0
 42
-0.091500667667752
 70
     2
 50
310.2112734673336831
  0
VERTEX
  5
374C
  8
0
 10
350.875038507354418
 20
112.8357173007824059
 30
0.0
 42
-0.0844078028585159
  0
VERTEX
  5
374D
  8
0
 10
351.1568174186629108
 20
111.1784574382252941
 30
0.0
 42
-0.0844078028584058
  0
VERTEX
  5
374E
  8
0
 10
350.8750385073553275
 20
109.5211975756700014
 30
0.0
 42
-0.0915006676678527
  0
VERTEX
  5
374F
  8
0
 10
350.1044631264682039
 20
108.1732534548633993
 30
0.0
 42
-0.1037179872579288
 70
     2
 50
229.7887265326696138
  0
VERTEX
  5
3750
  8
0
 10
348.9075570025651132
 20
107.2399477094848947
 30
0.0
 42
-0.1143909099587343
  0
VERTEX
  5
3751
  8
0
 10
347.5638551218299881
 20
106.9284572072571962
 30
0.0
 42
-0.1143909099588127
  0
SEQEND
  5
3752
  8
0
  0
POLYLINE
  5
3753
  8
0
 66
     1
 10
0.0
 20
0.0
 30
0.0
  0
VERTEX
  5
3754
  8
0
 10
347.5638551218299881
 20
106.9284572072571962
 30
0.0
 42
-0.1014818935059258
  0
VERTEX
  5
3755
  8
0
 10
345.9970047103315096
 20
107.2497802700238054
 30
0.0
 42
-0.099680202155602
  0
VERTEX
  5
3756
  8
0
 10
344.656527321057979
 20
108.1732534548632003
 30
0.0
 42
-0.0972337231221823
 70
     2
 50
134.0516110167266959
  0
VERTEX
  5
3757
  8
0
 10
343.7672818699891764
 20
109.5454867291914951
 30
0.0
 42
-0.0955717911069166
  0
VERTEX
  5
3758
  8
0
 10
343.4522727157140025
 20
111.1784574382249957
 30
0.0
 42
-0.0955717911068334
  0
VERTEX
  5
3759
  8
0
 10
343.7672818699886079
 20
112.8114281472577005
 30
0.0
 42
-0.0972337231222172
  0
VERTEX
  5
375A
  8
0
 10
344.6565273210576947
 20
114.1836614215869048
 30
0.0
 42
-0.099680202155595
 70
     2
 50
45.9483889832766081
  0
VERTEX
  5
375B
  8
0
 10
345.9970047103316801
 20
115.1071346064268965
 30
0.0
 42
-0.1014818935058491
  0
VERTEX
  5
375C
  8
0
 10
347.5638551218298176
 20
115.4284576691931932
 30
0.0
 42
-0.1014818935059546
  0
SEQEND
  5
375D
  8
0
  0
POLYLINE
  5
375E
  8
0
 66
     1
 10
0.0
 20
0.0
 30
0.0
  0
VERTEX
  5
375F
  8
0
 10
347.5638551218299881
 20
106.9284572072571962
 30
0.0
 42
-0.1014818935059258
  0
VERTEX
  5
3760
  8
0
 10
345.9970047103315096
 20
107.2497802700238054
 30
0.0
 42
-0.099680202155602
  0
VERTEX
  5
3761
  8
0
 10
344.656527321057979
 20
108.1732534548632003
 30
0.0
 42
-0.0972337231221823
 70
     2
 50
134.0516110167266959
  0
VERTEX
  5
3762
  8
0
 10
343.7672818699891764
 20
109.5454867291914951
 30
0.0
 42
-0.0955717911069166
  0
VERTEX
  5
3763
  8
0
 10
343.4522727157140025
 20
111.1784574382249957
 30
0.0
 42
-0.0955717911068334
  0
VERTEX
  5
3764
  8
0
 10
343.7672818699886079
 20
112.8114281472577005
 30
0.0
 42
-0.0972337231222172
  0
VERTEX
  5
3765
  8
0
 10
344.6565273210576947
 20
114.1836614215869048
 30
0.0
 42
-0.099680202155595
 70
     2
 50
45.9483889832766081
  0
VERTEX
  5
3766
  8
0
 10
345.9970047103316801
 20
115.1071346064268965
 30
0.0
 42
-0.1014818935058457
  0
VERTEX
  5
3767
  8
0
 10
347.5638551218298176
 20
115.4284576691931932
 30
0.0
 42
-0.1014818935059546
  0
SEQEND
  5
3768
  8
0
  0
LINE
  5
3769
  8
0
 10
346.1753596632410108
 20
115.1784574382251947
 30
0.0
 11
340.0701607154898056
 21
115.1784574382248962
 31
0.0
  0
POLYLINE
  5
376A
  8
0
 66
     1
 10
0.0
 20
0.0
 30
0.0
 70
     1
  0
VERTEX
  5
376B
  8
0
 10
347.1412368600887248
 20
108.2784574751054976
 30
0.0
 42
-0.1075842237263698
  0
VERTEX
  5
376C
  8
0
 10
346.1483712063990197
 20
108.4945924616041992
 30
0.0
 42
-0.1018043071921488
  0
VERTEX
  5
376D
  8
0
 10
345.2827532466243952
 20
109.1278477988624047
 30
0.0
 42
-0.0945713110822393
 70
     2
 50
132.1862631620653019
  0
VERTEX
  5
376E
  8
0
 10
344.7167192676142236
 20
110.0558403410360029
 30
0.0
 42
-0.090023437740651
  0
VERTEX
  5
376F
  8
0
 10
344.5129441284793188
 20
111.1784574382249957
 30
0.0
 42
-0.0900234377407498
  0
VERTEX
  5
3770
  8
0
 10
344.7167192676142236
 20
112.3010745354141022
 30
0.0
 42
-0.0945713110823292
  0
VERTEX
  5
3771
  8
0
 10
345.2827532466241109
 20
113.2290670775877004
 30
0.0
 42
-0.1018043071921259
 70
     2
 50
47.8137368379380874
  0
VERTEX
  5
3772
  8
0
 10
346.1483712063990197
 20
113.8623224148463038
 30
0.0
 42
-0.1075842237262832
  0
VERTEX
  5
3773
  8
0
 10
347.1412368600884975
 20
114.0784574013448065
 30
0.0
 42
-0.1075842237263073
  0
VERTEX
  5
3774
  8
0
 10
348.1341025137778047
 20
113.8623224148463038
 30
0.0
 42
-0.1018043071921888
  0
VERTEX
  5
3775
  8
0
 10
348.999720473552884
 20
113.2290670775877999
 30
0.0
 42
-0.0945713110821998
 70
     2
 50
312.1862631620653019
  0
VERTEX
  5
3776
  8
0
 10
349.5657544525626008
 20
112.3010745354151965
 30
0.0
 42
-0.0900234377407769
  0
VERTEX
  5
3777
  8
0
 10
349.7695295916981877
 20
111.1784574382252941
 30
0.0
 42
-0.090023437740651
  0
VERTEX
  5
3778
  8
0
 10
349.5657544525632829
 20
110.0558403410362018
 30
0.0
 42
-0.094571311082239
  0
VERTEX
  5
3779
  8
0
 10
348.9997204735531113
 20
109.1278477988625042
 30
0.0
 42
-0.1018043071923156
 70
     2
 50
227.8137368379381087
  0
VERTEX
  5
377A
  8
0
 10
348.1341025137775205
 20
108.4945924616040003
 30
0.0
 42
-0.1075842237263555
  0
SEQEND
  5
377B
  8
0
  0
POLYLINE
  5
377C
  8
3
 66
     1
 10
0.0
 20
0.0
 30
0.0
 70
     1
  0
VERTEX
  5
377D
  8
3
 10
346.9721895553929016
 20
113.6784574382251947
 30
0.0
 42
-0.1075842303698266
  0
VERTEX
  5
377E
  8
3
 10
347.8281081655023854
 20
113.4921341746056953
 30
0.0
 42
-0.101804309290016
  0
VERTEX
  5
377F
  8
3
 10
348.574330510532377
 20
112.9462243911915067
 30
0.0
 42
-0.0945713081280446
 70
     2
 50
312.1862611810461203
  0
VERTEX
  5
3780
  8
3
 10
349.06229080744572
 20
112.1462308175592995
 30
0.0
 42
-0.0900234319787745
  0
VERTEX
  5
3781
  8
3
 10
349.2379590229846826
 20
111.1784574382251947
 30
0.0
 42
-0.0900234319788162
  0
VERTEX
  5
3782
  8
3
 10
349.0622908074460042
 20
110.2106840588914025
 30
0.0
 42
-0.0945713081281722
  0
VERTEX
  5
3783
  8
3
 10
348.5743305105326044
 20
109.4106904852587974
 30
0.0
 42
-0.101804309290016
 70
     2
 50
227.8137388189572903
  0
VERTEX
  5
3784
  8
3
 10
347.8281081655026128
 20
108.8647807018445945
 30
0.0
 42
-0.1075842303698266
  0
VERTEX
  5
3785
  8
3
 10
346.9721895553930722
 20
108.6784574382251947
 30
0.0
 42
-0.1075842303698545
  0
VERTEX
  5
3786
  8
3
 10
346.1162709452838726
 20
108.8647807018445945
 30
0.0
 42
-0.1018043092900892
  0
VERTEX
  5
3787
  8
3
 10
345.3700486002535968
 20
109.4106904852586979
 30
0.0
 42
-0.0945713081281952
 70
     2
 50
132.1862611810460919
  0
VERTEX
  5
3788
  8
3
 10
344.8820883033400833
 20
110.2106840588918004
 30
0.0
 42
-0.0900234319787432
  0
VERTEX
  5
3789
  8
3
 10
344.7064200878015754
 20
111.1784574382249957
 30
0.0
 42
-0.0900234319788162
  0
VERTEX
  5
378A
  8
3
 10
344.8820883033400833
 20
112.1462308175588021
 30
0.0
 42
-0.0945713081281722
  0
VERTEX
  5
378B
  8
3
 10
345.3700486002534262
 20
112.946224391191393
 30
0.0
 42
-0.1018043092902128
 70
     2
 50
47.813738818957269
  0
VERTEX
  5
378C
  8
3
 10
346.1162709452838726
 20
113.4921341746055958
 30
0.0
 42
-0.1075842303699466
  0
SEQEND
  5
378D
  8
3
  0
POLYLINE
  5
378E
  8
0
 66
     1
 10
0.0
 20
0.0
 30
0.0
 70
     1
  0
VERTEX
  5
378F
  8
0
 10
346.8031422506966237
 20
113.2784574382253027
 30
0.0
 42
-0.1075842303698466
  0
VERTEX
  5
3790
  8
0
 10
347.5221138831888084
 20
113.1219458967848936
 30
0.0
 42
-0.1018043092900791
  0
VERTEX
  5
3791
  8
0
 10
348.1489406530142219
 20
112.6633816787170019
 30
0.0
 42
-0.0945713081281656
 70
     2
 50
312.1862611810515205
  0
VERTEX
  5
3792
  8
0
 10
348.5588273024217187
 20
111.9913870768651947
 30
0.0
 42
-0.0900234319786965
  0
VERTEX
  5
3793
  8
0
 10
348.7063886034741813
 20
111.1784574382251947
 30
0.0
 42
-0.0900234319787835
  0
VERTEX
  5
3794
  8
0
 10
348.5588273024217187
 20
110.3655277995845978
 30
0.0
 42
-0.0945713081281378
  0
VERTEX
  5
3795
  8
0
 10
348.1489406530143924
 20
109.6935331977333021
 30
0.0
 42
-0.1018043092899601
 70
     2
 50
227.8137388189520038
  0
VERTEX
  5
3796
  8
0
 10
347.5221138831889789
 20
109.2349689796651973
 30
0.0
 42
-0.1075842303696939
  0
VERTEX
  5
3797
  8
0
 10
346.8031422506967942
 20
109.0784574382250014
 30
0.0
 42
-0.1075842303698798
  0
VERTEX
  5
3798
  8
0
 10
346.0841706182048938
 20
109.2349689796653962
 30
0.0
 42
-0.1018043092901666
  0
VERTEX
  5
3799
  8
0
 10
345.4573438483793097
 20
109.6935331977332027
 30
0.0
 42
-0.0945713081281381
 70
     2
 50
132.1862611810514068
  0
VERTEX
  5
379A
  8
0
 10
345.0474571989719834
 20
110.3655277995844983
 30
0.0
 42
-0.0900234319787835
  0
VERTEX
  5
379B
  8
0
 10
344.8998958979195208
 20
111.1784574382249957
 30
0.0
 42
-0.0900234319788826
  0
VERTEX
  5
379C
  8
0
 10
345.0474571989718129
 20
111.9913870768646973
 30
0.0
 42
-0.0945713081284416
  0
VERTEX
  5
379D
  8
0
 10
345.4573438483790824
 20
112.6633816787169025
 30
0.0
 42
-0.1018043092901069
 70
     2
 50
47.8137388189518973
  0
VERTEX
  5
379E
  8
0
 10
346.0841706182047233
 20
113.1219458967849931
 30
0.0
 42
-0.1075842303698035
  0
SEQEND
  5
379F
  8
0
  0
POLYLINE
  5
37A0
  8
0
 66
     1
 10
0.0
 20
0.0
 30
0.0
  0
VERTEX
  5
37A1
  8
0
 10
338.6198585307154758
 20
106.9284572072568977
 30
0.0
 42
-0.1022043465889152
  0
VERTEX
  5
37A2
  8
0
 10
337.0669006518426727
 20
107.2492461722593049
 30
0.0
 42
-0.0999525827554545
  0
VERTEX
  5
37A3
  8
0
 10
335.7353598793383185
 20
108.1732534548630014
 30
0.0
 42
-0.0969246487631242
 70
     2
 50
133.8259274710929958
  0
VERTEX
  5
37A4
  8
0
 10
334.8535652429414995
 20
109.5439587059866966
 30
0.0
 42
-0.0948870961146523
  0
VERTEX
  5
37A5
  8
0
 10
334.5405614172908031
 20
111.1784574382247968
 30
0.0
 42
-0.0948870961148295
  0
VERTEX
  5
37A6
  8
0
 10
334.8535652429418974
 20
112.8129561704633943
 30
0.0
 42
-0.0969246487632256
  0
VERTEX
  5
37A7
  8
0
 10
335.7353598793379774
 20
114.1836614215867058
 30
0.0
 42
-0.0999525827554142
 70
     2
 50
46.1740725289103366
  0
VERTEX
  5
37A8
  8
0
 10
337.0669006518422748
 20
115.1076687041903028
 30
0.0
 42
-0.1022043465889006
  0
VERTEX
  5
37A9
  8
0
 10
338.6198585307153053
 20
115.4284576691928947
 30
0.0
 42
-0.1022043465889214
  0
SEQEND
  5
37AA
  8
0
  0
POLYLINE
  5
37AB
  8
0
 66
     1
 10
0.0
 20
0.0
 30
0.0
  0
VERTEX
  5
37AC
  8
0
 10
338.6198585307154758
 20
106.9284572072568977
 30
0.0
 42
-0.1022043465889152
  0
VERTEX
  5
37AD
  8
0
 10
337.0669006518426727
 20
107.2492461722593049
 30
0.0
 42
-0.0999525827554545
  0
VERTEX
  5
37AE
  8
0
 10
335.7353598793383185
 20
108.1732534548630014
 30
0.0
 42
-0.0969246487631242
 70
     2
 50
133.8259274710929958
  0
VERTEX
  5
37AF
  8
0
 10
334.8535652429414995
 20
109.5439587059866966
 30
0.0
 42
-0.0948870961146523
  0
VERTEX
  5
37B0
  8
0
 10
334.5405614172908031
 20
111.1784574382247968
 30
0.0
 42
-0.0948870961148295
  0
VERTEX
  5
37B1
  8
0
 10
334.8535652429418974
 20
112.8129561704633943
 30
0.0
 42
-0.0969246487632256
  0
VERTEX
  5
37B2
  8
0
 10
335.7353598793379774
 20
114.1836614215867058
 30
0.0
 42
-0.0999525827554142
 70
     2
 50
46.1740725289103366
  0
VERTEX
  5
37B3
  8
0
 10
337.0669006518422748
 20
115.1076687041903028
 30
0.0
 42
-0.1022043465888975
  0
VERTEX
  5
37B4
  8
0
 10
338.6198585307153053
 20
115.4284576691928947
 30
0.0
 42
-0.1022043465889214
  0
SEQEND
  5
37B5
  8
0
  0
POLYLINE
  5
37B6
  8
0
 66
     1
 10
0.0
 20
0.0
 30
0.0
  0
VERTEX
  5
37B7
  8
0
 10
338.6198585307153053
 20
115.4284576691928947
 30
0.0
 42
-0.0976258198763456
  0
VERTEX
  5
37B8
  8
0
 10
340.2641446872731876
 20
115.1043187979190066
 30
0.0
 42
-0.0981286416929715
  0
VERTEX
  5
37B9
  8
0
 10
341.6544555310412079
 20
114.1836614215868053
 30
0.0
 42
-0.0988482120037866
 70
     2
 50
315.2788307973954147
  0
VERTEX
  5
37BA
  8
0
 10
342.5853911664684119
 20
112.8028864254136039
 30
0.0
 42
-0.0993631123209296
  0
VERTEX
  5
37BB
  8
0
 10
342.9114267649131875
 20
111.1784574382249957
 30
0.0
 42
-0.0993631123208347
  0
VERTEX
  5
37BC
  8
0
 10
342.5853911664690941
 20
109.5540284510370981
 30
0.0
 42
-0.098848212003788
  0
VERTEX
  5
37BD
  8
0
 10
341.6544555310414921
 20
108.1732534548631008
 30
0.0
 42
-0.0981286416928954
 70
     2
 50
224.7211692026079959
  0
VERTEX
  5
37BE
  8
0
 10
340.2641446872739266
 20
107.2525960785308996
 30
0.0
 42
-0.09762581987632
  0
VERTEX
  5
37BF
  8
0
 10
338.6198585307154758
 20
106.9284572072568977
 30
0.0
 42
-0.0976258198763262
  0
SEQEND
  5
37C0
  8
0
  0
POLYLINE
  5
37C1
  8
0
 66
     1
 10
0.0
 20
0.0
 30
0.0
 70
     1
  0
VERTEX
  5
37C2
  8
0
 10
338.7950598879211839
 20
114.0784574013445933
 30
0.0
 42
-0.0998161775597635
  0
VERTEX
  5
37C3
  8
0
 10
339.8865555861804069
 20
113.8583667217867941
 30
0.0
 42
-0.0990303044399048
  0
VERTEX
  5
37C4
  8
0
 10
340.8156144760968118
 20
113.2290670775876009
 30
0.0
 42
-0.0979388031780009
 70
     2
 50
314.5770260772483766
  0
VERTEX
  5
37C5
  8
0
 10
341.4344042819806191
 20
112.2902574706057948
 30
0.0
 42
-0.0971807251504692
  0
VERTEX
  5
37C6
  8
0
 10
341.6525555900346944
 20
111.1784574382248962
 30
0.0
 42
-0.09718072515021
  0
VERTEX
  5
37C7
  8
0
 10
341.4344042819814717
 20
110.0666574058444951
 30
0.0
 42
-0.0979388031778571
  0
VERTEX
  5
37C8
  8
0
 10
340.8156144760969823
 20
109.1278477988623052
 30
0.0
 42
-0.0990303044401347
 70
     2
 50
225.4229739227550056
  0
VERTEX
  5
37C9
  8
0
 10
339.8865555861797247
 20
108.4985481546630979
 30
0.0
 42
-0.099816177559845
  0
VERTEX
  5
37CA
  8
0
 10
338.7950598879214112
 20
108.2784574751052986
 30
0.0
 42
-0.0998161775598042
  0
VERTEX
  5
37CB
  8
0
 10
337.7035641896625862
 20
108.4985481546628989
 30
0.0
 42
-0.09903030444002
  0
VERTEX
  5
37CC
  8
0
 10
336.7745052997457833
 20
109.1278477988622058
 30
0.0
 42
-0.0979388031781419
 70
     2
 50
134.5770260772482914
  0
VERTEX
  5
37CD
  8
0
 10
336.1557154938622034
 20
110.0666574058441967
 30
0.0
 42
-0.0971807251505881
  0
VERTEX
  5
37CE
  8
0
 10
335.9375641858081281
 20
111.1784574382247968
 30
0.0
 42
-0.0971807251504088
  0
VERTEX
  5
37CF
  8
0
 10
336.1557154938615213
 20
112.2902574706052974
 30
0.0
 42
-0.0979388031780276
  0
VERTEX
  5
37D0
  8
0
 10
336.7745052997454991
 20
113.2290670775875014
 30
0.0
 42
-0.0990303044398055
 70
     2
 50
45.4229739227550411
  0
VERTEX
  5
37D1
  8
0
 10
337.7035641896616767
 20
113.8583667217867941
 30
0.0
 42
-0.0998161775596926
  0
SEQEND
  5
37D2
  8
0
  0
POLYLINE
  5
37D3
  8
3
 66
     1
 10
0.0
 20
0.0
 30
0.0
 70
     1
  0
VERTEX
  5
37D4
  8
3
 10
338.8629659794489157
 20
113.6784574382249957
 30
0.0
 42
-0.0998652311581154
  0
VERTEX
  5
37D5
  8
3
 10
339.8033344516167062
 20
113.4887451961243983
 30
0.0
 42
-0.0990498824558336
  0
VERTEX
  5
37D6
  8
3
 10
340.6038765802488228
 20
112.9462243911912935
 30
0.0
 42
-0.0979181976966268
 70
     2
 50
314.5614514132573731
  0
VERTEX
  5
37D7
  8
3
 10
341.1370060788664205
 20
112.1369692843177006
 30
0.0
 42
-0.0971327287891391
  0
VERTEX
  5
37D8
  8
3
 10
341.3249853619793726
 20
111.1784574382248962
 30
0.0
 42
-0.0971327287889537
  0
VERTEX
  5
37D9
  8
3
 10
341.1370060788671026
 20
110.2199455921327029
 30
0.0
 42
-0.0979181976965587
  0
VERTEX
  5
37DA
  8
3
 10
340.6038765802489934
 20
109.4106904852585984
 30
0.0
 42
-0.0990498824558168
 70
     2
 50
225.4385485867460943
  0
VERTEX
  5
37DB
  8
3
 10
339.8033344516172178
 20
108.8681696803255932
 30
0.0
 42
-0.0998652311581504
  0
VERTEX
  5
37DC
  8
3
 10
338.8629659794490863
 20
108.6784574382248962
 30
0.0
 42
-0.0998652311580454
  0
VERTEX
  5
37DD
  8
3
 10
337.9225975072816937
 20
108.8681696803250958
 30
0.0
 42
-0.0990498824558687
  0
VERTEX
  5
37DE
  8
3
 10
337.1220553786491791
 20
109.4106904852584989
 30
0.0
 42
-0.097918197696494
 70
     2
 50
134.5614514132572879
  0
VERTEX
  5
37DF
  8
3
 10
336.5889258800311268
 20
110.219945592132305
 30
0.0
 42
-0.0971327287889311
  0
VERTEX
  5
37E0
  8
3
 10
336.4009465969186863
 20
111.1784574382247968
 30
0.0
 42
-0.0971327287889085
  0
VERTEX
  5
37E1
  8
3
 10
336.5889258800307857
 20
112.1369692843176011
 30
0.0
 42
-0.0979181976964289
  0
VERTEX
  5
37E2
  8
3
 10
337.1220553786490086
 20
112.9462243911910946
 30
0.0
 42
-0.0990498824559495
 70
     2
 50
45.4385485867460233
  0
VERTEX
  5
37E3
  8
3
 10
337.9225975072812957
 20
113.4887451961241993
 30
0.0
 42
-0.0998652311581978
  0
SEQEND
  5
37E4
  8
3
  0
POLYLINE
  5
37E5
  8
0
 66
     1
 10
0.0
 20
0.0
 30
0.0
 70
     1
  0
VERTEX
  5
37E6
  8
0
 10
338.932425262523509
 20
113.2784574382251037
 30
0.0
 42
-0.099865230634072
  0
VERTEX
  5
37E7
  8
0
 10
339.7223347843107035
 20
113.1190991546715026
 30
0.0
 42
-0.0990498822468826
  0
VERTEX
  5
37E8
  8
0
 10
340.3947901756862962
 20
112.663381678716803
 30
0.0
 42
-0.0979181979165839
 70
     2
 50
314.5614515795729176
  0
VERTEX
  5
37E9
  8
0
 10
340.8426189573057172
 20
111.9836073883727039
 30
0.0
 42
-0.0971327293011444
  0
VERTEX
  5
37EA
  8
0
 10
341.0005215558570058
 20
111.1784574382248962
 30
0.0
 42
-0.0971327293014754
  0
VERTEX
  5
37EB
  8
0
 10
340.8426189573053193
 20
110.3733074880765059
 30
0.0
 42
-0.0979181979167043
  0
VERTEX
  5
37EC
  8
0
 10
340.3947901756865804
 20
109.6935331977331032
 30
0.0
 42
-0.0990498822469581
 70
     2
 50
225.4385484204304078
  0
VERTEX
  5
37ED
  8
0
 10
339.722334784311272
 20
109.237815721778901
 30
0.0
 42
-0.099865230634295
  0
VERTEX
  5
37EE
  8
0
 10
338.9324252625236795
 20
109.0784574382248024
 30
0.0
 42
-0.099865230634072
  0
VERTEX
  5
37EF
  8
0
 10
338.142515740736485
 20
109.2378157217784036
 30
0.0
 42
-0.0990498822468824
  0
VERTEX
  5
37F0
  8
0
 10
337.4700603493607787
 20
109.6935331977330037
 30
0.0
 42
-0.097918197916742
 70
     2
 50
134.5614515795728892
  0
VERTEX
  5
37F1
  8
0
 10
337.022231567741926
 20
110.3733074880768044
 30
0.0
 42
-0.097132729301392
  0
VERTEX
  5
37F2
  8
0
 10
336.8643289691902964
 20
111.1784574382247968
 30
0.0
 42
-0.097132729301583
  0
VERTEX
  5
37F3
  8
0
 10
337.022231567741926
 20
111.9836073883724055
 30
0.0
 42
-0.0979181979170155
  0
VERTEX
  5
37F4
  8
0
 10
337.4700603493606081
 20
112.6633816787167035
 30
0.0
 42
-0.0990498822468194
 70
     2
 50
45.4385484204303367
  0
VERTEX
  5
37F5
  8
0
 10
338.1425157407355755
 20
113.1190991546711047
 30
0.0
 42
-0.099865230634197
  0
SEQEND
  5
37F6
  8
0
  0
LINE
  5
37F7
  8
0
 10
346.175359663241295
 20
107.1784574382253936
 30
0.0
 11
340.0701607154899762
 21
107.1784574382251947
 31
0.0
  0
LINE
  5
37F8
  8
0
 10
353.325308631843086
 20
107.1784574382257063
 30
0.0
 11
348.7740133377590723
 21
107.1784574382256068
 31
0.0
  0
LINE
  5
37F9
  8
0
 10
356.2245811957192814
 20
115.1784574382247968
 30
0.0
 11
356.2245811957191108
 21
107.1784574382248962
 31
0.0
  0
LINE
  5
37FA
  8
0
 10
355.2245811957193951
 20
116.1784574382248962
 30
0.0
 11
356.2245811957192814
 21
115.1784574382247968
 31
0.0
  0
LINE
  5
37FB
  8
0
 10
327.2245811957188835
 20
116.1784574382248962
 30
0.0
 11
326.2245811957188835
 21
115.1784574382247968
 31
0.0
  0
LINE
  5
37FC
  8
0
 10
326.2245811957188835
 20
115.1784574382247968
 30
0.0
 11
326.2245811957191108
 21
107.1784574382248962
 31
0.0
  0
LINE
  5
37FD
  8
0
 10
327.2245811957188835
 20
116.1784574382248962
 30
0.0
 11
355.2245811957191108
 21
116.1784574382247968
 31
0.0
  0
LINE
  5
37FE
  8
0
 10
356.2245811957192814
 20
115.1784574382247968
 30
0.0
 11
354.741905517994212
 21
115.1784574382247968
 31
0.0
  0
LINE
  5
37FF
  8
0
 10
326.2245811957191108
 20
107.1784574382248962
 30
0.0
 11
337.242473835646706
 21
107.1784574382247968
 31
0.0
  0
LINE
  5
3800
  8
0
 10
337.242473835645626
 20
115.1784574382248962
 30
0.0
 11
326.2245811957188835
 21
115.1784574382247968
 31
0.0
  0
LINE
  5
3801
  8
0
 10
340.0701607154903741
 20
107.1784574382248962
 30
0.0
 11
346.1753596632424888
 21
107.1784574382248962
 31
0.0
  0
LINE
  5
3802
  8
0
 10
356.2245811957191108
 20
107.1784574382248962
 30
0.0
 11
355.2245811957191108
 21
106.1784574382248962
 31
0.0
  0
LINE
  5
3803
  8
0
 10
326.2245811957191108
 20
107.1784574382248962
 30
0.0
 11
327.2245811957191108
 21
106.1784574382248962
 31
0.0
  0
TEXT
  5
38A8
  8
0
 62
     3
 10
0.0
 20
0.0
 30
0.0
 40
10.0
  1
QLSW150NL
  7
STANDARD1
  0
CIRCLE
  5
3C9B
  8
3
 10
158.281797352727807
 20
173.1784589581432101
 30
0.0
 40
3.0
  0
CIRCLE
  5
3C9C
  8
0
 10
158.281797352727807
 20
173.1784589581432101
 30
0.0
 40
2.458499999999999
  0
LINE
  5
3C9D
  8
0
 10
162.7896281848813942
 20
168.168459086889186
 30
0.0
 11
170.5937867942417938
 21
189.6102093152942132
 31
0.0
  0
LINE
  5
3C9E
  8
0
 10
153.7739665205743052
 20
168.168459086889186
 30
0.0
 11
162.7896281848813942
 21
168.168459086889186
 31
0.0
  0
LINE
  5
3C9F
  8
0
 10
145.9698079112137918
 20
189.6102093152942132
 30
0.0
 11
153.7739665205743052
 21
168.168459086889186
 31
0.0
  0
LINE
  5
3CA0
  8
0
 10
172.3771866369212944
 20
193.0481567971648929
 30
0.0
 11
163.1397318984533911
 21
167.6684580736101964
 31
0.0
  0
LINE
  5
3CA1
  8
0
 10
163.1397318984533911
 20
167.6684580736101964
 30
0.0
 11
162.7896281848813942
 21
168.168459086889186
 31
0.0
  0
LINE
  5
3CA2
  8
0
 10
153.7739665205743052
 20
168.168459086889186
 30
0.0
 11
153.4238628070021946
 21
167.6684580736101964
 31
0.0
  0
LINE
  5
3CA3
  8
0
 10
153.4238628070021946
 20
167.6684580736101964
 30
0.0
 11
144.1864080685342913
 21
193.0481567971648929
 31
0.0
  0
LINE
  5
3CA4
  8
0
 10
163.1397318984533911
 20
167.6684580736101964
 30
0.0
 11
162.5937766353752068
 21
166.1684587590636113
 31
0.0
  0
LINE
  5
3CA5
  8
0
 10
162.5937766353752068
 20
166.1684587590636113
 30
0.0
 11
153.9698180700804073
 21
166.1684587590636113
 31
0.0
  0
LINE
  5
3CA6
  8
0
 10
153.9698180700804073
 20
166.1684587590636113
 30
0.0
 11
153.4238628070021946
 21
167.6684580736101964
 31
0.0
  0
LINE
  5
3D39
  8
1
 10
83.9006227255157881
 20
89.6784645118346049
 30
0.0
 11
83.9006227255156887
 21
108.6784559034051938
 31
0.0
  0
LINE
  5
3D3A
  8
0
 10
60.5189133897619627
 20
99.8565401964265931
 30
0.0
 11
60.5506227255156588
 21
100.1784646068294933
 31
0.0
  0
ARC
  5
3D3B
  8
0
 10
58.9006227255155679
 20
100.1784646068294933
 30
0.0
 40
1.649999999999997
 50
168.7491014520894055
 51
189.7004648448703961
  0
LINE
  5
3D3C
  8
0
 10
60.5506227255156588
 20
100.1784646068294933
 30
0.0
 11
60.5270311939636372
 21
100.4564852782924049
 31
0.0
  0
ARC
  5
3D3D
  8
0
 10
59.0294447247806033
 20
100.1784646068294933
 30
0.0
 40
2.353528225344788
 50
93.1376923028004455
 51
266.862307697199526
  0
ARC
  5
3D3E
  8
0
 10
58.7741010783867566
 20
100.1784646068294933
 30
0.0
 40
2.3534034348560309
 50
273.0817720543674909
 51
86.9182279456324949
  0
ARC
  5
3D3F
  8
0
 10
58.9006227255155679
 20
100.1784646068294933
 30
0.0
 40
1.999999999999996
 50
187.8517097071585056
 51
350.5978565898001875
  0
LINE
  5
3D40
  8
0
 10
56.9193728193870925
 20
99.9052452636895651
 30
0.0
 11
60.8737548274423901
 21
99.8517388681037232
 31
0.0
  0
ARC
  5
3D41
  8
0
 10
58.9006227255155679
 20
100.1784646068294933
 30
0.0
 40
2.0000000000000031
 50
7.8517097071586637
 51
170.5978565898018928
  0
LINE
  5
3D42
  8
0
 10
56.927490623588767
 20
100.5051903455554054
 30
0.0
 11
60.8818726316440575
 21
100.4516839499695067
 31
0.0
  0
LINE
  5
3D43
  8
0
 10
44.4006228074720681
 20
106.1784559034051938
 30
0.0
 11
43.9006227255156887
 21
105.6784586154165027
 31
0.0
  0
LINE
  5
3D44
  8
0
 10
43.9006227255156887
 20
94.6784586750211758
 30
0.0
 11
44.4006228074720681
 21
94.1784576617422147
 31
0.0
  0
LINE
  5
3D45
  8
0
 10
43.9006227255156887
 20
97.7103457890691942
 30
0.0
 11
43.9006227255156887
 21
94.6784586750211758
 31
0.0
  0
LINE
  5
3D46
  8
0
 10
43.9006227255156887
 20
105.6784586154165027
 30
0.0
 11
43.9006227255156887
 21
102.6655108772458931
 31
0.0
  0
LINE
  5
3D48
  8
0
 10
44.4006228074720681
 20
106.1784559034051938
 30
0.0
 11
63.8599146344056976
 21
106.1784559034051938
 31
0.0
  0
LINE
  5
3D49
  8
0
 10
63.8599146344056976
 20
106.1784559034051938
 30
0.0
 11
64.0309245512178791
 21
105.6784586154165027
 31
0.0
  0
LINE
  5
3D4A
  8
0
 10
64.0309245512178791
 20
105.6784586154165027
 30
0.0
 11
43.9006227255156887
 21
105.6784586154165027
 31
0.0
  0
LINE
  5
3D4B
  8
0
 10
43.9006227255156887
 20
94.6784586750211758
 30
0.0
 11
64.0309245512178791
 21
94.6784586750211758
 31
0.0
  0
LINE
  5
3D4C
  8
0
 10
64.0309245512178791
 20
94.6784586750211758
 30
0.0
 11
63.8599146344056976
 21
94.1784576617422147
 31
0.0
  0
ARC
  5
3D4D
  8
0
 10
25.7924897790074397
 20
100.269496028276393
 30
0.0
 40
18.2925569172509697
 50
351.9578721835894157
 51
354.3812943893996135
  0
POLYLINE
  5
3D4E
  8
0
 66
     1
 10
0.0
 20
0.0
 30
0.0
 70
   128
  0
VERTEX
  5
4538
  8
0
 10
43.9024378732136071
 20
102.6655108772458931
 30
0.0
  0
VERTEX
  5
4539
  8
0
 10
43.900839723675567
 20
102.6769326173010057
 30
0.0
  0
VERTEX
  5
453A
  8
0
 10
43.9211229980281175
 20
102.5307596765699003
 30
0.0
  0
VERTEX
  5
453B
  8
0
 10
43.9665557071855915
 20
102.1661804162205982
 30
0.0
  0
VERTEX
  5
453C
  8
0
 10
44.0226716175964725
 20
101.5955180965604967
 30
0.0
  0
VERTEX
  5
453D
  8
0
 10
44.0681955963662517
 20
100.8426071249188993
 30
0.0
  0
VERTEX
  5
453E
  8
0
 10
44.0798827633551014
 20
99.9781088076772733
 30
0.0
  0
VERTEX
  5
453F
  8
0
 10
44.048217795818168
 20
99.1165162168684049
 30
0.0
  0
VERTEX
  5
4540
  8
0
 10
43.9971608296325982
 20
98.4785118244829363
 30
0.0
  0
SEQEND
  5
4541
  8
0
  0
LINE
  5
3D4F
  8
0
 10
64.0309245512178791
 20
94.6784586750211758
 30
0.0
 11
64.0309245512178791
 21
105.6784586154165027
 31
0.0
  0
LINE
  5
3D50
  8
0
 10
64.0309245512178791
 20
94.6784586750211758
 30
0.0
 11
76.9006216153791797
 21
94.6784586750211758
 31
0.0
  0
ARC
  5
3D51
  8
0
 10
76.5006223902395845
 20
93.7784569155471104
 30
0.0
 40
0.4000000000000199
 50
0.0
 51
90.0
  0
LINE
  5
3D53
  8
0
 10
88.9106222614935291
 20
106.1784559034051938
 30
0.0
 11
89.4106232747724903
 21
105.6784586154165027
 31
0.0
  0
LINE
  5
3D54
  8
0
 10
89.4106232747724903
 20
105.6784586154165027
 30
0.0
 11
64.0309245512178791
 21
105.6784586154165027
 31
0.0
  0
LINE
  5
3D55
  8
0
 10
63.8599146344056976
 20
106.1784559034051938
 30
0.0
 11
88.9106222614935291
 21
106.1784559034051938
 31
0.0
  0
LINE
  5
3D56
  8
0
 10
90.9106225893190754
 20
104.1784555755796049
 30
0.0
 11
89.4106232747724903
 21
105.6784586154165027
 31
0.0
  0
LINE
  5
3D57
  8
0
 10
90.9106225893190754
 20
92.6784583471956438
 30
0.0
 11
90.9106225893190754
 21
104.1784555755796049
 31
0.0
  0
LINE
  5
3D58
  8
0
 10
76.9006216153791797
 20
92.6784583471956438
 30
0.0
 11
90.9106225893190754
 21
92.6784583471956438
 31
0.0
  0
LINE
  5
3D59
  8
0
 10
76.9006216153791797
 20
94.6784586750211758
 30
0.0
 11
76.9006216153791797
 21
92.6784583471956438
 31
0.0
  0
LINE
  5
3D5A
  8
0
 10
90.4106215760401142
 20
92.1784573339166684
 30
0.0
 11
90.9106225893190754
 21
92.6784583471956438
 31
0.0
  0
LINE
  5
3D5B
  8
0
 10
90.4106215760401142
 20
92.1784573339166684
 30
0.0
 11
77.4006226286581409
 21
92.1784573339166684
 31
0.0
  0
LINE
  5
3D5C
  8
0
 10
76.9006216153791797
 20
92.6784583471956438
 30
0.0
 11
77.4006226286581409
 21
92.1784573339166684
 31
0.0
  0
LINE
  5
3E09
  8
0
 10
44.1056217626025386
 20
94.1784576617422147
 30
0.0
 11
66.6509082168628737
 21
94.1784576617422147
 31
0.0
  0
LINE
  5
3E0A
  8
0
 10
76.5056216717054554
 20
94.1784576617422147
 30
0.0
 11
66.6509082168628737
 21
94.1784576617422147
 31
0.0
  0
LINE
  5
3E94
  8
0
 10
143.781797352728006
 20
106.1784574382248962
 30
0.0
 11
172.781797352728006
 21
106.1784574382248962
 31
0.0
  0
LINE
  5
3E95
  8
0
 10
143.2817976880041897
 20
97.8284576528016174
 30
0.0
 11
143.2817976880041897
 21
94.6784602098409067
 31
0.0
  0
LINE
  5
3E96
  8
0
 10
143.2817976880041897
 20
105.6784601502362051
 30
0.0
 11
143.2817976880041897
 21
102.5284589819851959
 31
0.0
  0
LINE
  5
3E97
  8
0
 10
173.2817970174519075
 20
94.6784602098409067
 30
0.0
 11
173.2817970174519075
 21
105.6784601502362051
 31
0.0
  0
LINE
  5
3E98
  8
0
 10
173.2817970174519075
 20
105.6784601502362051
 30
0.0
 11
172.7817969354954926
 21
106.1784574382248962
 31
0.0
  0
LINE
  5
3E99
  8
0
 10
143.7817977699606047
 20
106.1784574382248962
 30
0.0
 11
143.2817976880041897
 21
105.6784601502362051
 31
0.0
  0
LINE
  5
3E9A
  8
0
 10
143.2817976880041897
 20
94.6784602098409067
 30
0.0
 11
143.7817977699606047
 21
94.1784591965619455
 31
0.0
  0
LINE
  5
3E9B
  8
0
 10
172.7817969354954926
 20
94.1784591965619455
 30
0.0
 11
173.2817970174519075
 21
94.6784602098409067
 31
0.0
  0
LINE
  5
3E9C
  8
0
 10
153.4238628070025072
 20
105.6784601502362051
 30
0.0
 11
144.1864080685344902
 21
105.6784601502362051
 31
0.0
  0
LINE
  5
3E9D
  8
0
 10
153.9698180700806915
 20
104.1784571103992931
 30
0.0
 11
153.4238628070025072
 21
105.6784601502362051
 31
0.0
  0
LINE
  5
3E9E
  8
0
 10
153.9698180700806915
 20
92.6784598820153604
 30
0.0
 11
153.9698180700806915
 21
104.1784571103992931
 31
0.0
  0
LINE
  5
3E9F
  8
0
 10
148.8705946090786085
 20
92.6784598820153604
 30
0.0
 11
153.9698180700806915
 21
92.6784598820153604
 31
0.0
  0
LINE
  5
3EA0
  8
0
 10
148.8705946090786085
 20
94.6784602098409067
 30
0.0
 11
148.8705946090786085
 21
92.6784598820153604
 31
0.0
  0
LINE
  5
3EA1
  8
0
 10
144.1864080685344902
 20
94.6784602098409067
 30
0.0
 11
148.8705946090786085
 21
94.6784602098409067
 31
0.0
  0
LINE
  5
3EA2
  8
0
 10
144.1864080685344902
 20
94.6784602098409067
 30
0.0
 11
144.1864080685344902
 21
105.6784601502362051
 31
0.0
  0
LINE
  5
3EA3
  8
0
 10
154.3199217836526884
 20
92.1784588687363851
 30
0.0
 11
153.9698180700806915
 21
92.6784598820153604
 31
0.0
  0
LINE
  5
3EA4
  8
0
 10
154.3199217836526884
 20
92.1784588687363851
 30
0.0
 11
149.5846694293585983
 21
92.1784588687363851
 31
0.0
  0
LINE
  5
3EA5
  8
0
 10
148.8705946090786085
 20
92.6784598820153604
 30
0.0
 11
149.5846694293585983
 21
92.1784588687363851
 31
0.0
  0
LINE
  5
3EA6
  8
0
 10
162.5937766353754057
 20
104.1784571103992931
 30
0.0
 11
153.9698180700806915
 21
104.1784571103992931
 31
0.0
  0
LINE
  5
3EA7
  8
0
 10
162.5937766353754057
 20
92.6784598820153604
 30
0.0
 11
162.5937766353754057
 21
104.1784571103992931
 31
0.0
  0
LINE
  5
3EA8
  8
0
 10
153.9698180700806915
 20
92.6784598820153604
 30
0.0
 11
162.5937766353754057
 21
92.6784598820153604
 31
0.0
  0
LINE
  5
3EA9
  8
0
 10
162.2436729218034088
 20
92.1784588687363851
 30
0.0
 11
154.3199217836526884
 21
92.1784588687363851
 31
0.0
  0
LINE
  5
3EAA
  8
0
 10
162.2436729218034088
 20
92.1784588687363851
 30
0.0
 11
162.5937766353754057
 21
92.6784598820153604
 31
0.0
  0
LINE
  5
3EAB
  8
0
 10
163.13973189845359
 20
105.6784601502362051
 30
0.0
 11
162.7896281848815931
 21
106.1784574382248962
 31
0.0
  0
LINE
  5
3EAC
  8
0
 10
163.13973189845359
 20
105.6784601502362051
 30
0.0
 11
162.5937766353754057
 21
104.1784571103992931
 31
0.0
  0
LINE
  5
3EAD
  8
0
 10
153.7739665205745041
 20
106.1784574382248962
 30
0.0
 11
153.4238628070025072
 21
105.6784601502362051
 31
0.0
  0
LINE
  5
3EAE
  8
0
 10
162.5937766353754057
 20
92.6784598820153604
 30
0.0
 11
167.6930000963774887
 21
92.6784598820153604
 31
0.0
  0
LINE
  5
3EAF
  8
0
 10
167.6930000963774887
 20
92.6784598820153604
 30
0.0
 11
166.9789252760974989
 21
92.1784588687363851
 31
0.0
  0
LINE
  5
3EB0
  8
0
 10
166.9789252760974989
 20
92.1784588687363851
 30
0.0
 11
162.2436729218034088
 21
92.1784588687363851
 31
0.0
  0
LINE
  5
3EB1
  8
0
 10
172.377186636921607
 20
105.6784601502362051
 30
0.0
 11
163.13973189845359
 21
105.6784601502362051
 31
0.0
  0
LINE
  5
3EB2
  8
0
 10
172.377186636921607
 20
94.6784602098409067
 30
0.0
 11
172.377186636921607
 21
105.6784601502362051
 31
0.0
  0
LINE
  5
3EB3
  8
0
 10
167.6930000963774887
 20
94.6784602098409067
 30
0.0
 11
172.377186636921607
 21
94.6784602098409067
 31
0.0
  0
LINE
  5
3EB4
  8
0
 10
167.6930000963774887
 20
92.6784598820153604
 30
0.0
 11
167.6930000963774887
 21
94.6784602098409067
 31
0.0
  0
LINE
  5
3EB5
  8
0
 10
144.6562547194926083
 20
106.1784574382248962
 30
0.0
 11
144.1864080685344902
 21
105.6784601502362051
 31
0.0
  0
LINE
  5
3EB6
  8
0
 10
171.907339985963489
 20
106.1784574382248962
 30
0.0
 11
172.377186636921607
 21
105.6784601502362051
 31
0.0
  0
LINE
  5
3EB7
  8
0
 10
144.1864080685344902
 20
94.6784602098409067
 30
0.0
 11
144.6562547194926083
 21
94.1784591965619455
 31
0.0
  0
LINE
  5
3EB8
  8
0
 10
172.377186636921607
 20
94.6784602098409067
 30
0.0
 11
171.907339985963489
 21
94.1784591965619455
 31
0.0
  0
LINE
  5
3EB9
  8
0
 10
144.1864080685344902
 20
105.6784601502362051
 30
0.0
 11
143.2817976880041897
 21
105.6784601502362051
 31
0.0
  0
LINE
  5
3EBA
  8
0
 10
173.2817970174519075
 20
105.6784601502362051
 30
0.0
 11
172.377186636921607
 21
105.6784601502362051
 31
0.0
  0
LINE
  5
3EBB
  8
0
 10
172.377186636921607
 20
94.6784602098409067
 30
0.0
 11
173.2817970174519075
 21
94.6784602098409067
 31
0.0
  0
LINE
  5
3EBC
  8
0
 10
143.2817976880041897
 20
94.6784602098409067
 30
0.0
 11
144.1864080685344902
 21
94.6784602098409067
 31
0.0
  0
ARC
  5
3EBD
  8
0
 10
126.0613523802996951
 20
100.1784583173934067
 30
0.0
 40
17.3800529262490606
 50
352.2290912313929994
 51
7.7709087686069127
  0
LINE
  5
3F38
  8
1
 10
232.6629719799400959
 20
89.6784635970048214
 30
0.0
 11
232.6629719799400959
 21
108.6784559034051938
 31
0.0
  0
LINE
  5
3F49
  8
0
 10
272.6629719799400959
 20
102.6655108772458931
 30
0.0
 11
272.6629719799400959
 21
105.6784586154165027
 31
0.0
  0
LINE
  5
3F4A
  8
0
 10
272.6629719799400959
 20
94.6784586750211758
 30
0.0
 11
272.6629719799400959
 21
97.7103457890691942
 31
0.0
  0
LINE
  5
3F4B
  8
0
 10
272.1629718979837094
 20
94.1784576617422147
 30
0.0
 11
272.6629719799400959
 21
94.6784586750211758
 31
0.0
  0
LINE
  5
3F4C
  8
0
 10
272.6629719799400959
 20
105.6784586154165027
 30
0.0
 11
272.1629718979837094
 21
106.1784559034051938
 31
0.0
  0
POLYLINE
  5
3F4E
  8
0
 66
     1
 10
0.0
 20
0.0
 30
0.0
 70
   128
  0
VERTEX
  5
4542
  8
0
 10
272.6584466835500962
 20
97.7103457890691942
 30
0.0
  0
VERTEX
  5
4543
  8
0
 10
272.6594664817693001
 20
97.7031150005998654
 30
0.0
  0
VERTEX
  5
4544
  8
0
 10
272.6294406419636971
 20
97.9248740814867062
 30
0.0
  0
VERTEX
  5
4545
  8
0
 10
272.5785168549062973
 20
98.3595819317045255
 30
0.0
  0
VERTEX
  5
4546
  8
0
 10
272.5232475167156849
 20
98.995801910037045
 30
0.0
  0
VERTEX
  5
4547
  8
0
 10
272.4867899632097874
 20
99.7967318736257738
 30
0.0
  0
VERTEX
  5
4548
  8
0
 10
272.4897068655134831
 20
100.6741942011061042
 30
0.0
  0
VERTEX
  5
4549
  8
0
 10
272.5338496929051075
 20
101.5066401206198066
 30
0.0
  0
VERTEX
  5
454A
  8
0
 10
272.5976257314922009
 20
102.1712989650906991
 30
0.0
  0
VERTEX
  5
454B
  8
0
 10
272.6478156363608036
 20
102.5701061927022977
 30
0.0
  0
VERTEX
  5
454C
  8
0
 10
272.6611568322422272
 20
102.6655108772458931
 30
0.0
  0
SEQEND
  5
454D
  8
0
  0
LINE
  5
3F4F
  8
0
 10
272.6629719799400959
 20
105.6784586154165027
 30
0.0
 11
252.5326701542379055
 21
105.6784586154165027
 31
0.0
  0
LINE
  5
3F50
  8
0
 10
252.5326701542379055
 20
94.6784586750211758
 30
0.0
 11
272.6629719799400959
 21
94.6784586750211758
 31
0.0
  0
LINE
  5
3F51
  8
0
 10
252.5326701542379055
 20
94.6784586750211758
 30
0.0
 11
252.5326701542379055
 21
105.6784586154165027
 31
0.0
  0
LINE
  5
3F52
  8
0
 10
252.5326701542379055
 20
94.6784586750211758
 30
0.0
 11
252.703680071050087
 21
94.1784576617422147
 31
0.0
  0
LINE
  5
3F53
  8
0
 10
252.703680071050087
 20
106.1784559034051938
 30
0.0
 11
272.1629718979837094
 21
106.1784559034051938
 31
0.0
  0
LINE
  5
3F54
  8
0
 10
252.703680071050087
 20
106.1784559034051938
 30
0.0
 11
252.5326701542379055
 21
105.6784586154165027
 31
0.0
  0
LINE
  5
3F55
  8
0
 10
239.6629730900766049
 20
94.6784586750211758
 30
0.0
 11
252.5326701542379055
 21
94.6784586750211758
 31
0.0
  0
ARC
  5
3F56
  8
0
 10
240.0629723152162001
 20
93.7784569155471104
 30
0.0
 40
0.4000000000000199
 50
90.0
 51
180.0
  0
LINE
  5
3F57
  8
0
 10
249.9176858654263071
 20
94.1784576617422147
 30
0.0
 11
240.0629724105837113
 21
94.1784576617422147
 31
0.0
  0
LINE
  5
3F58
  8
0
 10
252.5326701542379055
 20
105.6784586154165027
 30
0.0
 11
227.1529714306832943
 21
105.6784586154165027
 31
0.0
  0
LINE
  5
3F59
  8
0
 10
227.1529714306832943
 20
105.6784586154165027
 30
0.0
 11
227.6529724439623124
 21
106.1784559034051938
 31
0.0
  0
LINE
  5
3F5A
  8
0
 10
227.6529724439623124
 20
106.1784559034051938
 30
0.0
 11
252.703680071050087
 21
106.1784559034051938
 31
0.0
  0
LINE
  5
3F5B
  8
0
 10
225.6529721161367092
 20
92.6784583471956438
 30
0.0
 11
239.6629730900766049
 21
92.6784583471956438
 31
0.0
  0
LINE
  5
3F5C
  8
0
 10
225.6529721161367092
 20
92.6784583471956438
 30
0.0
 11
225.6529721161367092
 21
104.1784555755796049
 31
0.0
  0
LINE
  5
3F5D
  8
0
 10
227.1529714306832943
 20
105.6784586154165027
 30
0.0
 11
225.6529721161367092
 21
104.1784555755796049
 31
0.0
  0
LINE
  5
3F5E
  8
0
 10
239.6629730900766049
 20
92.6784583471956438
 30
0.0
 11
239.6629730900766049
 21
94.6784586750211758
 31
0.0
  0
LINE
  5
3F5F
  8
0
 10
239.1629720767977005
 20
92.1784573339166684
 30
0.0
 11
226.1529731294156988
 21
92.1784573339166684
 31
0.0
  0
LINE
  5
3F60
  8
0
 10
226.1529731294156988
 20
92.1784573339166684
 30
0.0
 11
225.6529721161367092
 21
92.6784583471956438
 31
0.0
  0
LINE
  5
3F61
  8
0
 10
239.6629730900766049
 20
92.6784583471956438
 30
0.0
 11
239.1629720767977005
 21
92.1784573339166684
 31
0.0
  0
LINE
  5
4107
  8
0
 10
342.8470792696778062
 20
99.8784590922536353
 30
0.0
 11
342.8745811957189744
 21
100.178459092253604
 31
0.0
  0
ARC
  5
4108
  8
0
 10
341.2245811957188835
 20
100.178459092253604
 30
0.0
 40
1.6499999999999699
 50
169.5243183036064067
 51
190.47568169639041
  0
LINE
  5
4109
  8
0
 10
342.8745811957189744
 20
100.178459092253604
 30
0.0
 11
342.8470792696778062
 21
100.4784590922537006
 31
0.0
  0
ARC
  5
410A
  8
0
 10
341.3363500368238874
 20
100.178459092253604
 30
0.0
 40
2.352656429196986
 50
92.7230045724929539
 51
267.2769954275070745
  0
ARC
  5
410B
  8
0
 10
341.1057999801444112
 20
100.178459092253604
 30
0.0
 40
2.352999995149446
 50
272.8935640277284733
 51
87.1064359722714556
  0
ARC
  5
410C
  8
0
 10
341.2245811957188835
 20
100.178459092253604
 30
0.0
 40
2.000000000000052
 50
188.6269265586755068
 51
351.3730734413243795
  0
LINE
  5
410D
  8
0
 10
339.2472092023904224
 20
99.8784590922536353
 30
0.0
 11
343.2019531890472877
 21
99.8784590922536779
 31
0.0
  0
ARC
  5
410E
  8
0
 10
341.2245811957188835
 20
100.178459092253604
 30
0.0
 40
2.0000000000000608
 50
8.6269265586827775
 51
171.3730734413171035
  0
LINE
  5
410F
  8
0
 10
339.2472092023904224
 20
100.4784590922537006
 30
0.0
 11
343.2019531890472877
 21
100.4784590922537006
 31
0.0
  0
LINE
  5
4110
  8
0
 10
326.2245815309950103
 20
94.678460105532622
 30
0.0
 11
326.7245816129513969
 21
94.1784590922536609
 31
0.0
  0
LINE
  5
4111
  8
0
 10
355.7245807784864269
 20
94.1784590922536609
 30
0.0
 11
356.2245808604428134
 21
94.678460105532622
 31
0.0
  0
LINE
  5
4112
  8
0
 10
326.2245815309950103
 20
105.6784600459280057
 30
0.0
 11
326.2245815309950103
 21
94.678460105532622
 31
0.0
  0
LINE
  5
4113
  8
0
 10
356.2245808604428134
 20
102.528458877676897
 30
0.0
 11
356.2245808604428134
 21
105.6784600459280057
 31
0.0
  0
LINE
  5
4114
  8
0
 10
356.2245808604428134
 20
94.678460105532622
 30
0.0
 11
356.2245808604428134
 21
97.8284575484933612
 31
0.0
  0
LINE
  5
4115
  8
0
 10
356.2245808604428134
 20
105.6784600459280057
 30
0.0
 11
355.7245807784864269
 21
106.1784573339165973
 31
0.0
  0
LINE
  5
4116
  8
0
 10
326.7245816129513969
 20
106.1784573339165973
 30
0.0
 11
326.2245815309950103
 21
105.6784600459280057
 31
0.0
  0
LINE
  5
4117
  8
0
 10
326.2245815309950103
 20
94.678460105532622
 30
0.0
 11
356.2245808604428134
 21
94.678460105532622
 31
0.0
  0
LINE
  5
4118
  8
0
 10
356.2245808604428134
 20
105.6784600459280057
 30
0.0
 11
326.2245815309950103
 21
105.6784600459280057
 31
0.0
  0
ARC
  5
4119
  8
0
 10
373.4528471017093239
 20
100.1784582130850936
 30
0.0
 40
17.3878020693686608
 50
172.2325758354016045
 51
187.7674241645999871
  0
LINE
  5
411A
  8
0
 10
326.7245816129513969
 20
106.1784573339165973
 30
0.0
 11
355.7245807784864269
 21
106.1784573339165973
 31
0.0
  0
POLYLINE
  5
420F
  8
0
 66
     1
 10
0.0
 20
0.0
 30
0.0
 70
   128
  0
VERTEX
  5
454E
  8
0
 10
54.4120960124126114
 20
111.1784585856141945
 30
0.0
  0
VERTEX
  5
454F
  8
0
 10
54.3717357516577877
 20
111.6962702118101021
 30
0.0
  0
VERTEX
  5
4550
  8
0
 10
54.2519518360784687
 20
112.197444691533093
 30
0.0
  0
VERTEX
  5
4551
  8
0
 10
54.0565938875368275
 20
112.6658664189520067
 30
0.0
  0
VERTEX
  5
4552
  8
0
 10
53.7919413484922089
 20
113.0864777706804034
 30
0.0
  0
VERTEX
  5
4553
  8
0
 10
53.4665004536798705
 20
113.4457671188059038
 30
0.0
  0
VERTEX
  5
4554
  8
0
 10
53.0907308869352974
 20
113.732182338112807
 30
0.0
  0
VERTEX
  5
4555
  8
0
 10
52.6767105050674118
 20
113.9365219615639973
 30
0.0
  0
VERTEX
  5
4556
  8
0
 10
52.2377455793610324
 20
114.052210851782803
 30
0.0
  0
VERTEX
  5
4557
  8
0
 10
51.7879456468215622
 20
114.0755386196317005
 30
0.0
  0
VERTEX
  5
4558
  8
0
 10
51.3417666964522112
 20
114.0057490311804003
 30
0.0
  0
VERTEX
  5
4559
  8
0
 10
50.9135506302407421
 20
113.8450884364786049
 30
0.0
  0
VERTEX
  5
455A
  8
0
 10
50.5170586705497016
 20
113.5987200878800962
 30
0.0
  0
VERTEX
  5
455B
  8
0
 10
50.1650364324739613
 20
113.2745602272692054
 30
0.0
  0
VERTEX
  5
455C
  8
0
 10
49.8687976226499714
 20
112.8830359421910998
 30
0.0
  0
VERTEX
  5
455D
  8
0
 10
49.6378631517580189
 20
112.4367200874033017
 30
0.0
  0
VERTEX
  5
455E
  8
0
 10
49.4796547293952216
 20
111.949962481135401
 30
0.0
  0
VERTEX
  5
455F
  8
0
 10
49.3992592394641079
 20
111.4384093426408953
 30
0.0
  0
VERTEX
  5
4560
  8
0
 10
49.3992592394641079
 20
110.9185041032971952
 30
0.0
  0
VERTEX
  5
4561
  8
0
 10
49.4796547293952216
 20
110.4069509648027037
 30
0.0
  0
VERTEX
  5
4562
  8
0
 10
49.6378631517580189
 20
109.920193358534803
 30
0.0
  0
VERTEX
  5
4563
  8
0
 10
49.8687976226499714
 20
109.4738812290373033
 30
0.0
  0
VERTEX
  5
4564
  8
0
 10
50.1650364324739613
 20
109.0823532186688993
 30
0.0
  0
VERTEX
  5
4565
  8
0
 10
50.5170586705497016
 20
108.7581933580579943
 30
0.0
  0
VERTEX
  5
4566
  8
0
 10
50.9135506302407421
 20
108.5118250094594998
 30
0.0
  0
VERTEX
  5
4567
  8
0
 10
51.3417666964522112
 20
108.3511644147577044
 30
0.0
  0
VERTEX
  5
4568
  8
0
 10
51.7879456468215622
 20
108.2813785515966032
 30
0.0
  0
VERTEX
  5
4569
  8
0
 10
52.2377455793610324
 20
108.3047025941553017
 30
0.0
  0
VERTEX
  5
456A
  8
0
 10
52.6767105050674118
 20
108.4203914843739938
 30
0.0
  0
VERTEX
  5
456B
  8
0
 10
53.0907308869352974
 20
108.6247311078252977
 30
0.0
  0
VERTEX
  5
456C
  8
0
 10
53.4665004536798705
 20
108.9111463271322009
 30
0.0
  0
VERTEX
  5
456D
  8
0
 10
53.7919413484922089
 20
109.2704356752577013
 30
0.0
  0
VERTEX
  5
456E
  8
0
 10
54.0565938875368275
 20
109.6910507522763965
 30
0.0
  0
VERTEX
  5
456F
  8
0
 10
54.2519518360784687
 20
110.1594687544049975
 30
0.0
  0
VERTEX
  5
4570
  8
0
 10
54.3717357516577877
 20
110.6606432341280026
 30
0.0
  0
VERTEX
  5
4571
  8
0
 10
54.4120960124126114
 20
111.1784585856141945
 30
0.0
  0
SEQEND
  5
4572
  8
0
  0
POLYLINE
  5
4260
  8
0
 66
     1
 10
0.0
 20
0.0
 30
0.0
 70
   128
  0
VERTEX
  5
4573
  8
0
 10
47.437906666050651
 20
111.1784574382248962
 30
0.0
  0
VERTEX
  5
4574
  8
0
 10
47.4248459729963301
 20
111.6007008246563998
 30
0.0
  0
VERTEX
  5
4575
  8
0
 10
47.3859422598305216
 20
112.0139448263842041
 30
0.0
  0
VERTEX
  5
4576
  8
0
 10
47.3220246916566509
 20
112.4093818649648
 30
0.0
  0
VERTEX
  5
4577
  8
0
 10
47.2344555604698826
 20
112.7785838864593018
 30
0.0
  0
VERTEX
  5
4578
  8
0
 10
47.1251012502682087
 20
113.113681990769507
 30
0.0
  0
VERTEX
  5
4579
  8
0
 10
46.9962924583181731
 20
113.4075341435826942
 30
0.0
  0
VERTEX
  5
457A
  8
0
 10
46.8507745203886969
 20
113.6538773964332023
 30
0.0
  0
VERTEX
  5
457B
  8
0
 10
46.6916488986857985
 20
113.8474613705755019
 30
0.0
  0
VERTEX
  5
457C
  8
0
 10
46.522307079570048
 20
113.9841601596914984
 30
0.0
  0
VERTEX
  5
457D
  8
0
 10
46.3463582899131268
 20
114.061060266420796
 30
0.0
  0
VERTEX
  5
457E
  8
0
 10
46.1675525726929621
 20
114.0765226984987066
 30
0.0
  0
VERTEX
  5
457F
  8
0
 10
45.9897008613385694
 20
114.0302179010303973
 30
0.0
  0
VERTEX
  5
4580
  8
0
 10
45.8165937563001293
 20
113.9231327803820051
 30
0.0
  0
VERTEX
  5
4581
  8
0
 10
45.6519207349816867
 20
113.7575496699842006
 30
0.0
  0
VERTEX
  5
4582
  8
0
 10
45.4991915169354613
 20
113.5369976863581059
 30
0.0
  0
VERTEX
  5
4583
  8
0
 10
45.3616612602832774
 20
113.2661775121230932
 30
0.0
  0
VERTEX
  5
4584
  8
0
 10
45.2422611836724684
 20
112.9508612091086945
 30
0.0
  0
VERTEX
  5
4585
  8
0
 10
45.1435360924395681
 20
112.597769196876996
 30
0.0
  0
VERTEX
  5
4586
  8
0
 10
45.067590140502567
 20
112.2144270186481947
 30
0.0
  0
VERTEX
  5
4587
  8
0
 10
45.0160419839734232
 20
111.8090049474113954
 30
0.0
  0
VERTEX
  5
4588
  8
0
 10
44.989990282313272
 20
111.3901438507414952
 30
0.0
  0
VERTEX
  5
4589
  8
0
 10
44.989990282313272
 20
110.9667710257082973
 30
0.0
  0
VERTEX
  5
458A
  8
0
 10
45.0160419839734232
 20
110.5479099290383971
 30
0.0
  0
VERTEX
  5
458B
  8
0
 10
45.067590140502567
 20
110.1424878578016973
 30
0.0
  0
VERTEX
  5
458C
  8
0
 10
45.1435360924395681
 20
109.7591456795727964
 30
0.0
  0
VERTEX
  5
458D
  8
0
 10
45.2422611836724897
 20
109.4060536673411974
 30
0.0
  0
VERTEX
  5
458E
  8
0
 10
45.3616612602832774
 20
109.0907373643266993
 30
0.0
  0
VERTEX
  5
458F
  8
0
 10
45.4991915169354968
 20
108.8199171900918003
 30
0.0
  0
VERTEX
  5
4590
  8
0
 10
45.6519207349816867
 20
108.5993652064656061
 30
0.0
  0
VERTEX
  5
4591
  8
0
 10
45.8165937563001293
 20
108.4337820960679011
 30
0.0
  0
VERTEX
  5
4592
  8
0
 10
45.9897008613385694
 20
108.3266969754194946
 30
0.0
  0
VERTEX
  5
4593
  8
0
 10
46.1675525726929834
 20
108.2803921779511995
 30
0.0
  0
VERTEX
  5
4594
  8
0
 10
46.3463582899131268
 20
108.295854610029096
 30
0.0
  0
VERTEX
  5
4595
  8
0
 10
46.5223070795700835
 20
108.3727547167583936
 30
0.0
  0
VERTEX
  5
4596
  8
0
 10
46.6916488986858198
 20
108.5094535058744043
 30
0.0
  0
VERTEX
  5
4597
  8
0
 10
46.8507745203886969
 20
108.7030374800167039
 30
0.0
  0
VERTEX
  5
4598
  8
0
 10
46.9962924583181731
 20
108.9493807328671977
 30
0.0
  0
VERTEX
  5
4599
  8
0
 10
47.1251012502682372
 20
109.2432328856804986
 30
0.0
  0
VERTEX
  5
459A
  8
0
 10
47.2344555604698826
 20
109.5783309899907039
 30
0.0
  0
VERTEX
  5
459B
  8
0
 10
47.3220246916566509
 20
109.9475330114851062
 30
0.0
  0
VERTEX
  5
459C
  8
0
 10
47.3859422598305216
 20
110.3429700500658015
 30
0.0
  0
VERTEX
  5
459D
  8
0
 10
47.4248459729963301
 20
110.7562140517935063
 30
0.0
  0
VERTEX
  5
459E
  8
0
 10
47.437906666050651
 20
111.1784574382248962
 30
0.0
  0
SEQEND
  5
459F
  8
0
  0
POLYLINE
  5
4261
  8
0
 66
     1
 10
0.0
 20
0.0
 30
0.0
 70
   128
  0
VERTEX
  5
45A0
  8
0
 10
47.0623121251011298
 20
113.2569231416590014
 30
0.0
  0
VERTEX
  5
45A1
  8
0
 10
46.9750264344258923
 20
113.2765652672547958
 30
0.0
  0
VERTEX
  5
45A2
  8
0
 10
46.8246318312297589
 20
113.2614483522686015
 30
0.0
  0
VERTEX
  5
45A3
  8
0
 10
46.6774802103824413
 20
113.1864075811773063
 30
0.0
  0
VERTEX
  5
45A4
  8
0
 10
46.5378048560975515
 20
113.0536017403390048
 30
0.0
  0
VERTEX
  5
45A5
  8
0
 10
46.4096239740114811
 20
112.8668514119954978
 30
0.0
  0
VERTEX
  5
45A6
  8
0
 10
46.296625094723602
 20
112.6315290630778065
 30
0.0
  0
VERTEX
  5
45A7
  8
0
 10
46.202058990254379
 20
112.3544044891139038
 30
0.0
  0
VERTEX
  5
45A8
  8
0
 10
46.1286461552534135
 20
112.0434500595373066
 30
0.0
  0
VERTEX
  5
45A9
  8
0
 10
46.0784985433212171
 20
111.7076113671336941
 30
0.0
  0
VERTEX
  5
45AA
  8
0
 10
46.0530588099495901
 20
111.3565498796235005
 30
0.0
  0
VERTEX
  5
45AB
  8
0
 10
46.0530588099495901
 20
111.0003649968264057
 30
0.0
  0
VERTEX
  5
45AC
  8
0
 10
46.0784985433212384
 20
110.6493035093161978
 30
0.0
  0
VERTEX
  5
45AD
  8
0
 10
46.1286461552534135
 20
110.3134648169125001
 30
0.0
  0
VERTEX
  5
45AE
  8
0
 10
46.202058990254379
 20
110.0025103873360024
 30
0.0
  0
VERTEX
  5
45AF
  8
0
 10
46.296625094723602
 20
109.7253858133720996
 30
0.0
  0
VERTEX
  5
45B0
  8
0
 10
46.4096239740114811
 20
109.4900634644543942
 30
0.0
  0
VERTEX
  5
45B1
  8
0
 10
46.5378048560975515
 20
109.3033131361108019
 30
0.0
  0
VERTEX
  5
45B2
  8
0
 10
46.6774802103824413
 20
109.1705072952725004
 30
0.0
  0
VERTEX
  5
45B3
  8
0
 10
46.8246318312297589
 20
109.0954665241813046
 30
0.0
  0
VERTEX
  5
45B4
  8
0
 10
46.9750264344258923
 20
109.0803496091950961
 30
0.0
  0
VERTEX
  5
45B5
  8
0
 10
47.0623121251005969
 20
109.0999917347897963
 30
0.0
  0
SEQEND
  5
45B6
  8
0
  0
ENDSEC
  0
EOF
