  0
SECTION
  2
HEADER
  9
$ACADVER
  1
AC1009
  9
$INSBASE
 10
0.0
 20
0.0
 30
0.0
  9
$EXTMIN
 10
0.0
 20
-2.960436562073669
 30
0.0
  9
$EXTMAX
 10
603.0053293976610576
 20
344.0548732890825931
 30
0.0
  9
$LIMMIN
 10
0.0
 20
0.0
  9
$LIMMAX
 10
420.0
 20
297.0
  9
$ORTHOMODE
 70
     1
  9
$REGENMODE
 70
     1
  9
$FILLMODE
 70
     1
  9
$QTEXTMODE
 70
     0
  9
$MIRRTEXT
 70
     0
  9
$DRAGMODE
 70
     2
  9
$LTSCALE
 40
10.0
  9
$OSMODE
 70
    37
  9
$ATTMODE
 70
     1
  9
$TEXTSIZE
 40
2.5
  9
$TRACEWID
 40
1.0
  9
$TEXTSTYLE
  7
STANDARD
  9
$CLAYER
  8
0
  9
$CELTYPE
  6
BYLAYER
  9
$CECOLOR
 62
   256
  9
$DIMSCALE
 40
1.0
  9
$DIMASZ
 40
2.5
  9
$DIMEXO
 40
0.625
  9
$DIMDLI
 40
3.75
  9
$DIMRND
 40
0.0
  9
$DIMDLE
 40
0.0
  9
$DIMEXE
 40
1.25
  9
$DIMTP
 40
0.0
  9
$DIMTM
 40
0.0
  9
$DIMTXT
 40
2.5
  9
$DIMCEN
 40
2.5
  9
$DIMTSZ
 40
0.0
  9
$DIMTOL
 70
     0
  9
$DIMLIM
 70
     0
  9
$DIMTIH
 70
     0
  9
$DIMTOH
 70
     0
  9
$DIMSE1
 70
     0
  9
$DIMSE2
 70
     0
  9
$DIMTAD
 70
     1
  9
$DIMZIN
 70
     8
  9
$DIMBLK
  1

  9
$DIMASO
 70
     1
  9
$DIMSHO
 70
     1
  9
$DIMPOST
  1

  9
$DIMAPOST
  1

  9
$DIMALT
 70
     0
  9
$DIMALTD
 70
     3
  9
$DIMALTF
 40
0.03937007874016
  9
$DIMLFAC
 40
1.0
  9
$DIMTOFL
 70
     1
  9
$DIMTVP
 40
0.0
  9
$DIMTIX
 70
     0
  9
$DIMSOXD
 70
     0
  9
$DIMSAH
 70
     0
  9
$DIMBLK1
  1

  9
$DIMBLK2
  1

  9
$DIMSTYLE
  2
ISO-25
  9
$DIMCLRD
 70
     0
  9
$DIMCLRE
 70
     0
  9
$DIMCLRT
 70
     0
  9
$DIMTFAC
 40
1.0
  9
$DIMGAP
 40
0.625
  9
$LUNITS
 70
     2
  9
$LUPREC
 70
     4
  9
$SKETCHINC
 40
1.0
  9
$FILLETRAD
 40
0.0
  9
$AUNITS
 70
     0
  9
$AUPREC
 70
     0
  9
$MENU
  1
.
  9
$ELEVATION
 40
0.0
  9
$PELEVATION
 40
0.0
  9
$THICKNESS
 40
0.0
  9
$LIMCHECK
 70
     0
  9
$BLIPMODE
 70
     0
  9
$CHAMFERA
 40
0.0
  9
$CHAMFERB
 40
0.0
  9
$SKPOLY
 70
     0
  9
$TDCREATE
 40
2454083.4444560189731419
  9
$TDUPDATE
 40
2460158.5917013888247311
  9
$TDINDWG
 40
0.2354220602
  9
$TDUSRTIMER
 40
0.2354220602
  9
$USRTIMER
 70
     1
  9
$ANGBASE
 50
0.0
  9
$ANGDIR
 70
     0
  9
$PDMODE
 70
     0
  9
$PDSIZE
 40
0.0
  9
$PLINEWID
 40
0.0
  9
$COORDS
 70
     1
  9
$SPLFRAME
 70
     0
  9
$SPLINETYPE
 70
     6
  9
$SPLINESEGS
 70
     8
  9
$ATTDIA
 70
     1
  9
$ATTREQ
 70
     1
  9
$HANDLING
 70
     1
  9
$HANDSEED
  5
3A20
  9
$SURFTAB1
 70
     6
  9
$SURFTAB2
 70
     6
  9
$SURFTYPE
 70
     6
  9
$SURFU
 70
     6
  9
$SURFV
 70
     6
  9
$UCSNAME
  2

  9
$UCSORG
 10
0.0
 20
0.0
 30
0.0
  9
$UCSXDIR
 10
1.0
 20
0.0
 30
0.0
  9
$UCSYDIR
 10
0.0
 20
1.0
 30
0.0
  9
$PUCSNAME
  2

  9
$PUCSORG
 10
0.0
 20
0.0
 30
0.0
  9
$PUCSXDIR
 10
1.0
 20
0.0
 30
0.0
  9
$PUCSYDIR
 10
0.0
 20
1.0
 30
0.0
  9
$USERI1
 70
     0
  9
$USERI2
 70
     0
  9
$USERI3
 70
     0
  9
$USERI4
 70
     0
  9
$USERI5
 70
     0
  9
$USERR1
 40
0.0
  9
$USERR2
 40
0.0
  9
$USERR3
 40
0.0
  9
$USERR4
 40
0.0
  9
$USERR5
 40
0.0
  9
$WORLDVIEW
 70
     1
  9
$SHADEDGE
 70
     3
  9
$SHADEDIF
 70
    70
  9
$TILEMODE
 70
     1
  9
$MAXACTVP
 70
    64
  9
$PLIMCHECK
 70
     0
  9
$PEXTMIN
 10
0.0
 20
0.0
 30
0.0
  9
$PEXTMAX
 10
0.0
 20
0.0
 30
0.0
  9
$PLIMMIN
 10
0.0
 20
0.0
  9
$PLIMMAX
 10
12.0
 20
9.0
  9
$UNITMODE
 70
     0
  9
$VISRETAIN
 70
     1
  9
$PLINEGEN
 70
     0
  9
$PSLTSCALE
 70
     1
  0
ENDSEC
  0
SECTION
  2
TABLES
  0
TABLE
  2
VPORT
 70
     1
  0
VPORT
  2
*ACTIVE
 70
     0
 10
0.0
 20
0.0
 11
1.0
 21
1.0
 12
329.5582929391792959
 22
170.5443580477025876
 13
0.0
 23
0.0
 14
10.0
 24
10.0
 15
10.0
 25
10.0
 16
0.0
 26
0.0
 36
1.0
 17
0.0
 27
0.0
 37
0.0
 40
349.9436044907586165
 41
2.325609756097561
 42
50.0
 43
0.0
 44
0.0
 50
0.0
 51
0.0
 71
     0
 72
  1000
 73
     1
 74
     3
 75
     0
 76
     0
 77
     0
 78
     0
  0
ENDTAB
  0
TABLE
  2
LTYPE
 70
     2
  0
LTYPE
  2
CONTINUOUS
 70
     0
  3
Solid line
 72
    65
 73
     0
 40
0.0
  0
LTYPE
  2
CENTER
 70
     0
  3
____ _ ____ _ ____ _ ____ _ ____ _ ____ _ ____
 72
    65
 73
     4
 40
2.0
 49
1.25
 49
-0.25
 49
0.25
 49
-0.25
  0
ENDTAB
  0
TABLE
  2
LAYER
 70
     4
  0
LAYER
  2
0
 70
     0
 62
     7
  6
CONTINUOUS
  0
LAYER
  2
DEFPOINTS
 70
     0
 62
     7
  6
CONTINUOUS
  0
LAYER
  2
1
 70
     0
 62
     1
  6
CENTER
  0
LAYER
  2
3
 70
     0
 62
     3
  6
CONTINUOUS
  0
ENDTAB
  0
TABLE
  2
STYLE
 70
     2
  0
STYLE
  2
STANDARD
 70
     0
 40
0.0
 41
1.0
 50
0.0
 71
     0
 42
2.5
  3
txt
  4

  0
STYLE
  2
STANDARD1
 70
     0
 40
0.0
 41
1.0
 50
0.0
 71
     0
 42
3.0
  3
txt
  4

  0
ENDTAB
  0
TABLE
  2
VIEW
 70
     0
  0
ENDTAB
  0
TABLE
  2
UCS
 70
     0
  0
ENDTAB
  0
TABLE
  2
APPID
 70
    41
  0
APPID
  2
ACAD
 70
     0
  0
APPID
  2
_FTCNV
 70
     0
  0
APPID
  2
DCO15
 70
     0
  0
APPID
  2
GENIUS_GENOREF_13
 70
     0
  0
APPID
  2
GENIUS_GENOENT_13
 70
     0
  0
APPID
  2
GENIUS_GENBH_13
 70
     0
  0
APPID
  2
GENIUS_GENOBJ_13
 70
     0
  0
APPID
  2
GENIUS_GENODEF_13
 70
     0
  0
APPID
  2
GENIUS_GENOLIS_13
 70
     0
  0
APPID
  2
GENIUS_GENOBJ-NBEHI-BHF_13
 70
     0
  0
APPID
  2
GENIUS_GENOBJ-NBEHI-BHB_13
 70
     0
  0
APPID
  2
GENIUS_GENOBJ-F-PART_13
 70
     0
  0
APPID
  2
GENIUS_GEFSTDP_13
 70
     0
  0
APPID
  2
GENIUS_GENOBJ-N-RSSYM_13
 70
     0
  0
APPID
  2
GENIUS_GENSYMENT_13
 70
     0
  0
APPID
  2
GENIUS_GENOBJ-N-TIT_13
 70
     0
  0
APPID
  2
GENIUS_GENTITLE_13
 70
     0
  0
APPID
  2
GENIUS_GENZVEED_13
 70
     0
  0
APPID
  2
GENIUS_GENOBJ-N-LEADER_13
 70
     0
  0
APPID
  2
GENIUS_GENOBJ-N-FIL_13
 70
     0
  0
APPID
  2
GENIUS_GENOBJ-N-SEC_13
 70
     0
  0
APPID
  2
GENIUS_GENOBJ-N-CRS_13
 70
     0
  0
APPID
  2
GENIUS_GENOBJ-N-ZOO_13
 70
     0
  0
APPID
  2
GENIUS_GENZOO_13
 70
     0
  0
APPID
  2
GENIUS_GENOBJ-F-TOL_13
 70
     0
  0
APPID
  2
GENIUS_GENFIL_13
 70
     0
  0
APPID
  2
GENIUS_GENOBJ-N-CHA_13
 70
     0
  0
APPID
  2
_CALL_MAC$
 70
     0
  0
APPID
  2
ASM_BASE
 70
     0
  0
APPID
  2
ASM_EXPLO_VER_2_00
 70
     0
  0
APPID
  2
ASM_CADM_VER_12_00
 70
     0
  0
APPID
  2
ASM_BASEFORO
 70
     0
  0
APPID
  2
ASM_BASETRAVI
 70
     0
  0
APPID
  2
ASM_BASETRAVI1
 70
     0
  0
APPID
  2
ASM_GRUPPI
 70
     0
  0
APPID
  2
ASM_CADM_ALBERO
 70
     0
  0
APPID
  2
ASM_GOLE
 70
     0
  0
APPID
  2
ACAD_EXEMPT_FROM_CAD_STANDARDS
 70
     0
  0
APPID
  2
ACAD_MLEADERVER
 70
     0
  0
APPID
  2
ACAD_NAV_VCDISPLAY
 70
     0
  0
APPID
  2
ACAD_DSTYLE_DIMRADIAL_EXTENSION
 70
     0
  0
ENDTAB
  0
TABLE
  2
DIMSTYLE
 70
     2
  0
DIMSTYLE
  2
ISO-25
 70
     0
  3

  4

  5

  6

  7

 40
1.0
 41
2.5
 42
0.625
 43
3.75
 44
1.25
 45
0.0
 46
0.0
 47
0.0
 48
0.0
140
2.5
141
2.5
142
0.0
143
0.03937007874016
144
1.0
145
0.0
146
1.0
147
0.625
 71
     0
 72
     0
 73
     0
 74
     0
 75
     0
 76
     0
 77
     1
 78
     8
170
     0
171
     3
172
     1
173
     0
174
     0
175
     0
176
     0
177
     0
178
     0
  0
DIMSTYLE
  2
STANDARD
 70
     0
  3

  4

  5

  6

  7

 40
1.0
 41
0.18
 42
0.0625
 43
0.38
 44
0.18
 45
0.0
 46
0.0
 47
0.0
 48
0.0
140
0.18
141
0.09
142
0.0
143
25.3999999999999986
144
1.0
145
0.0
146
1.0
147
0.09
 71
     0
 72
     0
 73
     1
 74
     1
 75
     0
 76
     0
 77
     0
 78
     0
170
     0
171
     2
172
     0
173
     0
174
     0
175
     0
176
     0
177
     0
178
     0
  0
ENDTAB
  0
ENDSEC
  0
SECTION
  2
BLOCKS
  0
BLOCK
  8
0
  2
$MODEL_SPACE
 70
     0
 10
0.0
 20
0.0
 30
0.0
  3
$MODEL_SPACE
  1

  0
ENDBLK
  5
21
  8
0
  0
BLOCK
 67
     1
  8
0
  2
$PAPER_SPACE
 70
     0
 10
0.0
 20
0.0
 30
0.0
  3
$PAPER_SPACE
  1

  0
ENDBLK
  5
53
 67
     1
  8
0
  0
ENDSEC
  0
SECTION
  2
ENTITIES
  0
POLYLINE
  5
1DD9
  8
3
 10
400.5527433695705781
 20
133.3393142495550308
 30
0.0
 66
     1
 70
     8
  0
VERTEX
  8
3
  5
317E
 10
400.553
 20
133.339
 30
0.00000
  70
    32
  0
VERTEX
  8
3
  5
317F
 10
400.556
 20
133.335
 30
0.00000
  70
    32
  0
VERTEX
  8
3
  5
3180
 10
400.559
 20
133.330
 30
0.00000
  70
    32
  0
VERTEX
  8
3
  5
3181
 10
400.562
 20
133.326
 30
0.00000
  70
    32
  0
VERTEX
  8
3
  5
3182
 10
400.565
 20
133.322
 30
0.00000
  70
    32
  0
VERTEX
  8
3
  5
3183
 10
400.568
 20
133.317
 30
0.00000
  70
    32
  0
VERTEX
  8
3
  5
3184
 10
400.571
 20
133.313
 30
0.00000
  70
    32
  0
VERTEX
  8
3
  5
3185
 10
400.574
 20
133.309
 30
0.00000
  70
    32
  0
VERTEX
  8
3
  5
3186
 10
400.577
 20
133.305
 30
0.00000
  70
    32
  0
VERTEX
  8
3
  5
3187
 10
400.580
 20
133.300
 30
0.00000
  70
    32
  0
VERTEX
  8
3
  5
3188
 10
400.583
 20
133.296
 30
0.00000
  70
    32
  0
VERTEX
  8
3
  5
3189
 10
400.587
 20
133.292
 30
0.00000
  70
    32
  0
VERTEX
  8
3
  5
318A
 10
400.590
 20
133.288
 30
0.00000
  70
    32
  0
VERTEX
  8
3
  5
318B
 10
400.593
 20
133.284
 30
0.00000
  70
    32
  0
VERTEX
  8
3
  5
318C
 10
400.596
 20
133.280
 30
0.00000
  70
    32
  0
VERTEX
  8
3
  5
318D
 10
400.599
 20
133.276
 30
0.00000
  70
    32
  0
VERTEX
  8
3
  5
318E
 10
400.602
 20
133.272
 30
0.00000
  70
    32
  0
VERTEX
  8
3
  5
318F
 10
400.605
 20
133.268
 30
0.00000
  70
    32
  0
VERTEX
  8
3
  5
3190
 10
400.608
 20
133.264
 30
0.00000
  70
    32
  0
VERTEX
  8
3
  5
3191
 10
400.611
 20
133.260
 30
0.00000
  70
    32
  0
VERTEX
  8
3
  5
3192
 10
400.615
 20
133.257
 30
0.00000
  70
    32
  0
VERTEX
  8
3
  5
3193
 10
400.618
 20
133.253
 30
0.00000
  70
    32
  0
VERTEX
  8
3
  5
3194
 10
400.621
 20
133.249
 30
0.00000
  70
    32
  0
VERTEX
  8
3
  5
3195
 10
400.624
 20
133.245
 30
0.00000
  70
    32
  0
VERTEX
  8
3
  5
3196
 10
400.627
 20
133.242
 30
0.00000
  70
    32
  0
VERTEX
  8
3
  5
3197
 10
400.630
 20
133.238
 30
0.00000
  70
    32
  0
VERTEX
  8
3
  5
3198
 10
400.634
 20
133.234
 30
0.00000
  70
    32
  0
VERTEX
  8
3
  5
3199
 10
400.637
 20
133.231
 30
0.00000
  70
    32
  0
VERTEX
  8
3
  5
319A
 10
400.640
 20
133.227
 30
0.00000
  70
    32
  0
VERTEX
  8
3
  5
319B
 10
400.643
 20
133.224
 30
0.00000
  70
    32
  0
VERTEX
  8
3
  5
319C
 10
400.646
 20
133.220
 30
0.00000
  70
    32
  0
VERTEX
  8
3
  5
319D
 10
400.649
 20
133.217
 30
0.00000
  70
    32
  0
VERTEX
  8
3
  5
319E
 10
400.653
 20
133.213
 30
0.00000
  70
    32
  0
VERTEX
  8
3
  5
319F
 10
400.656
 20
133.210
 30
0.00000
  70
    32
  0
VERTEX
  8
3
  5
31A0
 10
400.659
 20
133.207
 30
0.00000
  70
    32
  0
VERTEX
  8
3
  5
31A1
 10
400.662
 20
133.203
 30
0.00000
  70
    32
  0
VERTEX
  8
3
  5
31A2
 10
400.665
 20
133.200
 30
0.00000
  70
    32
  0
VERTEX
  8
3
  5
31A3
 10
400.669
 20
133.197
 30
0.00000
  70
    32
  0
VERTEX
  8
3
  5
31A4
 10
400.672
 20
133.193
 30
0.00000
  70
    32
  0
VERTEX
  8
3
  5
31A5
 10
400.675
 20
133.190
 30
0.00000
  70
    32
  0
VERTEX
  8
3
  5
31A6
 10
400.678
 20
133.187
 30
0.00000
  70
    32
  0
VERTEX
  8
3
  5
31A7
 10
400.681
 20
133.184
 30
0.00000
  70
    32
  0
VERTEX
  8
3
  5
31A8
 10
400.685
 20
133.181
 30
0.00000
  70
    32
  0
VERTEX
  8
3
  5
31A9
 10
400.688
 20
133.178
 30
0.00000
  70
    32
  0
VERTEX
  8
3
  5
31AA
 10
400.691
 20
133.175
 30
0.00000
  70
    32
  0
VERTEX
  8
3
  5
31AB
 10
400.694
 20
133.172
 30
0.00000
  70
    32
  0
VERTEX
  8
3
  5
31AC
 10
400.698
 20
133.169
 30
0.00000
  70
    32
  0
VERTEX
  8
3
  5
31AD
 10
400.701
 20
133.166
 30
0.00000
  70
    32
  0
VERTEX
  8
3
  5
31AE
 10
400.704
 20
133.163
 30
0.00000
  70
    32
  0
VERTEX
  8
3
  5
31AF
 10
400.707
 20
133.160
 30
0.00000
  70
    32
  0
VERTEX
  8
3
  5
31B0
 10
400.711
 20
133.158
 30
0.00000
  70
    32
  0
VERTEX
  8
3
  5
31B1
 10
400.714
 20
133.155
 30
0.00000
  70
    32
  0
VERTEX
  8
3
  5
31B2
 10
400.717
 20
133.152
 30
0.00000
  70
    32
  0
VERTEX
  8
3
  5
31B3
 10
400.720
 20
133.149
 30
0.00000
  70
    32
  0
VERTEX
  8
3
  5
31B4
 10
400.724
 20
133.147
 30
0.00000
  70
    32
  0
VERTEX
  8
3
  5
31B5
 10
400.727
 20
133.144
 30
0.00000
  70
    32
  0
VERTEX
  8
3
  5
31B6
 10
400.730
 20
133.142
 30
0.00000
  70
    32
  0
VERTEX
  8
3
  5
31B7
 10
400.733
 20
133.139
 30
0.00000
  70
    32
  0
VERTEX
  8
3
  5
31B8
 10
400.737
 20
133.136
 30
0.00000
  70
    32
  0
VERTEX
  8
3
  5
31B9
 10
400.740
 20
133.134
 30
0.00000
  70
    32
  0
VERTEX
  8
3
  5
31BA
 10
400.743
 20
133.132
 30
0.00000
  70
    32
  0
VERTEX
  8
3
  5
31BB
 10
400.746
 20
133.129
 30
0.00000
  70
    32
  0
VERTEX
  8
3
  5
31BC
 10
400.750
 20
133.127
 30
0.00000
  70
    32
  0
VERTEX
  8
3
  5
31BD
 10
400.753
 20
133.124
 30
0.00000
  70
    32
  0
VERTEX
  8
3
  5
31BE
 10
400.756
 20
133.122
 30
0.00000
  70
    32
  0
VERTEX
  8
3
  5
31BF
 10
400.760
 20
133.120
 30
0.00000
  70
    32
  0
VERTEX
  8
3
  5
31C0
 10
400.763
 20
133.118
 30
0.00000
  70
    32
  0
VERTEX
  8
3
  5
31C1
 10
400.766
 20
133.115
 30
0.00000
  70
    32
  0
VERTEX
  8
3
  5
31C2
 10
400.770
 20
133.113
 30
0.00000
  70
    32
  0
VERTEX
  8
3
  5
31C3
 10
400.773
 20
133.111
 30
0.00000
  70
    32
  0
VERTEX
  8
3
  5
31C4
 10
400.776
 20
133.109
 30
0.00000
  70
    32
  0
VERTEX
  8
3
  5
31C5
 10
400.779
 20
133.107
 30
0.00000
  70
    32
  0
VERTEX
  8
3
  5
31C6
 10
400.783
 20
133.105
 30
0.00000
  70
    32
  0
VERTEX
  8
3
  5
31C7
 10
400.786
 20
133.103
 30
0.00000
  70
    32
  0
VERTEX
  8
3
  5
31C8
 10
400.789
 20
133.101
 30
0.00000
  70
    32
  0
VERTEX
  8
3
  5
31C9
 10
400.793
 20
133.099
 30
0.00000
  70
    32
  0
VERTEX
  8
3
  5
31CA
 10
400.796
 20
133.097
 30
0.00000
  70
    32
  0
VERTEX
  8
3
  5
31CB
 10
400.799
 20
133.095
 30
0.00000
  70
    32
  0
VERTEX
  8
3
  5
31CC
 10
400.803
 20
133.093
 30
0.00000
  70
    32
  0
VERTEX
  8
3
  5
31CD
 10
400.806
 20
133.092
 30
0.00000
  70
    32
  0
VERTEX
  8
3
  5
31CE
 10
400.809
 20
133.090
 30
0.00000
  70
    32
  0
VERTEX
  8
3
  5
31CF
 10
400.813
 20
133.088
 30
0.00000
  70
    32
  0
VERTEX
  8
3
  5
31D0
 10
400.816
 20
133.087
 30
0.00000
  70
    32
  0
VERTEX
  8
3
  5
31D1
 10
400.819
 20
133.085
 30
0.00000
  70
    32
  0
VERTEX
  8
3
  5
31D2
 10
400.823
 20
133.083
 30
0.00000
  70
    32
  0
VERTEX
  8
3
  5
31D3
 10
400.826
 20
133.082
 30
0.00000
  70
    32
  0
VERTEX
  8
3
  5
31D4
 10
400.829
 20
133.080
 30
0.00000
  70
    32
  0
VERTEX
  8
3
  5
31D5
 10
400.833
 20
133.079
 30
0.00000
  70
    32
  0
VERTEX
  8
3
  5
31D6
 10
400.836
 20
133.077
 30
0.00000
  70
    32
  0
VERTEX
  8
3
  5
31D7
 10
400.839
 20
133.076
 30
0.00000
  70
    32
  0
VERTEX
  8
3
  5
31D8
 10
400.843
 20
133.074
 30
0.00000
  70
    32
  0
VERTEX
  8
3
  5
31D9
 10
400.846
 20
133.073
 30
0.00000
  70
    32
  0
VERTEX
  8
3
  5
31DA
 10
400.849
 20
133.072
 30
0.00000
  70
    32
  0
VERTEX
  8
3
  5
31DB
 10
400.853
 20
133.071
 30
0.00000
  70
    32
  0
VERTEX
  8
3
  5
31DC
 10
400.856
 20
133.069
 30
0.00000
  70
    32
  0
VERTEX
  8
3
  5
31DD
 10
400.859
 20
133.068
 30
0.00000
  70
    32
  0
VERTEX
  8
3
  5
31DE
 10
400.863
 20
133.067
 30
0.00000
  70
    32
  0
VERTEX
  8
3
  5
31DF
 10
400.866
 20
133.066
 30
0.00000
  70
    32
  0
VERTEX
  8
3
  5
31E0
 10
400.869
 20
133.065
 30
0.00000
  70
    32
  0
VERTEX
  8
3
  5
31E1
 10
400.873
 20
133.064
 30
0.00000
  70
    32
  0
VERTEX
  8
3
  5
31E2
 10
400.876
 20
133.063
 30
0.00000
  70
    32
  0
VERTEX
  8
3
  5
31E3
 10
400.880
 20
133.062
 30
0.00000
  70
    32
  0
VERTEX
  8
3
  5
31E4
 10
400.883
 20
133.061
 30
0.00000
  70
    32
  0
VERTEX
  8
3
  5
31E5
 10
400.886
 20
133.060
 30
0.00000
  70
    32
  0
VERTEX
  8
3
  5
31E6
 10
400.890
 20
133.059
 30
0.00000
  70
    32
  0
VERTEX
  8
3
  5
31E7
 10
400.893
 20
133.058
 30
0.00000
  70
    32
  0
VERTEX
  8
3
  5
31E8
 10
400.896
 20
133.057
 30
0.00000
  70
    32
  0
VERTEX
  8
3
  5
31E9
 10
400.900
 20
133.056
 30
0.00000
  70
    32
  0
VERTEX
  8
3
  5
31EA
 10
400.903
 20
133.056
 30
0.00000
  70
    32
  0
VERTEX
  8
3
  5
31EB
 10
400.906
 20
133.055
 30
0.00000
  70
    32
  0
VERTEX
  8
3
  5
31EC
 10
400.910
 20
133.054
 30
0.00000
  70
    32
  0
VERTEX
  8
3
  5
31ED
 10
400.913
 20
133.054
 30
0.00000
  70
    32
  0
VERTEX
  8
3
  5
31EE
 10
400.917
 20
133.053
 30
0.00000
  70
    32
  0
VERTEX
  8
3
  5
31EF
 10
400.920
 20
133.053
 30
0.00000
  70
    32
  0
VERTEX
  8
3
  5
31F0
 10
400.923
 20
133.052
 30
0.00000
  70
    32
  0
VERTEX
  8
3
  5
31F1
 10
400.927
 20
133.052
 30
0.00000
  70
    32
  0
VERTEX
  8
3
  5
31F2
 10
400.930
 20
133.051
 30
0.00000
  70
    32
  0
VERTEX
  8
3
  5
31F3
 10
400.933
 20
133.051
 30
0.00000
  70
    32
  0
VERTEX
  8
3
  5
31F4
 10
400.937
 20
133.050
 30
0.00000
  70
    32
  0
VERTEX
  8
3
  5
31F5
 10
400.940
 20
133.050
 30
0.00000
  70
    32
  0
VERTEX
  8
3
  5
31F6
 10
400.943
 20
133.050
 30
0.00000
  70
    32
  0
VERTEX
  8
3
  5
31F7
 10
400.947
 20
133.049
 30
0.00000
  70
    32
  0
VERTEX
  8
3
  5
31F8
 10
400.950
 20
133.049
 30
0.00000
  70
    32
  0
VERTEX
  8
3
  5
31F9
 10
400.954
 20
133.049
 30
0.00000
  70
    32
  0
VERTEX
  8
3
  5
31FA
 10
400.957
 20
133.049
 30
0.00000
  70
    32
  0
VERTEX
  8
3
  5
31FB
 10
400.960
 20
133.049
 30
0.00000
  70
    32
  0
VERTEX
  8
3
  5
31FC
 10
400.964
 20
133.049
 30
0.00000
  70
    32
  0
VERTEX
  8
3
  5
31FD
 10
400.967
 20
133.048
 30
0.00000
  70
    32
  0
VERTEX
  8
3
  5
31FE
 10
400.970
 20
133.048
 30
0.00000
  70
    32
  0
SEQEND
  8
3
  5
31FF
  0
POLYLINE
  5
1DDA
  8
3
 10
400.9704637449265192
 20
133.0484551536414131
 30
0.0
 66
     1
 70
     8
  0
VERTEX
  8
3
  5
3200
 10
400.970
 20
133.048
 30
0.00000
  70
    32
  0
VERTEX
  8
3
  5
3201
 10
400.972
 20
133.049
 30
0.00000
  70
    32
  0
VERTEX
  8
3
  5
3202
 10
400.974
 20
133.052
 30
0.00000
  70
    32
  0
VERTEX
  8
3
  5
3203
 10
400.976
 20
133.057
 30
0.00000
  70
    32
  0
VERTEX
  8
3
  5
3204
 10
400.977
 20
133.063
 30
0.00000
  70
    32
  0
VERTEX
  8
3
  5
3205
 10
400.979
 20
133.071
 30
0.00000
  70
    32
  0
VERTEX
  8
3
  5
3206
 10
400.981
 20
133.081
 30
0.00000
  70
    32
  0
VERTEX
  8
3
  5
3207
 10
400.982
 20
133.093
 30
0.00000
  70
    32
  0
VERTEX
  8
3
  5
3208
 10
400.984
 20
133.106
 30
0.00000
  70
    32
  0
VERTEX
  8
3
  5
3209
 10
400.986
 20
133.121
 30
0.00000
  70
    32
  0
VERTEX
  8
3
  5
320A
 10
400.987
 20
133.138
 30
0.00000
  70
    32
  0
VERTEX
  8
3
  5
320B
 10
400.989
 20
133.157
 30
0.00000
  70
    32
  0
VERTEX
  8
3
  5
320C
 10
400.991
 20
133.178
 30
0.00000
  70
    32
  0
VERTEX
  8
3
  5
320D
 10
400.992
 20
133.200
 30
0.00000
  70
    32
  0
VERTEX
  8
3
  5
320E
 10
400.994
 20
133.224
 30
0.00000
  70
    32
  0
VERTEX
  8
3
  5
320F
 10
400.995
 20
133.249
 30
0.00000
  70
    32
  0
VERTEX
  8
3
  5
3210
 10
400.997
 20
133.277
 30
0.00000
  70
    32
  0
VERTEX
  8
3
  5
3211
 10
400.999
 20
133.306
 30
0.00000
  70
    32
  0
VERTEX
  8
3
  5
3212
 10
401.000
 20
133.336
 30
0.00000
  70
    32
  0
VERTEX
  8
3
  5
3213
 10
401.002
 20
133.369
 30
0.00000
  70
    32
  0
VERTEX
  8
3
  5
3214
 10
401.003
 20
133.403
 30
0.00000
  70
    32
  0
VERTEX
  8
3
  5
3215
 10
401.005
 20
133.438
 30
0.00000
  70
    32
  0
VERTEX
  8
3
  5
3216
 10
401.006
 20
133.475
 30
0.00000
  70
    32
  0
VERTEX
  8
3
  5
3217
 10
401.008
 20
133.514
 30
0.00000
  70
    32
  0
VERTEX
  8
3
  5
3218
 10
401.009
 20
133.554
 30
0.00000
  70
    32
  0
VERTEX
  8
3
  5
3219
 10
401.010
 20
133.596
 30
0.00000
  70
    32
  0
VERTEX
  8
3
  5
321A
 10
401.012
 20
133.639
 30
0.00000
  70
    32
  0
VERTEX
  8
3
  5
321B
 10
401.013
 20
133.683
 30
0.00000
  70
    32
  0
VERTEX
  8
3
  5
321C
 10
401.014
 20
133.729
 30
0.00000
  70
    32
  0
VERTEX
  8
3
  5
321D
 10
401.016
 20
133.777
 30
0.00000
  70
    32
  0
VERTEX
  8
3
  5
321E
 10
401.017
 20
133.826
 30
0.00000
  70
    32
  0
VERTEX
  8
3
  5
321F
 10
401.018
 20
133.876
 30
0.00000
  70
    32
  0
VERTEX
  8
3
  5
3220
 10
401.020
 20
133.927
 30
0.00000
  70
    32
  0
VERTEX
  8
3
  5
3221
 10
401.021
 20
133.980
 30
0.00000
  70
    32
  0
VERTEX
  8
3
  5
3222
 10
401.022
 20
134.034
 30
0.00000
  70
    32
  0
VERTEX
  8
3
  5
3223
 10
401.023
 20
134.089
 30
0.00000
  70
    32
  0
VERTEX
  8
3
  5
3224
 10
401.024
 20
134.145
 30
0.00000
  70
    32
  0
VERTEX
  8
3
  5
3225
 10
401.025
 20
134.203
 30
0.00000
  70
    32
  0
VERTEX
  8
3
  5
3226
 10
401.026
 20
134.261
 30
0.00000
  70
    32
  0
VERTEX
  8
3
  5
3227
 10
401.027
 20
134.321
 30
0.00000
  70
    32
  0
VERTEX
  8
3
  5
3228
 10
401.028
 20
134.382
 30
0.00000
  70
    32
  0
VERTEX
  8
3
  5
3229
 10
401.029
 20
134.443
 30
0.00000
  70
    32
  0
VERTEX
  8
3
  5
322A
 10
401.030
 20
134.506
 30
0.00000
  70
    32
  0
VERTEX
  8
3
  5
322B
 10
401.031
 20
134.570
 30
0.00000
  70
    32
  0
VERTEX
  8
3
  5
322C
 10
401.032
 20
134.634
 30
0.00000
  70
    32
  0
VERTEX
  8
3
  5
322D
 10
401.032
 20
134.700
 30
0.00000
  70
    32
  0
VERTEX
  8
3
  5
322E
 10
401.033
 20
134.766
 30
0.00000
  70
    32
  0
VERTEX
  8
3
  5
322F
 10
401.034
 20
134.833
 30
0.00000
  70
    32
  0
VERTEX
  8
3
  5
3230
 10
401.035
 20
134.900
 30
0.00000
  70
    32
  0
VERTEX
  8
3
  5
3231
 10
401.035
 20
134.969
 30
0.00000
  70
    32
  0
VERTEX
  8
3
  5
3232
 10
401.036
 20
135.038
 30
0.00000
  70
    32
  0
VERTEX
  8
3
  5
3233
 10
401.036
 20
135.107
 30
0.00000
  70
    32
  0
VERTEX
  8
3
  5
3234
 10
401.037
 20
135.178
 30
0.00000
  70
    32
  0
VERTEX
  8
3
  5
3235
 10
401.037
 20
135.248
 30
0.00000
  70
    32
  0
VERTEX
  8
3
  5
3236
 10
401.038
 20
135.320
 30
0.00000
  70
    32
  0
VERTEX
  8
3
  5
3237
 10
401.038
 20
135.391
 30
0.00000
  70
    32
  0
VERTEX
  8
3
  5
3238
 10
401.039
 20
135.463
 30
0.00000
  70
    32
  0
VERTEX
  8
3
  5
3239
 10
401.039
 20
135.536
 30
0.00000
  70
    32
  0
VERTEX
  8
3
  5
323A
 10
401.039
 20
135.608
 30
0.00000
  70
    32
  0
VERTEX
  8
3
  5
323B
 10
401.039
 20
135.681
 30
0.00000
  70
    32
  0
VERTEX
  8
3
  5
323C
 10
401.040
 20
135.754
 30
0.00000
  70
    32
  0
VERTEX
  8
3
  5
323D
 10
401.040
 20
135.828
 30
0.00000
  70
    32
  0
VERTEX
  8
3
  5
323E
 10
401.040
 20
135.901
 30
0.00000
  70
    32
  0
VERTEX
  8
3
  5
323F
 10
401.040
 20
135.975
 30
0.00000
  70
    32
  0
VERTEX
  8
3
  5
3240
 10
401.040
 20
136.048
 30
0.00000
  70
    32
  0
VERTEX
  8
3
  5
3241
 10
401.040
 20
136.122
 30
0.00000
  70
    32
  0
VERTEX
  8
3
  5
3242
 10
401.040
 20
136.196
 30
0.00000
  70
    32
  0
VERTEX
  8
3
  5
3243
 10
401.040
 20
136.269
 30
0.00000
  70
    32
  0
VERTEX
  8
3
  5
3244
 10
401.040
 20
136.343
 30
0.00000
  70
    32
  0
VERTEX
  8
3
  5
3245
 10
401.039
 20
136.416
 30
0.00000
  70
    32
  0
VERTEX
  8
3
  5
3246
 10
401.039
 20
136.489
 30
0.00000
  70
    32
  0
VERTEX
  8
3
  5
3247
 10
401.039
 20
136.561
 30
0.00000
  70
    32
  0
VERTEX
  8
3
  5
3248
 10
401.039
 20
136.634
 30
0.00000
  70
    32
  0
VERTEX
  8
3
  5
3249
 10
401.038
 20
136.706
 30
0.00000
  70
    32
  0
VERTEX
  8
3
  5
324A
 10
401.038
 20
136.777
 30
0.00000
  70
    32
  0
VERTEX
  8
3
  5
324B
 10
401.037
 20
136.849
 30
0.00000
  70
    32
  0
VERTEX
  8
3
  5
324C
 10
401.037
 20
136.919
 30
0.00000
  70
    32
  0
VERTEX
  8
3
  5
324D
 10
401.036
 20
136.990
 30
0.00000
  70
    32
  0
VERTEX
  8
3
  5
324E
 10
401.036
 20
137.059
 30
0.00000
  70
    32
  0
VERTEX
  8
3
  5
324F
 10
401.035
 20
137.128
 30
0.00000
  70
    32
  0
VERTEX
  8
3
  5
3250
 10
401.035
 20
137.197
 30
0.00000
  70
    32
  0
VERTEX
  8
3
  5
3251
 10
401.034
 20
137.264
 30
0.00000
  70
    32
  0
VERTEX
  8
3
  5
3252
 10
401.033
 20
137.331
 30
0.00000
  70
    32
  0
VERTEX
  8
3
  5
3253
 10
401.032
 20
137.397
 30
0.00000
  70
    32
  0
VERTEX
  8
3
  5
3254
 10
401.032
 20
137.463
 30
0.00000
  70
    32
  0
VERTEX
  8
3
  5
3255
 10
401.031
 20
137.527
 30
0.00000
  70
    32
  0
VERTEX
  8
3
  5
3256
 10
401.030
 20
137.591
 30
0.00000
  70
    32
  0
VERTEX
  8
3
  5
3257
 10
401.029
 20
137.653
 30
0.00000
  70
    32
  0
VERTEX
  8
3
  5
3258
 10
401.028
 20
137.715
 30
0.00000
  70
    32
  0
VERTEX
  8
3
  5
3259
 10
401.027
 20
137.776
 30
0.00000
  70
    32
  0
VERTEX
  8
3
  5
325A
 10
401.026
 20
137.836
 30
0.00000
  70
    32
  0
VERTEX
  8
3
  5
325B
 10
401.025
 20
137.894
 30
0.00000
  70
    32
  0
VERTEX
  8
3
  5
325C
 10
401.024
 20
137.952
 30
0.00000
  70
    32
  0
VERTEX
  8
3
  5
325D
 10
401.023
 20
138.008
 30
0.00000
  70
    32
  0
VERTEX
  8
3
  5
325E
 10
401.022
 20
138.063
 30
0.00000
  70
    32
  0
VERTEX
  8
3
  5
325F
 10
401.021
 20
138.117
 30
0.00000
  70
    32
  0
VERTEX
  8
3
  5
3260
 10
401.020
 20
138.170
 30
0.00000
  70
    32
  0
VERTEX
  8
3
  5
3261
 10
401.018
 20
138.221
 30
0.00000
  70
    32
  0
VERTEX
  8
3
  5
3262
 10
401.017
 20
138.271
 30
0.00000
  70
    32
  0
VERTEX
  8
3
  5
3263
 10
401.016
 20
138.320
 30
0.00000
  70
    32
  0
VERTEX
  8
3
  5
3264
 10
401.014
 20
138.367
 30
0.00000
  70
    32
  0
VERTEX
  8
3
  5
3265
 10
401.013
 20
138.413
 30
0.00000
  70
    32
  0
VERTEX
  8
3
  5
3266
 10
401.012
 20
138.458
 30
0.00000
  70
    32
  0
VERTEX
  8
3
  5
3267
 10
401.010
 20
138.501
 30
0.00000
  70
    32
  0
VERTEX
  8
3
  5
3268
 10
401.009
 20
138.543
 30
0.00000
  70
    32
  0
VERTEX
  8
3
  5
3269
 10
401.008
 20
138.583
 30
0.00000
  70
    32
  0
VERTEX
  8
3
  5
326A
 10
401.006
 20
138.622
 30
0.00000
  70
    32
  0
VERTEX
  8
3
  5
326B
 10
401.005
 20
138.659
 30
0.00000
  70
    32
  0
VERTEX
  8
3
  5
326C
 10
401.003
 20
138.694
 30
0.00000
  70
    32
  0
VERTEX
  8
3
  5
326D
 10
401.002
 20
138.728
 30
0.00000
  70
    32
  0
VERTEX
  8
3
  5
326E
 10
401.000
 20
138.760
 30
0.00000
  70
    32
  0
VERTEX
  8
3
  5
326F
 10
400.999
 20
138.791
 30
0.00000
  70
    32
  0
VERTEX
  8
3
  5
3270
 10
400.997
 20
138.820
 30
0.00000
  70
    32
  0
VERTEX
  8
3
  5
3271
 10
400.995
 20
138.847
 30
0.00000
  70
    32
  0
VERTEX
  8
3
  5
3272
 10
400.994
 20
138.873
 30
0.00000
  70
    32
  0
VERTEX
  8
3
  5
3273
 10
400.992
 20
138.897
 30
0.00000
  70
    32
  0
VERTEX
  8
3
  5
3274
 10
400.991
 20
138.919
 30
0.00000
  70
    32
  0
VERTEX
  8
3
  5
3275
 10
400.989
 20
138.940
 30
0.00000
  70
    32
  0
VERTEX
  8
3
  5
3276
 10
400.987
 20
138.959
 30
0.00000
  70
    32
  0
VERTEX
  8
3
  5
3277
 10
400.986
 20
138.976
 30
0.00000
  70
    32
  0
VERTEX
  8
3
  5
3278
 10
400.984
 20
138.991
 30
0.00000
  70
    32
  0
VERTEX
  8
3
  5
3279
 10
400.982
 20
139.004
 30
0.00000
  70
    32
  0
VERTEX
  8
3
  5
327A
 10
400.981
 20
139.016
 30
0.00000
  70
    32
  0
VERTEX
  8
3
  5
327B
 10
400.979
 20
139.026
 30
0.00000
  70
    32
  0
VERTEX
  8
3
  5
327C
 10
400.977
 20
139.034
 30
0.00000
  70
    32
  0
VERTEX
  8
3
  5
327D
 10
400.976
 20
139.040
 30
0.00000
  70
    32
  0
VERTEX
  8
3
  5
327E
 10
400.974
 20
139.045
 30
0.00000
  70
    32
  0
VERTEX
  8
3
  5
327F
 10
400.972
 20
139.048
 30
0.00000
  70
    32
  0
VERTEX
  8
3
  5
3280
 10
400.970
 20
139.048
 30
0.00000
  70
    32
  0
SEQEND
  8
3
  5
3281
  0
POLYLINE
  5
1DDB
  8
3
 10
400.9704637449265192
 20
139.0484551536414131
 30
0.0
 66
     1
 70
     8
  0
VERTEX
  8
3
  5
3282
 10
400.970
 20
139.048
 30
0.00000
  70
    32
  0
VERTEX
  8
3
  5
3283
 10
400.967
 20
139.048
 30
0.00000
  70
    32
  0
VERTEX
  8
3
  5
3284
 10
400.964
 20
139.048
 30
0.00000
  70
    32
  0
VERTEX
  8
3
  5
3285
 10
400.960
 20
139.048
 30
0.00000
  70
    32
  0
VERTEX
  8
3
  5
3286
 10
400.957
 20
139.048
 30
0.00000
  70
    32
  0
VERTEX
  8
3
  5
3287
 10
400.954
 20
139.048
 30
0.00000
  70
    32
  0
VERTEX
  8
3
  5
3288
 10
400.950
 20
139.048
 30
0.00000
  70
    32
  0
VERTEX
  8
3
  5
3289
 10
400.947
 20
139.048
 30
0.00000
  70
    32
  0
VERTEX
  8
3
  5
328A
 10
400.943
 20
139.047
 30
0.00000
  70
    32
  0
VERTEX
  8
3
  5
328B
 10
400.940
 20
139.047
 30
0.00000
  70
    32
  0
VERTEX
  8
3
  5
328C
 10
400.937
 20
139.047
 30
0.00000
  70
    32
  0
VERTEX
  8
3
  5
328D
 10
400.933
 20
139.046
 30
0.00000
  70
    32
  0
VERTEX
  8
3
  5
328E
 10
400.930
 20
139.046
 30
0.00000
  70
    32
  0
VERTEX
  8
3
  5
328F
 10
400.927
 20
139.045
 30
0.00000
  70
    32
  0
VERTEX
  8
3
  5
3290
 10
400.923
 20
139.045
 30
0.00000
  70
    32
  0
VERTEX
  8
3
  5
3291
 10
400.920
 20
139.044
 30
0.00000
  70
    32
  0
VERTEX
  8
3
  5
3292
 10
400.917
 20
139.044
 30
0.00000
  70
    32
  0
VERTEX
  8
3
  5
3293
 10
400.913
 20
139.043
 30
0.00000
  70
    32
  0
VERTEX
  8
3
  5
3294
 10
400.910
 20
139.043
 30
0.00000
  70
    32
  0
VERTEX
  8
3
  5
3295
 10
400.906
 20
139.042
 30
0.00000
  70
    32
  0
VERTEX
  8
3
  5
3296
 10
400.903
 20
139.041
 30
0.00000
  70
    32
  0
VERTEX
  8
3
  5
3297
 10
400.900
 20
139.040
 30
0.00000
  70
    32
  0
VERTEX
  8
3
  5
3298
 10
400.896
 20
139.040
 30
0.00000
  70
    32
  0
VERTEX
  8
3
  5
3299
 10
400.893
 20
139.039
 30
0.00000
  70
    32
  0
VERTEX
  8
3
  5
329A
 10
400.890
 20
139.038
 30
0.00000
  70
    32
  0
VERTEX
  8
3
  5
329B
 10
400.886
 20
139.037
 30
0.00000
  70
    32
  0
VERTEX
  8
3
  5
329C
 10
400.883
 20
139.036
 30
0.00000
  70
    32
  0
VERTEX
  8
3
  5
329D
 10
400.880
 20
139.035
 30
0.00000
  70
    32
  0
VERTEX
  8
3
  5
329E
 10
400.876
 20
139.034
 30
0.00000
  70
    32
  0
VERTEX
  8
3
  5
329F
 10
400.873
 20
139.033
 30
0.00000
  70
    32
  0
VERTEX
  8
3
  5
32A0
 10
400.869
 20
139.032
 30
0.00000
  70
    32
  0
VERTEX
  8
3
  5
32A1
 10
400.866
 20
139.031
 30
0.00000
  70
    32
  0
VERTEX
  8
3
  5
32A2
 10
400.863
 20
139.030
 30
0.00000
  70
    32
  0
VERTEX
  8
3
  5
32A3
 10
400.859
 20
139.029
 30
0.00000
  70
    32
  0
VERTEX
  8
3
  5
32A4
 10
400.856
 20
139.028
 30
0.00000
  70
    32
  0
VERTEX
  8
3
  5
32A5
 10
400.853
 20
139.026
 30
0.00000
  70
    32
  0
VERTEX
  8
3
  5
32A6
 10
400.849
 20
139.025
 30
0.00000
  70
    32
  0
VERTEX
  8
3
  5
32A7
 10
400.846
 20
139.024
 30
0.00000
  70
    32
  0
VERTEX
  8
3
  5
32A8
 10
400.843
 20
139.022
 30
0.00000
  70
    32
  0
VERTEX
  8
3
  5
32A9
 10
400.839
 20
139.021
 30
0.00000
  70
    32
  0
VERTEX
  8
3
  5
32AA
 10
400.836
 20
139.020
 30
0.00000
  70
    32
  0
VERTEX
  8
3
  5
32AB
 10
400.833
 20
139.018
 30
0.00000
  70
    32
  0
VERTEX
  8
3
  5
32AC
 10
400.829
 20
139.017
 30
0.00000
  70
    32
  0
VERTEX
  8
3
  5
32AD
 10
400.826
 20
139.015
 30
0.00000
  70
    32
  0
VERTEX
  8
3
  5
32AE
 10
400.823
 20
139.014
 30
0.00000
  70
    32
  0
VERTEX
  8
3
  5
32AF
 10
400.819
 20
139.012
 30
0.00000
  70
    32
  0
VERTEX
  8
3
  5
32B0
 10
400.816
 20
139.010
 30
0.00000
  70
    32
  0
VERTEX
  8
3
  5
32B1
 10
400.813
 20
139.009
 30
0.00000
  70
    32
  0
VERTEX
  8
3
  5
32B2
 10
400.809
 20
139.007
 30
0.00000
  70
    32
  0
VERTEX
  8
3
  5
32B3
 10
400.806
 20
139.005
 30
0.00000
  70
    32
  0
VERTEX
  8
3
  5
32B4
 10
400.803
 20
139.003
 30
0.00000
  70
    32
  0
VERTEX
  8
3
  5
32B5
 10
400.799
 20
139.002
 30
0.00000
  70
    32
  0
VERTEX
  8
3
  5
32B6
 10
400.796
 20
139.000
 30
0.00000
  70
    32
  0
VERTEX
  8
3
  5
32B7
 10
400.793
 20
138.998
 30
0.00000
  70
    32
  0
VERTEX
  8
3
  5
32B8
 10
400.789
 20
138.996
 30
0.00000
  70
    32
  0
VERTEX
  8
3
  5
32B9
 10
400.786
 20
138.994
 30
0.00000
  70
    32
  0
VERTEX
  8
3
  5
32BA
 10
400.783
 20
138.992
 30
0.00000
  70
    32
  0
VERTEX
  8
3
  5
32BB
 10
400.779
 20
138.990
 30
0.00000
  70
    32
  0
VERTEX
  8
3
  5
32BC
 10
400.776
 20
138.988
 30
0.00000
  70
    32
  0
VERTEX
  8
3
  5
32BD
 10
400.773
 20
138.986
 30
0.00000
  70
    32
  0
VERTEX
  8
3
  5
32BE
 10
400.770
 20
138.984
 30
0.00000
  70
    32
  0
VERTEX
  8
3
  5
32BF
 10
400.766
 20
138.982
 30
0.00000
  70
    32
  0
VERTEX
  8
3
  5
32C0
 10
400.763
 20
138.979
 30
0.00000
  70
    32
  0
VERTEX
  8
3
  5
32C1
 10
400.760
 20
138.977
 30
0.00000
  70
    32
  0
VERTEX
  8
3
  5
32C2
 10
400.756
 20
138.975
 30
0.00000
  70
    32
  0
VERTEX
  8
3
  5
32C3
 10
400.753
 20
138.973
 30
0.00000
  70
    32
  0
VERTEX
  8
3
  5
32C4
 10
400.750
 20
138.970
 30
0.00000
  70
    32
  0
VERTEX
  8
3
  5
32C5
 10
400.746
 20
138.968
 30
0.00000
  70
    32
  0
VERTEX
  8
3
  5
32C6
 10
400.743
 20
138.965
 30
0.00000
  70
    32
  0
VERTEX
  8
3
  5
32C7
 10
400.740
 20
138.963
 30
0.00000
  70
    32
  0
VERTEX
  8
3
  5
32C8
 10
400.737
 20
138.960
 30
0.00000
  70
    32
  0
VERTEX
  8
3
  5
32C9
 10
400.733
 20
138.958
 30
0.00000
  70
    32
  0
VERTEX
  8
3
  5
32CA
 10
400.730
 20
138.955
 30
0.00000
  70
    32
  0
VERTEX
  8
3
  5
32CB
 10
400.727
 20
138.953
 30
0.00000
  70
    32
  0
VERTEX
  8
3
  5
32CC
 10
400.724
 20
138.950
 30
0.00000
  70
    32
  0
VERTEX
  8
3
  5
32CD
 10
400.720
 20
138.948
 30
0.00000
  70
    32
  0
VERTEX
  8
3
  5
32CE
 10
400.717
 20
138.945
 30
0.00000
  70
    32
  0
VERTEX
  8
3
  5
32CF
 10
400.714
 20
138.942
 30
0.00000
  70
    32
  0
VERTEX
  8
3
  5
32D0
 10
400.711
 20
138.939
 30
0.00000
  70
    32
  0
VERTEX
  8
3
  5
32D1
 10
400.707
 20
138.937
 30
0.00000
  70
    32
  0
VERTEX
  8
3
  5
32D2
 10
400.704
 20
138.934
 30
0.00000
  70
    32
  0
VERTEX
  8
3
  5
32D3
 10
400.701
 20
138.931
 30
0.00000
  70
    32
  0
VERTEX
  8
3
  5
32D4
 10
400.698
 20
138.928
 30
0.00000
  70
    32
  0
VERTEX
  8
3
  5
32D5
 10
400.694
 20
138.925
 30
0.00000
  70
    32
  0
VERTEX
  8
3
  5
32D6
 10
400.691
 20
138.922
 30
0.00000
  70
    32
  0
VERTEX
  8
3
  5
32D7
 10
400.688
 20
138.919
 30
0.00000
  70
    32
  0
VERTEX
  8
3
  5
32D8
 10
400.685
 20
138.916
 30
0.00000
  70
    32
  0
VERTEX
  8
3
  5
32D9
 10
400.681
 20
138.913
 30
0.00000
  70
    32
  0
VERTEX
  8
3
  5
32DA
 10
400.678
 20
138.910
 30
0.00000
  70
    32
  0
VERTEX
  8
3
  5
32DB
 10
400.675
 20
138.907
 30
0.00000
  70
    32
  0
VERTEX
  8
3
  5
32DC
 10
400.672
 20
138.903
 30
0.00000
  70
    32
  0
VERTEX
  8
3
  5
32DD
 10
400.669
 20
138.900
 30
0.00000
  70
    32
  0
VERTEX
  8
3
  5
32DE
 10
400.665
 20
138.897
 30
0.00000
  70
    32
  0
VERTEX
  8
3
  5
32DF
 10
400.662
 20
138.894
 30
0.00000
  70
    32
  0
VERTEX
  8
3
  5
32E0
 10
400.659
 20
138.890
 30
0.00000
  70
    32
  0
VERTEX
  8
3
  5
32E1
 10
400.656
 20
138.887
 30
0.00000
  70
    32
  0
VERTEX
  8
3
  5
32E2
 10
400.653
 20
138.884
 30
0.00000
  70
    32
  0
VERTEX
  8
3
  5
32E3
 10
400.649
 20
138.880
 30
0.00000
  70
    32
  0
VERTEX
  8
3
  5
32E4
 10
400.646
 20
138.877
 30
0.00000
  70
    32
  0
VERTEX
  8
3
  5
32E5
 10
400.643
 20
138.873
 30
0.00000
  70
    32
  0
VERTEX
  8
3
  5
32E6
 10
400.640
 20
138.870
 30
0.00000
  70
    32
  0
VERTEX
  8
3
  5
32E7
 10
400.637
 20
138.866
 30
0.00000
  70
    32
  0
VERTEX
  8
3
  5
32E8
 10
400.634
 20
138.863
 30
0.00000
  70
    32
  0
VERTEX
  8
3
  5
32E9
 10
400.630
 20
138.859
 30
0.00000
  70
    32
  0
VERTEX
  8
3
  5
32EA
 10
400.627
 20
138.855
 30
0.00000
  70
    32
  0
VERTEX
  8
3
  5
32EB
 10
400.624
 20
138.852
 30
0.00000
  70
    32
  0
VERTEX
  8
3
  5
32EC
 10
400.621
 20
138.848
 30
0.00000
  70
    32
  0
VERTEX
  8
3
  5
32ED
 10
400.618
 20
138.844
 30
0.00000
  70
    32
  0
VERTEX
  8
3
  5
32EE
 10
400.615
 20
138.840
 30
0.00000
  70
    32
  0
VERTEX
  8
3
  5
32EF
 10
400.611
 20
138.837
 30
0.00000
  70
    32
  0
VERTEX
  8
3
  5
32F0
 10
400.608
 20
138.833
 30
0.00000
  70
    32
  0
VERTEX
  8
3
  5
32F1
 10
400.605
 20
138.829
 30
0.00000
  70
    32
  0
VERTEX
  8
3
  5
32F2
 10
400.602
 20
138.825
 30
0.00000
  70
    32
  0
VERTEX
  8
3
  5
32F3
 10
400.599
 20
138.821
 30
0.00000
  70
    32
  0
VERTEX
  8
3
  5
32F4
 10
400.596
 20
138.817
 30
0.00000
  70
    32
  0
VERTEX
  8
3
  5
32F5
 10
400.593
 20
138.813
 30
0.00000
  70
    32
  0
VERTEX
  8
3
  5
32F6
 10
400.590
 20
138.809
 30
0.00000
  70
    32
  0
VERTEX
  8
3
  5
32F7
 10
400.587
 20
138.805
 30
0.00000
  70
    32
  0
VERTEX
  8
3
  5
32F8
 10
400.583
 20
138.801
 30
0.00000
  70
    32
  0
VERTEX
  8
3
  5
32F9
 10
400.580
 20
138.796
 30
0.00000
  70
    32
  0
VERTEX
  8
3
  5
32FA
 10
400.577
 20
138.792
 30
0.00000
  70
    32
  0
VERTEX
  8
3
  5
32FB
 10
400.574
 20
138.788
 30
0.00000
  70
    32
  0
VERTEX
  8
3
  5
32FC
 10
400.571
 20
138.784
 30
0.00000
  70
    32
  0
VERTEX
  8
3
  5
32FD
 10
400.568
 20
138.780
 30
0.00000
  70
    32
  0
VERTEX
  8
3
  5
32FE
 10
400.565
 20
138.775
 30
0.00000
  70
    32
  0
VERTEX
  8
3
  5
32FF
 10
400.562
 20
138.771
 30
0.00000
  70
    32
  0
VERTEX
  8
3
  5
3300
 10
400.559
 20
138.766
 30
0.00000
  70
    32
  0
VERTEX
  8
3
  5
3301
 10
400.556
 20
138.762
 30
0.00000
  70
    32
  0
VERTEX
  8
3
  5
3302
 10
400.553
 20
138.758
 30
0.00000
  70
    32
  0
SEQEND
  8
3
  5
3303
  0
POLYLINE
  5
1DDC
  8
0
 10
401.9552712095436959
 20
130.7984551536414131
 30
0.0
 66
     1
 70
     8
  0
VERTEX
  8
0
  5
3304
 10
401.955
 20
130.798
 30
0.00000
  70
    32
  0
VERTEX
  8
0
  5
3305
 10
401.960
 20
130.800
 30
0.00000
  70
    32
  0
VERTEX
  8
0
  5
3306
 10
401.964
 20
130.805
 30
0.00000
  70
    32
  0
VERTEX
  8
0
  5
3307
 10
401.969
 20
130.813
 30
0.00000
  70
    32
  0
VERTEX
  8
0
  5
3308
 10
401.973
 20
130.824
 30
0.00000
  70
    32
  0
VERTEX
  8
0
  5
3309
 10
401.978
 20
130.838
 30
0.00000
  70
    32
  0
VERTEX
  8
0
  5
330A
 10
401.983
 20
130.855
 30
0.00000
  70
    32
  0
VERTEX
  8
0
  5
330B
 10
401.987
 20
130.876
 30
0.00000
  70
    32
  0
VERTEX
  8
0
  5
330C
 10
401.992
 20
130.899
 30
0.00000
  70
    32
  0
VERTEX
  8
0
  5
330D
 10
401.996
 20
130.926
 30
0.00000
  70
    32
  0
VERTEX
  8
0
  5
330E
 10
402.000
 20
130.956
 30
0.00000
  70
    32
  0
VERTEX
  8
0
  5
330F
 10
402.005
 20
130.989
 30
0.00000
  70
    32
  0
VERTEX
  8
0
  5
3310
 10
402.009
 20
131.025
 30
0.00000
  70
    32
  0
VERTEX
  8
0
  5
3311
 10
402.014
 20
131.063
 30
0.00000
  70
    32
  0
VERTEX
  8
0
  5
3312
 10
402.018
 20
131.105
 30
0.00000
  70
    32
  0
VERTEX
  8
0
  5
3313
 10
402.022
 20
131.150
 30
0.00000
  70
    32
  0
VERTEX
  8
0
  5
3314
 10
402.026
 20
131.198
 30
0.00000
  70
    32
  0
VERTEX
  8
0
  5
3315
 10
402.031
 20
131.249
 30
0.00000
  70
    32
  0
VERTEX
  8
0
  5
3316
 10
402.035
 20
131.303
 30
0.00000
  70
    32
  0
VERTEX
  8
0
  5
3317
 10
402.039
 20
131.359
 30
0.00000
  70
    32
  0
VERTEX
  8
0
  5
3318
 10
402.043
 20
131.418
 30
0.00000
  70
    32
  0
VERTEX
  8
0
  5
3319
 10
402.047
 20
131.480
 30
0.00000
  70
    32
  0
VERTEX
  8
0
  5
331A
 10
402.051
 20
131.545
 30
0.00000
  70
    32
  0
VERTEX
  8
0
  5
331B
 10
402.055
 20
131.613
 30
0.00000
  70
    32
  0
VERTEX
  8
0
  5
331C
 10
402.059
 20
131.683
 30
0.00000
  70
    32
  0
VERTEX
  8
0
  5
331D
 10
402.062
 20
131.756
 30
0.00000
  70
    32
  0
VERTEX
  8
0
  5
331E
 10
402.066
 20
131.832
 30
0.00000
  70
    32
  0
VERTEX
  8
0
  5
331F
 10
402.070
 20
131.910
 30
0.00000
  70
    32
  0
VERTEX
  8
0
  5
3320
 10
402.073
 20
131.990
 30
0.00000
  70
    32
  0
VERTEX
  8
0
  5
3321
 10
402.077
 20
132.073
 30
0.00000
  70
    32
  0
VERTEX
  8
0
  5
3322
 10
402.080
 20
132.158
 30
0.00000
  70
    32
  0
VERTEX
  8
0
  5
3323
 10
402.083
 20
132.246
 30
0.00000
  70
    32
  0
VERTEX
  8
0
  5
3324
 10
402.087
 20
132.336
 30
0.00000
  70
    32
  0
VERTEX
  8
0
  5
3325
 10
402.090
 20
132.428
 30
0.00000
  70
    32
  0
VERTEX
  8
0
  5
3326
 10
402.093
 20
132.523
 30
0.00000
  70
    32
  0
VERTEX
  8
0
  5
3327
 10
402.096
 20
132.619
 30
0.00000
  70
    32
  0
VERTEX
  8
0
  5
3328
 10
402.099
 20
132.718
 30
0.00000
  70
    32
  0
VERTEX
  8
0
  5
3329
 10
402.102
 20
132.818
 30
0.00000
  70
    32
  0
VERTEX
  8
0
  5
332A
 10
402.105
 20
132.921
 30
0.00000
  70
    32
  0
VERTEX
  8
0
  5
332B
 10
402.107
 20
133.025
 30
0.00000
  70
    32
  0
VERTEX
  8
0
  5
332C
 10
402.110
 20
133.132
 30
0.00000
  70
    32
  0
VERTEX
  8
0
  5
332D
 10
402.112
 20
133.240
 30
0.00000
  70
    32
  0
VERTEX
  8
0
  5
332E
 10
402.115
 20
133.349
 30
0.00000
  70
    32
  0
VERTEX
  8
0
  5
332F
 10
402.117
 20
133.461
 30
0.00000
  70
    32
  0
VERTEX
  8
0
  5
3330
 10
402.119
 20
133.574
 30
0.00000
  70
    32
  0
VERTEX
  8
0
  5
3331
 10
402.121
 20
133.688
 30
0.00000
  70
    32
  0
VERTEX
  8
0
  5
3332
 10
402.123
 20
133.804
 30
0.00000
  70
    32
  0
VERTEX
  8
0
  5
3333
 10
402.125
 20
133.921
 30
0.00000
  70
    32
  0
VERTEX
  8
0
  5
3334
 10
402.127
 20
134.039
 30
0.00000
  70
    32
  0
VERTEX
  8
0
  5
3335
 10
402.129
 20
134.159
 30
0.00000
  70
    32
  0
VERTEX
  8
0
  5
3336
 10
402.130
 20
134.280
 30
0.00000
  70
    32
  0
VERTEX
  8
0
  5
3337
 10
402.132
 20
134.402
 30
0.00000
  70
    32
  0
VERTEX
  8
0
  5
3338
 10
402.133
 20
134.524
 30
0.00000
  70
    32
  0
VERTEX
  8
0
  5
3339
 10
402.134
 20
134.648
 30
0.00000
  70
    32
  0
VERTEX
  8
0
  5
333A
 10
402.136
 20
134.773
 30
0.00000
  70
    32
  0
VERTEX
  8
0
  5
333B
 10
402.137
 20
134.898
 30
0.00000
  70
    32
  0
VERTEX
  8
0
  5
333C
 10
402.138
 20
135.024
 30
0.00000
  70
    32
  0
VERTEX
  8
0
  5
333D
 10
402.138
 20
135.151
 30
0.00000
  70
    32
  0
VERTEX
  8
0
  5
333E
 10
402.139
 20
135.278
 30
0.00000
  70
    32
  0
VERTEX
  8
0
  5
333F
 10
402.140
 20
135.406
 30
0.00000
  70
    32
  0
VERTEX
  8
0
  5
3340
 10
402.140
 20
135.534
 30
0.00000
  70
    32
  0
VERTEX
  8
0
  5
3341
 10
402.141
 20
135.662
 30
0.00000
  70
    32
  0
VERTEX
  8
0
  5
3342
 10
402.141
 20
135.791
 30
0.00000
  70
    32
  0
VERTEX
  8
0
  5
3343
 10
402.141
 20
135.920
 30
0.00000
  70
    32
  0
VERTEX
  8
0
  5
3344
 10
402.141
 20
136.048
 30
0.00000
  70
    32
  0
VERTEX
  8
0
  5
3345
 10
402.141
 20
136.177
 30
0.00000
  70
    32
  0
VERTEX
  8
0
  5
3346
 10
402.141
 20
136.306
 30
0.00000
  70
    32
  0
VERTEX
  8
0
  5
3347
 10
402.141
 20
136.435
 30
0.00000
  70
    32
  0
VERTEX
  8
0
  5
3348
 10
402.140
 20
136.563
 30
0.00000
  70
    32
  0
VERTEX
  8
0
  5
3349
 10
402.140
 20
136.691
 30
0.00000
  70
    32
  0
VERTEX
  8
0
  5
334A
 10
402.139
 20
136.819
 30
0.00000
  70
    32
  0
VERTEX
  8
0
  5
334B
 10
402.138
 20
136.946
 30
0.00000
  70
    32
  0
VERTEX
  8
0
  5
334C
 10
402.138
 20
137.073
 30
0.00000
  70
    32
  0
VERTEX
  8
0
  5
334D
 10
402.137
 20
137.199
 30
0.00000
  70
    32
  0
VERTEX
  8
0
  5
334E
 10
402.136
 20
137.324
 30
0.00000
  70
    32
  0
VERTEX
  8
0
  5
334F
 10
402.134
 20
137.449
 30
0.00000
  70
    32
  0
VERTEX
  8
0
  5
3350
 10
402.133
 20
137.572
 30
0.00000
  70
    32
  0
VERTEX
  8
0
  5
3351
 10
402.132
 20
137.695
 30
0.00000
  70
    32
  0
VERTEX
  8
0
  5
3352
 10
402.130
 20
137.817
 30
0.00000
  70
    32
  0
VERTEX
  8
0
  5
3353
 10
402.129
 20
137.938
 30
0.00000
  70
    32
  0
VERTEX
  8
0
  5
3354
 10
402.127
 20
138.058
 30
0.00000
  70
    32
  0
VERTEX
  8
0
  5
3355
 10
402.125
 20
138.176
 30
0.00000
  70
    32
  0
VERTEX
  8
0
  5
3356
 10
402.123
 20
138.293
 30
0.00000
  70
    32
  0
VERTEX
  8
0
  5
3357
 10
402.121
 20
138.409
 30
0.00000
  70
    32
  0
VERTEX
  8
0
  5
3358
 10
402.119
 20
138.523
 30
0.00000
  70
    32
  0
VERTEX
  8
0
  5
3359
 10
402.117
 20
138.636
 30
0.00000
  70
    32
  0
VERTEX
  8
0
  5
335A
 10
402.115
 20
138.747
 30
0.00000
  70
    32
  0
VERTEX
  8
0
  5
335B
 10
402.112
 20
138.857
 30
0.00000
  70
    32
  0
VERTEX
  8
0
  5
335C
 10
402.110
 20
138.965
 30
0.00000
  70
    32
  0
VERTEX
  8
0
  5
335D
 10
402.107
 20
139.071
 30
0.00000
  70
    32
  0
VERTEX
  8
0
  5
335E
 10
402.105
 20
139.176
 30
0.00000
  70
    32
  0
VERTEX
  8
0
  5
335F
 10
402.102
 20
139.278
 30
0.00000
  70
    32
  0
VERTEX
  8
0
  5
3360
 10
402.099
 20
139.379
 30
0.00000
  70
    32
  0
VERTEX
  8
0
  5
3361
 10
402.096
 20
139.478
 30
0.00000
  70
    32
  0
VERTEX
  8
0
  5
3362
 10
402.093
 20
139.574
 30
0.00000
  70
    32
  0
VERTEX
  8
0
  5
3363
 10
402.090
 20
139.669
 30
0.00000
  70
    32
  0
VERTEX
  8
0
  5
3364
 10
402.087
 20
139.761
 30
0.00000
  70
    32
  0
VERTEX
  8
0
  5
3365
 10
402.083
 20
139.851
 30
0.00000
  70
    32
  0
VERTEX
  8
0
  5
3366
 10
402.080
 20
139.938
 30
0.00000
  70
    32
  0
VERTEX
  8
0
  5
3367
 10
402.077
 20
140.024
 30
0.00000
  70
    32
  0
VERTEX
  8
0
  5
3368
 10
402.073
 20
140.107
 30
0.00000
  70
    32
  0
VERTEX
  8
0
  5
3369
 10
402.070
 20
140.187
 30
0.00000
  70
    32
  0
VERTEX
  8
0
  5
336A
 10
402.066
 20
140.265
 30
0.00000
  70
    32
  0
VERTEX
  8
0
  5
336B
 10
402.062
 20
140.341
 30
0.00000
  70
    32
  0
VERTEX
  8
0
  5
336C
 10
402.059
 20
140.414
 30
0.00000
  70
    32
  0
VERTEX
  8
0
  5
336D
 10
402.055
 20
140.484
 30
0.00000
  70
    32
  0
VERTEX
  8
0
  5
336E
 10
402.051
 20
140.552
 30
0.00000
  70
    32
  0
VERTEX
  8
0
  5
336F
 10
402.047
 20
140.616
 30
0.00000
  70
    32
  0
VERTEX
  8
0
  5
3370
 10
402.043
 20
140.679
 30
0.00000
  70
    32
  0
VERTEX
  8
0
  5
3371
 10
402.039
 20
140.738
 30
0.00000
  70
    32
  0
VERTEX
  8
0
  5
3372
 10
402.035
 20
140.794
 30
0.00000
  70
    32
  0
VERTEX
  8
0
  5
3373
 10
402.031
 20
140.848
 30
0.00000
  70
    32
  0
VERTEX
  8
0
  5
3374
 10
402.026
 20
140.899
 30
0.00000
  70
    32
  0
VERTEX
  8
0
  5
3375
 10
402.022
 20
140.947
 30
0.00000
  70
    32
  0
VERTEX
  8
0
  5
3376
 10
402.018
 20
140.992
 30
0.00000
  70
    32
  0
VERTEX
  8
0
  5
3377
 10
402.014
 20
141.033
 30
0.00000
  70
    32
  0
VERTEX
  8
0
  5
3378
 10
402.009
 20
141.072
 30
0.00000
  70
    32
  0
VERTEX
  8
0
  5
3379
 10
402.005
 20
141.108
 30
0.00000
  70
    32
  0
VERTEX
  8
0
  5
337A
 10
402.000
 20
141.141
 30
0.00000
  70
    32
  0
VERTEX
  8
0
  5
337B
 10
401.996
 20
141.171
 30
0.00000
  70
    32
  0
VERTEX
  8
0
  5
337C
 10
401.992
 20
141.198
 30
0.00000
  70
    32
  0
VERTEX
  8
0
  5
337D
 10
401.987
 20
141.221
 30
0.00000
  70
    32
  0
VERTEX
  8
0
  5
337E
 10
401.983
 20
141.242
 30
0.00000
  70
    32
  0
VERTEX
  8
0
  5
337F
 10
401.978
 20
141.259
 30
0.00000
  70
    32
  0
VERTEX
  8
0
  5
3380
 10
401.973
 20
141.273
 30
0.00000
  70
    32
  0
VERTEX
  8
0
  5
3381
 10
401.969
 20
141.284
 30
0.00000
  70
    32
  0
VERTEX
  8
0
  5
3382
 10
401.964
 20
141.292
 30
0.00000
  70
    32
  0
VERTEX
  8
0
  5
3383
 10
401.960
 20
141.297
 30
0.00000
  70
    32
  0
VERTEX
  8
0
  5
3384
 10
401.955
 20
141.298
 30
0.00000
  70
    32
  0
SEQEND
  8
0
  5
3385
  0
POLYLINE
  5
1DDD
  8
0
 10
401.9552712095436959
 20
141.2984551536414131
 30
0.0
 66
     1
 70
     8
  0
VERTEX
  8
0
  5
3386
 10
401.955
 20
141.298
 30
0.00000
  70
    32
  0
VERTEX
  8
0
  5
3387
 10
401.915
 20
141.297
 30
0.00000
  70
    32
  0
VERTEX
  8
0
  5
3388
 10
401.875
 20
141.292
 30
0.00000
  70
    32
  0
VERTEX
  8
0
  5
3389
 10
401.835
 20
141.284
 30
0.00000
  70
    32
  0
VERTEX
  8
0
  5
338A
 10
401.795
 20
141.273
 30
0.00000
  70
    32
  0
VERTEX
  8
0
  5
338B
 10
401.755
 20
141.259
 30
0.00000
  70
    32
  0
VERTEX
  8
0
  5
338C
 10
401.715
 20
141.242
 30
0.00000
  70
    32
  0
VERTEX
  8
0
  5
338D
 10
401.675
 20
141.221
 30
0.00000
  70
    32
  0
VERTEX
  8
0
  5
338E
 10
401.636
 20
141.198
 30
0.00000
  70
    32
  0
VERTEX
  8
0
  5
338F
 10
401.597
 20
141.171
 30
0.00000
  70
    32
  0
VERTEX
  8
0
  5
3390
 10
401.557
 20
141.141
 30
0.00000
  70
    32
  0
VERTEX
  8
0
  5
3391
 10
401.519
 20
141.108
 30
0.00000
  70
    32
  0
VERTEX
  8
0
  5
3392
 10
401.480
 20
141.072
 30
0.00000
  70
    32
  0
VERTEX
  8
0
  5
3393
 10
401.442
 20
141.033
 30
0.00000
  70
    32
  0
VERTEX
  8
0
  5
3394
 10
401.404
 20
140.992
 30
0.00000
  70
    32
  0
VERTEX
  8
0
  5
3395
 10
401.366
 20
140.947
 30
0.00000
  70
    32
  0
VERTEX
  8
0
  5
3396
 10
401.329
 20
140.899
 30
0.00000
  70
    32
  0
VERTEX
  8
0
  5
3397
 10
401.292
 20
140.848
 30
0.00000
  70
    32
  0
VERTEX
  8
0
  5
3398
 10
401.255
 20
140.794
 30
0.00000
  70
    32
  0
VERTEX
  8
0
  5
3399
 10
401.219
 20
140.738
 30
0.00000
  70
    32
  0
VERTEX
  8
0
  5
339A
 10
401.183
 20
140.679
 30
0.00000
  70
    32
  0
VERTEX
  8
0
  5
339B
 10
401.148
 20
140.616
 30
0.00000
  70
    32
  0
VERTEX
  8
0
  5
339C
 10
401.113
 20
140.552
 30
0.00000
  70
    32
  0
VERTEX
  8
0
  5
339D
 10
401.079
 20
140.484
 30
0.00000
  70
    32
  0
VERTEX
  8
0
  5
339E
 10
401.046
 20
140.414
 30
0.00000
  70
    32
  0
VERTEX
  8
0
  5
339F
 10
401.012
 20
140.341
 30
0.00000
  70
    32
  0
VERTEX
  8
0
  5
33A0
 10
400.980
 20
140.265
 30
0.00000
  70
    32
  0
VERTEX
  8
0
  5
33A1
 10
400.948
 20
140.187
 30
0.00000
  70
    32
  0
VERTEX
  8
0
  5
33A2
 10
400.917
 20
140.107
 30
0.00000
  70
    32
  0
VERTEX
  8
0
  5
33A3
 10
400.886
 20
140.024
 30
0.00000
  70
    32
  0
VERTEX
  8
0
  5
33A4
 10
400.856
 20
139.938
 30
0.00000
  70
    32
  0
VERTEX
  8
0
  5
33A5
 10
400.826
 20
139.851
 30
0.00000
  70
    32
  0
VERTEX
  8
0
  5
33A6
 10
400.797
 20
139.761
 30
0.00000
  70
    32
  0
VERTEX
  8
0
  5
33A7
 10
400.769
 20
139.669
 30
0.00000
  70
    32
  0
VERTEX
  8
0
  5
33A8
 10
400.742
 20
139.574
 30
0.00000
  70
    32
  0
VERTEX
  8
0
  5
33A9
 10
400.715
 20
139.478
 30
0.00000
  70
    32
  0
VERTEX
  8
0
  5
33AA
 10
400.690
 20
139.379
 30
0.00000
  70
    32
  0
VERTEX
  8
0
  5
33AB
 10
400.664
 20
139.278
 30
0.00000
  70
    32
  0
VERTEX
  8
0
  5
33AC
 10
400.640
 20
139.176
 30
0.00000
  70
    32
  0
VERTEX
  8
0
  5
33AD
 10
400.617
 20
139.071
 30
0.00000
  70
    32
  0
VERTEX
  8
0
  5
33AE
 10
400.594
 20
138.965
 30
0.00000
  70
    32
  0
VERTEX
  8
0
  5
33AF
 10
400.572
 20
138.857
 30
0.00000
  70
    32
  0
VERTEX
  8
0
  5
33B0
 10
400.551
 20
138.747
 30
0.00000
  70
    32
  0
VERTEX
  8
0
  5
33B1
 10
400.531
 20
138.636
 30
0.00000
  70
    32
  0
VERTEX
  8
0
  5
33B2
 10
400.511
 20
138.523
 30
0.00000
  70
    32
  0
VERTEX
  8
0
  5
33B3
 10
400.493
 20
138.409
 30
0.00000
  70
    32
  0
VERTEX
  8
0
  5
33B4
 10
400.475
 20
138.293
 30
0.00000
  70
    32
  0
VERTEX
  8
0
  5
33B5
 10
400.458
 20
138.176
 30
0.00000
  70
    32
  0
VERTEX
  8
0
  5
33B6
 10
400.443
 20
138.058
 30
0.00000
  70
    32
  0
VERTEX
  8
0
  5
33B7
 10
400.428
 20
137.938
 30
0.00000
  70
    32
  0
VERTEX
  8
0
  5
33B8
 10
400.414
 20
137.817
 30
0.00000
  70
    32
  0
VERTEX
  8
0
  5
33B9
 10
400.401
 20
137.695
 30
0.00000
  70
    32
  0
VERTEX
  8
0
  5
33BA
 10
400.388
 20
137.572
 30
0.00000
  70
    32
  0
VERTEX
  8
0
  5
33BB
 10
400.377
 20
137.449
 30
0.00000
  70
    32
  0
VERTEX
  8
0
  5
33BC
 10
400.367
 20
137.324
 30
0.00000
  70
    32
  0
VERTEX
  8
0
  5
33BD
 10
400.358
 20
137.199
 30
0.00000
  70
    32
  0
VERTEX
  8
0
  5
33BE
 10
400.349
 20
137.073
 30
0.00000
  70
    32
  0
VERTEX
  8
0
  5
33BF
 10
400.342
 20
136.946
 30
0.00000
  70
    32
  0
VERTEX
  8
0
  5
33C0
 10
400.336
 20
136.819
 30
0.00000
  70
    32
  0
VERTEX
  8
0
  5
33C1
 10
400.330
 20
136.691
 30
0.00000
  70
    32
  0
VERTEX
  8
0
  5
33C2
 10
400.326
 20
136.563
 30
0.00000
  70
    32
  0
VERTEX
  8
0
  5
33C3
 10
400.322
 20
136.435
 30
0.00000
  70
    32
  0
VERTEX
  8
0
  5
33C4
 10
400.320
 20
136.306
 30
0.00000
  70
    32
  0
VERTEX
  8
0
  5
33C5
 10
400.318
 20
136.177
 30
0.00000
  70
    32
  0
VERTEX
  8
0
  5
33C6
 10
400.318
 20
136.048
 30
0.00000
  70
    32
  0
VERTEX
  8
0
  5
33C7
 10
400.318
 20
135.920
 30
0.00000
  70
    32
  0
VERTEX
  8
0
  5
33C8
 10
400.320
 20
135.791
 30
0.00000
  70
    32
  0
VERTEX
  8
0
  5
33C9
 10
400.322
 20
135.662
 30
0.00000
  70
    32
  0
VERTEX
  8
0
  5
33CA
 10
400.326
 20
135.534
 30
0.00000
  70
    32
  0
VERTEX
  8
0
  5
33CB
 10
400.330
 20
135.406
 30
0.00000
  70
    32
  0
VERTEX
  8
0
  5
33CC
 10
400.336
 20
135.278
 30
0.00000
  70
    32
  0
VERTEX
  8
0
  5
33CD
 10
400.342
 20
135.151
 30
0.00000
  70
    32
  0
VERTEX
  8
0
  5
33CE
 10
400.349
 20
135.024
 30
0.00000
  70
    32
  0
VERTEX
  8
0
  5
33CF
 10
400.358
 20
134.898
 30
0.00000
  70
    32
  0
VERTEX
  8
0
  5
33D0
 10
400.367
 20
134.773
 30
0.00000
  70
    32
  0
VERTEX
  8
0
  5
33D1
 10
400.377
 20
134.648
 30
0.00000
  70
    32
  0
VERTEX
  8
0
  5
33D2
 10
400.388
 20
134.524
 30
0.00000
  70
    32
  0
VERTEX
  8
0
  5
33D3
 10
400.401
 20
134.402
 30
0.00000
  70
    32
  0
VERTEX
  8
0
  5
33D4
 10
400.414
 20
134.280
 30
0.00000
  70
    32
  0
VERTEX
  8
0
  5
33D5
 10
400.428
 20
134.159
 30
0.00000
  70
    32
  0
VERTEX
  8
0
  5
33D6
 10
400.443
 20
134.039
 30
0.00000
  70
    32
  0
VERTEX
  8
0
  5
33D7
 10
400.458
 20
133.921
 30
0.00000
  70
    32
  0
VERTEX
  8
0
  5
33D8
 10
400.475
 20
133.804
 30
0.00000
  70
    32
  0
VERTEX
  8
0
  5
33D9
 10
400.493
 20
133.688
 30
0.00000
  70
    32
  0
VERTEX
  8
0
  5
33DA
 10
400.511
 20
133.574
 30
0.00000
  70
    32
  0
VERTEX
  8
0
  5
33DB
 10
400.531
 20
133.461
 30
0.00000
  70
    32
  0
VERTEX
  8
0
  5
33DC
 10
400.551
 20
133.349
 30
0.00000
  70
    32
  0
VERTEX
  8
0
  5
33DD
 10
400.572
 20
133.240
 30
0.00000
  70
    32
  0
VERTEX
  8
0
  5
33DE
 10
400.594
 20
133.132
 30
0.00000
  70
    32
  0
VERTEX
  8
0
  5
33DF
 10
400.617
 20
133.025
 30
0.00000
  70
    32
  0
VERTEX
  8
0
  5
33E0
 10
400.640
 20
132.921
 30
0.00000
  70
    32
  0
VERTEX
  8
0
  5
33E1
 10
400.664
 20
132.818
 30
0.00000
  70
    32
  0
VERTEX
  8
0
  5
33E2
 10
400.690
 20
132.718
 30
0.00000
  70
    32
  0
VERTEX
  8
0
  5
33E3
 10
400.715
 20
132.619
 30
0.00000
  70
    32
  0
VERTEX
  8
0
  5
33E4
 10
400.742
 20
132.523
 30
0.00000
  70
    32
  0
VERTEX
  8
0
  5
33E5
 10
400.769
 20
132.428
 30
0.00000
  70
    32
  0
VERTEX
  8
0
  5
33E6
 10
400.797
 20
132.336
 30
0.00000
  70
    32
  0
VERTEX
  8
0
  5
33E7
 10
400.826
 20
132.246
 30
0.00000
  70
    32
  0
VERTEX
  8
0
  5
33E8
 10
400.856
 20
132.158
 30
0.00000
  70
    32
  0
VERTEX
  8
0
  5
33E9
 10
400.886
 20
132.073
 30
0.00000
  70
    32
  0
VERTEX
  8
0
  5
33EA
 10
400.917
 20
131.990
 30
0.00000
  70
    32
  0
VERTEX
  8
0
  5
33EB
 10
400.948
 20
131.910
 30
0.00000
  70
    32
  0
VERTEX
  8
0
  5
33EC
 10
400.980
 20
131.832
 30
0.00000
  70
    32
  0
VERTEX
  8
0
  5
33ED
 10
401.012
 20
131.756
 30
0.00000
  70
    32
  0
VERTEX
  8
0
  5
33EE
 10
401.046
 20
131.683
 30
0.00000
  70
    32
  0
VERTEX
  8
0
  5
33EF
 10
401.079
 20
131.613
 30
0.00000
  70
    32
  0
VERTEX
  8
0
  5
33F0
 10
401.113
 20
131.545
 30
0.00000
  70
    32
  0
VERTEX
  8
0
  5
33F1
 10
401.148
 20
131.480
 30
0.00000
  70
    32
  0
VERTEX
  8
0
  5
33F2
 10
401.183
 20
131.418
 30
0.00000
  70
    32
  0
VERTEX
  8
0
  5
33F3
 10
401.219
 20
131.359
 30
0.00000
  70
    32
  0
VERTEX
  8
0
  5
33F4
 10
401.255
 20
131.303
 30
0.00000
  70
    32
  0
VERTEX
  8
0
  5
33F5
 10
401.292
 20
131.249
 30
0.00000
  70
    32
  0
VERTEX
  8
0
  5
33F6
 10
401.329
 20
131.198
 30
0.00000
  70
    32
  0
VERTEX
  8
0
  5
33F7
 10
401.366
 20
131.150
 30
0.00000
  70
    32
  0
VERTEX
  8
0
  5
33F8
 10
401.404
 20
131.105
 30
0.00000
  70
    32
  0
VERTEX
  8
0
  5
33F9
 10
401.442
 20
131.063
 30
0.00000
  70
    32
  0
VERTEX
  8
0
  5
33FA
 10
401.480
 20
131.025
 30
0.00000
  70
    32
  0
VERTEX
  8
0
  5
33FB
 10
401.519
 20
130.989
 30
0.00000
  70
    32
  0
VERTEX
  8
0
  5
33FC
 10
401.557
 20
130.956
 30
0.00000
  70
    32
  0
VERTEX
  8
0
  5
33FD
 10
401.597
 20
130.926
 30
0.00000
  70
    32
  0
VERTEX
  8
0
  5
33FE
 10
401.636
 20
130.899
 30
0.00000
  70
    32
  0
VERTEX
  8
0
  5
33FF
 10
401.675
 20
130.876
 30
0.00000
  70
    32
  0
VERTEX
  8
0
  5
3400
 10
401.715
 20
130.855
 30
0.00000
  70
    32
  0
VERTEX
  8
0
  5
3401
 10
401.755
 20
130.838
 30
0.00000
  70
    32
  0
VERTEX
  8
0
  5
3402
 10
401.795
 20
130.824
 30
0.00000
  70
    32
  0
VERTEX
  8
0
  5
3403
 10
401.835
 20
130.813
 30
0.00000
  70
    32
  0
VERTEX
  8
0
  5
3404
 10
401.875
 20
130.805
 30
0.00000
  70
    32
  0
VERTEX
  8
0
  5
3405
 10
401.915
 20
130.800
 30
0.00000
  70
    32
  0
VERTEX
  8
0
  5
3406
 10
401.955
 20
130.798
 30
0.00000
  70
    32
  0
SEQEND
  8
0
  5
3407
  0
LINE
  5
1DDE
  8
1
 10
383.2439239023117921
 20
136.0484551536412994
 30
0.0
 11
486.4091508973601776
 21
136.0484551536420099
 31
0.0
  0
LINE
  5
1DDF
  8
0
 10
364.2439239023116784
 20
130.5484551536412141
 30
0.0
 11
365.2439239023116784
 21
129.5484551536412994
 31
0.0
  0
LINE
  5
1DE0
  8
0
 10
364.2439239023116784
 20
141.5484551536412141
 30
0.0
 11
364.2439239023116784
 21
130.5484551536412141
 31
0.0
  0
LINE
  5
1DE1
  8
0
 10
365.2439239023116784
 20
142.5484551536412141
 30
0.0
 11
364.2439239023116784
 21
141.5484551536412141
 31
0.0
  0
LINE
  5
1DE2
  8
0
 10
364.2439239023116784
 20
130.5484551536412141
 30
0.0
 11
402.2439239023116784
 21
130.5484551536412141
 31
0.0
  0
LINE
  5
1DE6
  8
0
 10
402.2439239023115078
 20
141.5484551536412141
 30
0.0
 11
364.2439239023116784
 21
141.5484551536412141
 31
0.0
  0
LINE
  5
1DE7
  8
0
 10
365.2439239023116784
 20
142.5484551536412141
 30
0.0
 11
401.2439239023116784
 21
142.5484551536412141
 31
0.0
  0
LINE
  5
1DE8
  8
0
 10
401.2439239023116784
 20
142.5484551536412141
 30
0.0
 11
402.2439239023116784
 21
141.5484551536412141
 31
0.0
  0
LINE
  5
1DE9
  8
0
 10
402.2439239023116784
 20
141.5484551536412141
 30
0.0
 11
402.2439239023115078
 21
130.5484551536412141
 31
0.0
  0
LINE
  5
1DEA
  8
0
 10
402.2439239023115078
 20
130.5484551536412141
 30
0.0
 11
401.2439239023116784
 21
129.5484551536412994
 31
0.0
  0
LINE
  5
1DED
  8
0
 10
403.2439234552768994
 20
76.748453577098303
 30
0.0
 11
363.2439243493466279
 21
76.748453577098303
 31
0.0
  0
LINE
  5
1DEE
  8
0
 10
363.2439243493466279
 20
113.3484543987343045
 30
0.0
 11
403.2439234552768994
 21
113.3484543987343045
 31
0.0
  0
LINE
  5
1DEF
  8
0
 10
403.2439234552768994
 20
113.3484543987343045
 30
0.0
 11
403.2439234552768994
 21
76.748453577098303
 31
0.0
  0
LINE
  5
1DF0
  8
0
 10
403.2439234552768994
 20
113.3484543987343045
 30
0.0
 11
403.0439237950233746
 21
113.5484543936818937
 31
0.0
  0
LINE
  5
1DF2
  8
0
 10
403.043924271860476
 20
76.5484543936818227
 30
0.0
 11
363.4439235327628808
 21
76.5484543936819364
 31
0.0
  0
LINE
  5
1DF3
  8
0
 10
403.0439237950233746
 20
76.5484539168447782
 30
0.0
 11
403.2439234552768994
 21
76.748453577098303
 31
0.0
  0
LINE
  5
1DF4
  8
0
 10
363.4439240096000958
 20
113.5484543936818937
 30
0.0
 11
363.2439243493466279
 21
113.3484543987343045
 31
0.0
  0
LINE
  5
1DF5
  8
0
 10
363.2439243493466279
 20
76.748453577098303
 30
0.0
 11
363.2439243493466279
 21
113.3484543987343045
 31
0.0
  0
LINE
  5
1DF6
  8
0
 10
363.2439243493466279
 20
76.748453577098303
 30
0.0
 11
363.4439240096000958
 21
76.5484539168447782
 31
0.0
  0
LINE
  5
1E0C
  8
1
 10
383.2439239023116215
 20
61.5484543936819435
 30
0.0
 11
383.2439239023116784
 21
147.5484551536412141
 31
0.0
  0
LINE
  5
1E0D
  8
0
 10
364.7439239023117921
 20
67.0484543936819364
 30
0.0
 11
401.7439239023116784
 21
67.0484543936819364
 31
0.0
  0
LINE
  5
1E0E
  8
0
 10
401.2439239023116784
 20
66.5484543936819364
 30
0.0
 11
365.2439239023116784
 21
66.5484543936819364
 31
0.0
  0
LINE
  5
1E0F
  8
0
 10
364.7439239023117921
 20
76.5484543936820501
 30
0.0
 11
364.7439239023117921
 21
67.0484543936819364
 31
0.0
  0
LINE
  5
1E10
  8
0
 10
401.7439239023116784
 20
67.0484543936819364
 30
0.0
 11
401.7439239023116784
 21
76.5484543936820501
 31
0.0
  0
LINE
  5
1E11
  8
0
 10
401.2439239023116784
 20
66.5484543936819364
 30
0.0
 11
401.7439239023116784
 21
67.0484543936819364
 31
0.0
  0
LINE
  5
1E12
  8
0
 10
364.7439239023117921
 20
67.0484543936819364
 30
0.0
 11
365.2439239023116784
 21
66.5484543936819364
 31
0.0
  0
LINE
  5
1E13
  8
0
 10
458.0143161723087246
 20
141.0484551536418962
 30
0.0
 11
432.6568392632680116
 21
141.048455153641811
 31
0.0
  0
LINE
  5
1E14
  8
0
 10
432.6568392632680116
 20
131.048455153641811
 30
0.0
 11
458.0143161723087246
 21
131.0484551536418962
 31
0.0
  0
POLYLINE
  5
1E15
  8
0
 66
     1
 10
0.0
 20
0.0
 30
0.0
 70
   128
  0
VERTEX
  5
309B
  8
0
 10
431.3889844780458134
 20
132.048455153641811
 30
0.0
  0
VERTEX
  5
309C
  8
0
 10
431.6761394710749187
 20
131.6195585940708952
 30
0.0
  0
VERTEX
  5
309D
  8
0
 10
431.9886211193269787
 20
131.3050386633892117
 30
0.0
  0
VERTEX
  5
309E
  8
0
 10
432.3183595577614255
 20
131.1130178654543101
 30
0.0
  0
VERTEX
  5
309F
  8
0
 10
432.6568392632680116
 20
131.048455153641811
 30
0.0
  0
VERTEX
  5
30A0
  8
0
 10
432.9953189687747113
 20
131.1130178654543101
 30
0.0
  0
VERTEX
  5
30A1
  8
0
 10
433.3250574072088739
 20
131.3050386633892117
 30
0.0
  0
VERTEX
  5
30A2
  8
0
 10
433.6375390554609908
 20
131.6195585940710089
 30
0.0
  0
VERTEX
  5
30A3
  8
0
 10
433.9246940484902098
 20
132.048455153641811
 30
0.0
  0
SEQEND
  5
30A4
  8
0
  0
POLYLINE
  5
1E16
  8
0
 66
     1
 10
0.0
 20
0.0
 30
0.0
 70
   128
  0
VERTEX
  5
30A5
  8
0
 10
426.6742317521968175
 20
132.048455153641811
 30
0.0
  0
VERTEX
  5
30A6
  8
0
 10
426.3870767591678828
 20
131.6195585940710089
 30
0.0
  0
VERTEX
  5
30A7
  8
0
 10
426.0745951109155953
 20
131.3050386633894107
 30
0.0
  0
VERTEX
  5
30A8
  8
0
 10
425.7448566724812054
 20
131.1130178654543101
 30
0.0
  0
VERTEX
  5
30A9
  8
0
 10
425.4063769669747899
 20
131.048455153641811
 30
0.0
  0
SEQEND
  5
30AA
  8
0
  0
LINE
  5
1E17
  8
0
 10
426.6742317521968175
 20
132.048455153641811
 30
0.0
 11
433.9246940484902098
 21
132.048455153641811
 31
0.0
  0
POLYLINE
  5
1E18
  8
0
 66
     1
 10
0.0
 20
0.0
 30
0.0
 70
   128
  0
VERTEX
  5
30AB
  8
0
 10
433.9246940484902098
 20
140.048455153641811
 30
0.0
  0
VERTEX
  5
30AC
  8
0
 10
433.6375390554609908
 20
140.477351713212613
 30
0.0
  0
VERTEX
  5
30AD
  8
0
 10
433.3250574072088739
 20
140.7918716438944102
 30
0.0
  0
VERTEX
  5
30AE
  8
0
 10
432.9953189687747113
 20
140.9838924418293118
 30
0.0
  0
VERTEX
  5
30AF
  8
0
 10
432.6568392632680116
 20
141.048455153641811
 30
0.0
  0
VERTEX
  5
30B0
  8
0
 10
432.3183595577614255
 20
140.9838924418293118
 30
0.0
  0
VERTEX
  5
30B1
  8
0
 10
431.9886211193269787
 20
140.7918716438944102
 30
0.0
  0
VERTEX
  5
30B2
  8
0
 10
431.6761394710749187
 20
140.477351713212613
 30
0.0
  0
VERTEX
  5
30B3
  8
0
 10
431.3889844780458134
 20
140.048455153641811
 30
0.0
  0
SEQEND
  5
30B4
  8
0
  0
LINE
  5
1E19
  8
0
 10
433.9246940484902098
 20
140.048455153641811
 30
0.0
 11
426.6742317521968175
 21
140.048455153641811
 31
0.0
  0
POLYLINE
  5
1E1A
  8
0
 66
     1
 10
0.0
 20
0.0
 30
0.0
 70
   128
  0
VERTEX
  5
30B5
  8
0
 10
425.4063769669747899
 20
141.048455153641811
 30
0.0
  0
VERTEX
  5
30B6
  8
0
 10
425.7448566724812054
 20
140.9838924418293971
 30
0.0
  0
VERTEX
  5
30B7
  8
0
 10
426.0745951109155953
 20
140.7918716438944102
 30
0.0
  0
VERTEX
  5
30B8
  8
0
 10
426.3870767591678828
 20
140.477351713212812
 30
0.0
  0
VERTEX
  5
30B9
  8
0
 10
426.6742317521968175
 20
140.048455153641811
 30
0.0
  0
SEQEND
  5
30BA
  8
0
  0
ARC
  5
1E1B
  8
0
 10
468.9091507447340064
 20
136.0484551536420952
 30
0.0
 40
12.5000001526261997
 50
215.4505421410736972
 51
144.5494578589261891
  0
LINE
  5
1E1C
  8
0
 10
402.2439239023115078
 20
131.0484551536416973
 30
0.0
 11
425.4063769669747899
 21
131.048455153641811
 31
0.0
  0
LINE
  5
1E1D
  8
0
 10
425.4063769669747899
 20
141.048455153641811
 30
0.0
 11
402.2439239023116784
 21
141.048455153641612
 31
0.0
  0
POLYLINE
  5
1E1E
  8
0
 10
459.7144251689037446
 20
128.798455153641811
 30
0.0
 66
     1
 70
     8
  0
VERTEX
  8
0
  5
3408
 10
459.714
 20
128.798
 30
0.00000
  70
    32
  0
VERTEX
  8
0
  5
3409
 10
459.789
 20
128.801
 30
0.00000
  70
    32
  0
VERTEX
  8
0
  5
340A
 10
459.863
 20
128.807
 30
0.00000
  70
    32
  0
VERTEX
  8
0
  5
340B
 10
459.937
 20
128.818
 30
0.00000
  70
    32
  0
VERTEX
  8
0
  5
340C
 10
460.011
 20
128.833
 30
0.00000
  70
    32
  0
VERTEX
  8
0
  5
340D
 10
460.085
 20
128.853
 30
0.00000
  70
    32
  0
VERTEX
  8
0
  5
340E
 10
460.159
 20
128.877
 30
0.00000
  70
    32
  0
VERTEX
  8
0
  5
340F
 10
460.232
 20
128.905
 30
0.00000
  70
    32
  0
VERTEX
  8
0
  5
3410
 10
460.306
 20
128.938
 30
0.00000
  70
    32
  0
VERTEX
  8
0
  5
3411
 10
460.378
 20
128.975
 30
0.00000
  70
    32
  0
VERTEX
  8
0
  5
3412
 10
460.451
 20
129.016
 30
0.00000
  70
    32
  0
VERTEX
  8
0
  5
3413
 10
460.523
 20
129.061
 30
0.00000
  70
    32
  0
VERTEX
  8
0
  5
3414
 10
460.594
 20
129.111
 30
0.00000
  70
    32
  0
VERTEX
  8
0
  5
3415
 10
460.665
 20
129.164
 30
0.00000
  70
    32
  0
VERTEX
  8
0
  5
3416
 10
460.735
 20
129.222
 30
0.00000
  70
    32
  0
VERTEX
  8
0
  5
3417
 10
460.805
 20
129.284
 30
0.00000
  70
    32
  0
VERTEX
  8
0
  5
3418
 10
460.874
 20
129.350
 30
0.00000
  70
    32
  0
VERTEX
  8
0
  5
3419
 10
460.942
 20
129.420
 30
0.00000
  70
    32
  0
VERTEX
  8
0
  5
341A
 10
461.010
 20
129.495
 30
0.00000
  70
    32
  0
VERTEX
  8
0
  5
341B
 10
461.077
 20
129.573
 30
0.00000
  70
    32
  0
VERTEX
  8
0
  5
341C
 10
461.143
 20
129.655
 30
0.00000
  70
    32
  0
VERTEX
  8
0
  5
341D
 10
461.208
 20
129.740
 30
0.00000
  70
    32
  0
VERTEX
  8
0
  5
341E
 10
461.272
 20
129.830
 30
0.00000
  70
    32
  0
VERTEX
  8
0
  5
341F
 10
461.335
 20
129.923
 30
0.00000
  70
    32
  0
VERTEX
  8
0
  5
3420
 10
461.398
 20
130.020
 30
0.00000
  70
    32
  0
VERTEX
  8
0
  5
3421
 10
461.459
 20
130.121
 30
0.00000
  70
    32
  0
VERTEX
  8
0
  5
3422
 10
461.519
 20
130.225
 30
0.00000
  70
    32
  0
VERTEX
  8
0
  5
3423
 10
461.579
 20
130.333
 30
0.00000
  70
    32
  0
VERTEX
  8
0
  5
3424
 10
461.637
 20
130.444
 30
0.00000
  70
    32
  0
VERTEX
  8
0
  5
3425
 10
461.694
 20
130.559
 30
0.00000
  70
    32
  0
VERTEX
  8
0
  5
3426
 10
461.749
 20
130.677
 30
0.00000
  70
    32
  0
VERTEX
  8
0
  5
3427
 10
461.804
 20
130.798
 30
0.00000
  70
    32
  0
VERTEX
  8
0
  5
3428
 10
461.857
 20
130.922
 30
0.00000
  70
    32
  0
VERTEX
  8
0
  5
3429
 10
461.909
 20
131.049
 30
0.00000
  70
    32
  0
VERTEX
  8
0
  5
342A
 10
461.960
 20
131.180
 30
0.00000
  70
    32
  0
VERTEX
  8
0
  5
342B
 10
462.009
 20
131.313
 30
0.00000
  70
    32
  0
VERTEX
  8
0
  5
342C
 10
462.057
 20
131.449
 30
0.00000
  70
    32
  0
VERTEX
  8
0
  5
342D
 10
462.103
 20
131.588
 30
0.00000
  70
    32
  0
VERTEX
  8
0
  5
342E
 10
462.148
 20
131.730
 30
0.00000
  70
    32
  0
VERTEX
  8
0
  5
342F
 10
462.192
 20
131.874
 30
0.00000
  70
    32
  0
VERTEX
  8
0
  5
3430
 10
462.234
 20
132.021
 30
0.00000
  70
    32
  0
VERTEX
  8
0
  5
3431
 10
462.274
 20
132.170
 30
0.00000
  70
    32
  0
VERTEX
  8
0
  5
3432
 10
462.313
 20
132.321
 30
0.00000
  70
    32
  0
VERTEX
  8
0
  5
3433
 10
462.351
 20
132.475
 30
0.00000
  70
    32
  0
VERTEX
  8
0
  5
3434
 10
462.387
 20
132.631
 30
0.00000
  70
    32
  0
VERTEX
  8
0
  5
3435
 10
462.421
 20
132.789
 30
0.00000
  70
    32
  0
VERTEX
  8
0
  5
3436
 10
462.454
 20
132.949
 30
0.00000
  70
    32
  0
VERTEX
  8
0
  5
3437
 10
462.485
 20
133.110
 30
0.00000
  70
    32
  0
VERTEX
  8
0
  5
3438
 10
462.514
 20
133.274
 30
0.00000
  70
    32
  0
VERTEX
  8
0
  5
3439
 10
462.541
 20
133.439
 30
0.00000
  70
    32
  0
VERTEX
  8
0
  5
343A
 10
462.567
 20
133.606
 30
0.00000
  70
    32
  0
VERTEX
  8
0
  5
343B
 10
462.592
 20
133.774
 30
0.00000
  70
    32
  0
VERTEX
  8
0
  5
343C
 10
462.614
 20
133.944
 30
0.00000
  70
    32
  0
VERTEX
  8
0
  5
343D
 10
462.635
 20
134.115
 30
0.00000
  70
    32
  0
VERTEX
  8
0
  5
343E
 10
462.654
 20
134.287
 30
0.00000
  70
    32
  0
VERTEX
  8
0
  5
343F
 10
462.671
 20
134.460
 30
0.00000
  70
    32
  0
VERTEX
  8
0
  5
3440
 10
462.686
 20
134.634
 30
0.00000
  70
    32
  0
VERTEX
  8
0
  5
3441
 10
462.700
 20
134.809
 30
0.00000
  70
    32
  0
VERTEX
  8
0
  5
3442
 10
462.712
 20
134.985
 30
0.00000
  70
    32
  0
VERTEX
  8
0
  5
3443
 10
462.722
 20
135.161
 30
0.00000
  70
    32
  0
VERTEX
  8
0
  5
3444
 10
462.730
 20
135.338
 30
0.00000
  70
    32
  0
VERTEX
  8
0
  5
3445
 10
462.736
 20
135.515
 30
0.00000
  70
    32
  0
VERTEX
  8
0
  5
3446
 10
462.741
 20
135.693
 30
0.00000
  70
    32
  0
VERTEX
  8
0
  5
3447
 10
462.744
 20
135.871
 30
0.00000
  70
    32
  0
VERTEX
  8
0
  5
3448
 10
462.744
 20
136.048
 30
0.00000
  70
    32
  0
VERTEX
  8
0
  5
3449
 10
462.744
 20
136.226
 30
0.00000
  70
    32
  0
VERTEX
  8
0
  5
344A
 10
462.741
 20
136.404
 30
0.00000
  70
    32
  0
VERTEX
  8
0
  5
344B
 10
462.736
 20
136.582
 30
0.00000
  70
    32
  0
VERTEX
  8
0
  5
344C
 10
462.730
 20
136.759
 30
0.00000
  70
    32
  0
VERTEX
  8
0
  5
344D
 10
462.722
 20
136.936
 30
0.00000
  70
    32
  0
VERTEX
  8
0
  5
344E
 10
462.712
 20
137.112
 30
0.00000
  70
    32
  0
VERTEX
  8
0
  5
344F
 10
462.700
 20
137.288
 30
0.00000
  70
    32
  0
VERTEX
  8
0
  5
3450
 10
462.686
 20
137.463
 30
0.00000
  70
    32
  0
VERTEX
  8
0
  5
3451
 10
462.671
 20
137.637
 30
0.00000
  70
    32
  0
VERTEX
  8
0
  5
3452
 10
462.654
 20
137.810
 30
0.00000
  70
    32
  0
VERTEX
  8
0
  5
3453
 10
462.635
 20
137.982
 30
0.00000
  70
    32
  0
VERTEX
  8
0
  5
3454
 10
462.614
 20
138.153
 30
0.00000
  70
    32
  0
VERTEX
  8
0
  5
3455
 10
462.592
 20
138.323
 30
0.00000
  70
    32
  0
VERTEX
  8
0
  5
3456
 10
462.567
 20
138.491
 30
0.00000
  70
    32
  0
VERTEX
  8
0
  5
3457
 10
462.541
 20
138.658
 30
0.00000
  70
    32
  0
VERTEX
  8
0
  5
3458
 10
462.514
 20
138.823
 30
0.00000
  70
    32
  0
VERTEX
  8
0
  5
3459
 10
462.485
 20
138.986
 30
0.00000
  70
    32
  0
VERTEX
  8
0
  5
345A
 10
462.454
 20
139.148
 30
0.00000
  70
    32
  0
VERTEX
  8
0
  5
345B
 10
462.421
 20
139.308
 30
0.00000
  70
    32
  0
VERTEX
  8
0
  5
345C
 10
462.387
 20
139.466
 30
0.00000
  70
    32
  0
VERTEX
  8
0
  5
345D
 10
462.351
 20
139.622
 30
0.00000
  70
    32
  0
VERTEX
  8
0
  5
345E
 10
462.313
 20
139.776
 30
0.00000
  70
    32
  0
VERTEX
  8
0
  5
345F
 10
462.274
 20
139.927
 30
0.00000
  70
    32
  0
VERTEX
  8
0
  5
3460
 10
462.234
 20
140.076
 30
0.00000
  70
    32
  0
VERTEX
  8
0
  5
3461
 10
462.192
 20
140.223
 30
0.00000
  70
    32
  0
VERTEX
  8
0
  5
3462
 10
462.148
 20
140.367
 30
0.00000
  70
    32
  0
VERTEX
  8
0
  5
3463
 10
462.103
 20
140.509
 30
0.00000
  70
    32
  0
VERTEX
  8
0
  5
3464
 10
462.057
 20
140.648
 30
0.00000
  70
    32
  0
VERTEX
  8
0
  5
3465
 10
462.009
 20
140.784
 30
0.00000
  70
    32
  0
VERTEX
  8
0
  5
3466
 10
461.960
 20
140.917
 30
0.00000
  70
    32
  0
VERTEX
  8
0
  5
3467
 10
461.909
 20
141.048
 30
0.00000
  70
    32
  0
VERTEX
  8
0
  5
3468
 10
461.857
 20
141.175
 30
0.00000
  70
    32
  0
VERTEX
  8
0
  5
3469
 10
461.804
 20
141.299
 30
0.00000
  70
    32
  0
VERTEX
  8
0
  5
346A
 10
461.749
 20
141.420
 30
0.00000
  70
    32
  0
VERTEX
  8
0
  5
346B
 10
461.694
 20
141.538
 30
0.00000
  70
    32
  0
VERTEX
  8
0
  5
346C
 10
461.637
 20
141.653
 30
0.00000
  70
    32
  0
VERTEX
  8
0
  5
346D
 10
461.579
 20
141.764
 30
0.00000
  70
    32
  0
VERTEX
  8
0
  5
346E
 10
461.519
 20
141.872
 30
0.00000
  70
    32
  0
VERTEX
  8
0
  5
346F
 10
461.459
 20
141.976
 30
0.00000
  70
    32
  0
VERTEX
  8
0
  5
3470
 10
461.398
 20
142.077
 30
0.00000
  70
    32
  0
VERTEX
  8
0
  5
3471
 10
461.335
 20
142.174
 30
0.00000
  70
    32
  0
VERTEX
  8
0
  5
3472
 10
461.272
 20
142.267
 30
0.00000
  70
    32
  0
VERTEX
  8
0
  5
3473
 10
461.208
 20
142.357
 30
0.00000
  70
    32
  0
VERTEX
  8
0
  5
3474
 10
461.143
 20
142.442
 30
0.00000
  70
    32
  0
VERTEX
  8
0
  5
3475
 10
461.077
 20
142.524
 30
0.00000
  70
    32
  0
VERTEX
  8
0
  5
3476
 10
461.010
 20
142.602
 30
0.00000
  70
    32
  0
VERTEX
  8
0
  5
3477
 10
460.942
 20
142.676
 30
0.00000
  70
    32
  0
VERTEX
  8
0
  5
3478
 10
460.874
 20
142.747
 30
0.00000
  70
    32
  0
VERTEX
  8
0
  5
3479
 10
460.805
 20
142.813
 30
0.00000
  70
    32
  0
VERTEX
  8
0
  5
347A
 10
460.735
 20
142.875
 30
0.00000
  70
    32
  0
VERTEX
  8
0
  5
347B
 10
460.665
 20
142.933
 30
0.00000
  70
    32
  0
VERTEX
  8
0
  5
347C
 10
460.594
 20
142.986
 30
0.00000
  70
    32
  0
VERTEX
  8
0
  5
347D
 10
460.523
 20
143.036
 30
0.00000
  70
    32
  0
VERTEX
  8
0
  5
347E
 10
460.451
 20
143.081
 30
0.00000
  70
    32
  0
VERTEX
  8
0
  5
347F
 10
460.378
 20
143.122
 30
0.00000
  70
    32
  0
VERTEX
  8
0
  5
3480
 10
460.306
 20
143.159
 30
0.00000
  70
    32
  0
VERTEX
  8
0
  5
3481
 10
460.232
 20
143.192
 30
0.00000
  70
    32
  0
VERTEX
  8
0
  5
3482
 10
460.159
 20
143.220
 30
0.00000
  70
    32
  0
VERTEX
  8
0
  5
3483
 10
460.085
 20
143.244
 30
0.00000
  70
    32
  0
VERTEX
  8
0
  5
3484
 10
460.011
 20
143.264
 30
0.00000
  70
    32
  0
VERTEX
  8
0
  5
3485
 10
459.937
 20
143.279
 30
0.00000
  70
    32
  0
VERTEX
  8
0
  5
3486
 10
459.863
 20
143.290
 30
0.00000
  70
    32
  0
VERTEX
  8
0
  5
3487
 10
459.789
 20
143.296
 30
0.00000
  70
    32
  0
VERTEX
  8
0
  5
3488
 10
459.714
 20
143.298
 30
0.00000
  70
    32
  0
SEQEND
  8
0
  5
3489
  0
LINE
  5
1E1F
  8
0
 10
458.4674702263534982
 20
143.298455153641811
 30
0.0
 11
459.7144251689036878
 21
143.298455153641811
 31
0.0
  0
POLYLINE
  5
1E20
  8
0
 10
456.2348635411185569
 20
131.0484551536419247
 30
0.0
 66
     1
 70
     8
  0
VERTEX
  8
0
  5
348A
 10
456.235
 20
131.048
 30
0.00000
  70
    32
  0
VERTEX
  8
0
  5
348B
 10
456.315
 20
130.857
 30
0.00000
  70
    32
  0
VERTEX
  8
0
  5
348C
 10
456.399
 20
130.672
 30
0.00000
  70
    32
  0
VERTEX
  8
0
  5
348D
 10
456.486
 20
130.495
 30
0.00000
  70
    32
  0
VERTEX
  8
0
  5
348E
 10
456.575
 20
130.325
 30
0.00000
  70
    32
  0
VERTEX
  8
0
  5
348F
 10
456.667
 20
130.164
 30
0.00000
  70
    32
  0
VERTEX
  8
0
  5
3490
 10
456.761
 20
130.010
 30
0.00000
  70
    32
  0
VERTEX
  8
0
  5
3491
 10
456.858
 20
129.865
 30
0.00000
  70
    32
  0
VERTEX
  8
0
  5
3492
 10
456.956
 20
129.729
 30
0.00000
  70
    32
  0
VERTEX
  8
0
  5
3493
 10
457.057
 20
129.601
 30
0.00000
  70
    32
  0
VERTEX
  8
0
  5
3494
 10
457.160
 20
129.482
 30
0.00000
  70
    32
  0
VERTEX
  8
0
  5
3495
 10
457.265
 20
129.373
 30
0.00000
  70
    32
  0
VERTEX
  8
0
  5
3496
 10
457.371
 20
129.272
 30
0.00000
  70
    32
  0
VERTEX
  8
0
  5
3497
 10
457.479
 20
129.181
 30
0.00000
  70
    32
  0
VERTEX
  8
0
  5
3498
 10
457.589
 20
129.099
 30
0.00000
  70
    32
  0
VERTEX
  8
0
  5
3499
 10
457.699
 20
129.027
 30
0.00000
  70
    32
  0
VERTEX
  8
0
  5
349A
 10
457.811
 20
128.965
 30
0.00000
  70
    32
  0
VERTEX
  8
0
  5
349B
 10
457.923
 20
128.912
 30
0.00000
  70
    32
  0
VERTEX
  8
0
  5
349C
 10
458.036
 20
128.870
 30
0.00000
  70
    32
  0
VERTEX
  8
0
  5
349D
 10
458.150
 20
128.837
 30
0.00000
  70
    32
  0
VERTEX
  8
0
  5
349E
 10
458.265
 20
128.814
 30
0.00000
  70
    32
  0
VERTEX
  8
0
  5
349F
 10
458.379
 20
128.801
 30
0.00000
  70
    32
  0
VERTEX
  8
0
  5
34A0
 10
458.494
 20
128.799
 30
0.00000
  70
    32
  0
VERTEX
  8
0
  5
34A1
 10
458.608
 20
128.806
 30
0.00000
  70
    32
  0
VERTEX
  8
0
  5
34A2
 10
458.723
 20
128.823
 30
0.00000
  70
    32
  0
VERTEX
  8
0
  5
34A3
 10
458.837
 20
128.851
 30
0.00000
  70
    32
  0
VERTEX
  8
0
  5
34A4
 10
458.951
 20
128.888
 30
0.00000
  70
    32
  0
VERTEX
  8
0
  5
34A5
 10
459.063
 20
128.935
 30
0.00000
  70
    32
  0
VERTEX
  8
0
  5
34A6
 10
459.176
 20
128.992
 30
0.00000
  70
    32
  0
VERTEX
  8
0
  5
34A7
 10
459.287
 20
129.059
 30
0.00000
  70
    32
  0
VERTEX
  8
0
  5
34A8
 10
459.397
 20
129.135
 30
0.00000
  70
    32
  0
VERTEX
  8
0
  5
34A9
 10
459.505
 20
129.222
 30
0.00000
  70
    32
  0
VERTEX
  8
0
  5
34AA
 10
459.613
 20
129.317
 30
0.00000
  70
    32
  0
VERTEX
  8
0
  5
34AB
 10
459.718
 20
129.422
 30
0.00000
  70
    32
  0
VERTEX
  8
0
  5
34AC
 10
459.822
 20
129.536
 30
0.00000
  70
    32
  0
VERTEX
  8
0
  5
34AD
 10
459.924
 20
129.659
 30
0.00000
  70
    32
  0
VERTEX
  8
0
  5
34AE
 10
460.024
 20
129.791
 30
0.00000
  70
    32
  0
VERTEX
  8
0
  5
34AF
 10
460.122
 20
129.931
 30
0.00000
  70
    32
  0
VERTEX
  8
0
  5
34B0
 10
460.218
 20
130.080
 30
0.00000
  70
    32
  0
VERTEX
  8
0
  5
34B1
 10
460.311
 20
130.237
 30
0.00000
  70
    32
  0
VERTEX
  8
0
  5
34B2
 10
460.402
 20
130.402
 30
0.00000
  70
    32
  0
VERTEX
  8
0
  5
34B3
 10
460.489
 20
130.575
 30
0.00000
  70
    32
  0
VERTEX
  8
0
  5
34B4
 10
460.575
 20
130.756
 30
0.00000
  70
    32
  0
VERTEX
  8
0
  5
34B5
 10
460.657
 20
130.944
 30
0.00000
  70
    32
  0
VERTEX
  8
0
  5
34B6
 10
460.736
 20
131.139
 30
0.00000
  70
    32
  0
VERTEX
  8
0
  5
34B7
 10
460.812
 20
131.341
 30
0.00000
  70
    32
  0
VERTEX
  8
0
  5
34B8
 10
460.885
 20
131.549
 30
0.00000
  70
    32
  0
VERTEX
  8
0
  5
34B9
 10
460.954
 20
131.763
 30
0.00000
  70
    32
  0
VERTEX
  8
0
  5
34BA
 10
461.021
 20
131.984
 30
0.00000
  70
    32
  0
VERTEX
  8
0
  5
34BB
 10
461.083
 20
132.210
 30
0.00000
  70
    32
  0
VERTEX
  8
0
  5
34BC
 10
461.142
 20
132.441
 30
0.00000
  70
    32
  0
VERTEX
  8
0
  5
34BD
 10
461.197
 20
132.678
 30
0.00000
  70
    32
  0
VERTEX
  8
0
  5
34BE
 10
461.249
 20
132.919
 30
0.00000
  70
    32
  0
VERTEX
  8
0
  5
34BF
 10
461.296
 20
133.164
 30
0.00000
  70
    32
  0
VERTEX
  8
0
  5
34C0
 10
461.340
 20
133.413
 30
0.00000
  70
    32
  0
VERTEX
  8
0
  5
34C1
 10
461.379
 20
133.666
 30
0.00000
  70
    32
  0
VERTEX
  8
0
  5
34C2
 10
461.415
 20
133.923
 30
0.00000
  70
    32
  0
VERTEX
  8
0
  5
34C3
 10
461.447
 20
134.182
 30
0.00000
  70
    32
  0
VERTEX
  8
0
  5
34C4
 10
461.474
 20
134.444
 30
0.00000
  70
    32
  0
VERTEX
  8
0
  5
34C5
 10
461.497
 20
134.708
 30
0.00000
  70
    32
  0
VERTEX
  8
0
  5
34C6
 10
461.517
 20
134.974
 30
0.00000
  70
    32
  0
VERTEX
  8
0
  5
34C7
 10
461.531
 20
135.241
 30
0.00000
  70
    32
  0
VERTEX
  8
0
  5
34C8
 10
461.542
 20
135.510
 30
0.00000
  70
    32
  0
VERTEX
  8
0
  5
34C9
 10
461.548
 20
135.779
 30
0.00000
  70
    32
  0
VERTEX
  8
0
  5
34CA
 10
461.551
 20
136.048
 30
0.00000
  70
    32
  0
VERTEX
  8
0
  5
34CB
 10
461.548
 20
136.318
 30
0.00000
  70
    32
  0
VERTEX
  8
0
  5
34CC
 10
461.542
 20
136.587
 30
0.00000
  70
    32
  0
VERTEX
  8
0
  5
34CD
 10
461.531
 20
136.856
 30
0.00000
  70
    32
  0
VERTEX
  8
0
  5
34CE
 10
461.517
 20
137.123
 30
0.00000
  70
    32
  0
VERTEX
  8
0
  5
34CF
 10
461.497
 20
137.389
 30
0.00000
  70
    32
  0
VERTEX
  8
0
  5
34D0
 10
461.474
 20
137.653
 30
0.00000
  70
    32
  0
VERTEX
  8
0
  5
34D1
 10
461.447
 20
137.915
 30
0.00000
  70
    32
  0
VERTEX
  8
0
  5
34D2
 10
461.415
 20
138.174
 30
0.00000
  70
    32
  0
VERTEX
  8
0
  5
34D3
 10
461.379
 20
138.430
 30
0.00000
  70
    32
  0
VERTEX
  8
0
  5
34D4
 10
461.340
 20
138.683
 30
0.00000
  70
    32
  0
VERTEX
  8
0
  5
34D5
 10
461.296
 20
138.933
 30
0.00000
  70
    32
  0
VERTEX
  8
0
  5
34D6
 10
461.249
 20
139.178
 30
0.00000
  70
    32
  0
VERTEX
  8
0
  5
34D7
 10
461.197
 20
139.419
 30
0.00000
  70
    32
  0
VERTEX
  8
0
  5
34D8
 10
461.142
 20
139.656
 30
0.00000
  70
    32
  0
VERTEX
  8
0
  5
34D9
 10
461.083
 20
139.887
 30
0.00000
  70
    32
  0
VERTEX
  8
0
  5
34DA
 10
461.021
 20
140.113
 30
0.00000
  70
    32
  0
VERTEX
  8
0
  5
34DB
 10
460.954
 20
140.333
 30
0.00000
  70
    32
  0
VERTEX
  8
0
  5
34DC
 10
460.885
 20
140.548
 30
0.00000
  70
    32
  0
VERTEX
  8
0
  5
34DD
 10
460.812
 20
140.756
 30
0.00000
  70
    32
  0
VERTEX
  8
0
  5
34DE
 10
460.736
 20
140.958
 30
0.00000
  70
    32
  0
VERTEX
  8
0
  5
34DF
 10
460.657
 20
141.153
 30
0.00000
  70
    32
  0
VERTEX
  8
0
  5
34E0
 10
460.575
 20
141.341
 30
0.00000
  70
    32
  0
VERTEX
  8
0
  5
34E1
 10
460.489
 20
141.522
 30
0.00000
  70
    32
  0
VERTEX
  8
0
  5
34E2
 10
460.402
 20
141.695
 30
0.00000
  70
    32
  0
VERTEX
  8
0
  5
34E3
 10
460.311
 20
141.860
 30
0.00000
  70
    32
  0
VERTEX
  8
0
  5
34E4
 10
460.218
 20
142.017
 30
0.00000
  70
    32
  0
VERTEX
  8
0
  5
34E5
 10
460.122
 20
142.166
 30
0.00000
  70
    32
  0
VERTEX
  8
0
  5
34E6
 10
460.024
 20
142.306
 30
0.00000
  70
    32
  0
VERTEX
  8
0
  5
34E7
 10
459.924
 20
142.438
 30
0.00000
  70
    32
  0
VERTEX
  8
0
  5
34E8
 10
459.822
 20
142.561
 30
0.00000
  70
    32
  0
VERTEX
  8
0
  5
34E9
 10
459.718
 20
142.675
 30
0.00000
  70
    32
  0
VERTEX
  8
0
  5
34EA
 10
459.613
 20
142.780
 30
0.00000
  70
    32
  0
VERTEX
  8
0
  5
34EB
 10
459.505
 20
142.875
 30
0.00000
  70
    32
  0
VERTEX
  8
0
  5
34EC
 10
459.397
 20
142.961
 30
0.00000
  70
    32
  0
VERTEX
  8
0
  5
34ED
 10
459.287
 20
143.038
 30
0.00000
  70
    32
  0
VERTEX
  8
0
  5
34EE
 10
459.176
 20
143.105
 30
0.00000
  70
    32
  0
VERTEX
  8
0
  5
34EF
 10
459.063
 20
143.162
 30
0.00000
  70
    32
  0
VERTEX
  8
0
  5
34F0
 10
458.951
 20
143.209
 30
0.00000
  70
    32
  0
VERTEX
  8
0
  5
34F1
 10
458.837
 20
143.246
 30
0.00000
  70
    32
  0
VERTEX
  8
0
  5
34F2
 10
458.723
 20
143.274
 30
0.00000
  70
    32
  0
VERTEX
  8
0
  5
34F3
 10
458.608
 20
143.291
 30
0.00000
  70
    32
  0
VERTEX
  8
0
  5
34F4
 10
458.494
 20
143.298
 30
0.00000
  70
    32
  0
VERTEX
  8
0
  5
34F5
 10
458.379
 20
143.295
 30
0.00000
  70
    32
  0
VERTEX
  8
0
  5
34F6
 10
458.265
 20
143.283
 30
0.00000
  70
    32
  0
VERTEX
  8
0
  5
34F7
 10
458.150
 20
143.260
 30
0.00000
  70
    32
  0
VERTEX
  8
0
  5
34F8
 10
458.036
 20
143.227
 30
0.00000
  70
    32
  0
VERTEX
  8
0
  5
34F9
 10
457.923
 20
143.185
 30
0.00000
  70
    32
  0
VERTEX
  8
0
  5
34FA
 10
457.811
 20
143.132
 30
0.00000
  70
    32
  0
VERTEX
  8
0
  5
34FB
 10
457.699
 20
143.070
 30
0.00000
  70
    32
  0
VERTEX
  8
0
  5
34FC
 10
457.589
 20
142.998
 30
0.00000
  70
    32
  0
VERTEX
  8
0
  5
34FD
 10
457.479
 20
142.916
 30
0.00000
  70
    32
  0
VERTEX
  8
0
  5
34FE
 10
457.371
 20
142.825
 30
0.00000
  70
    32
  0
VERTEX
  8
0
  5
34FF
 10
457.265
 20
142.724
 30
0.00000
  70
    32
  0
VERTEX
  8
0
  5
3500
 10
457.160
 20
142.615
 30
0.00000
  70
    32
  0
VERTEX
  8
0
  5
3501
 10
457.057
 20
142.496
 30
0.00000
  70
    32
  0
VERTEX
  8
0
  5
3502
 10
456.956
 20
142.368
 30
0.00000
  70
    32
  0
VERTEX
  8
0
  5
3503
 10
456.858
 20
142.232
 30
0.00000
  70
    32
  0
VERTEX
  8
0
  5
3504
 10
456.761
 20
142.086
 30
0.00000
  70
    32
  0
VERTEX
  8
0
  5
3505
 10
456.667
 20
141.933
 30
0.00000
  70
    32
  0
VERTEX
  8
0
  5
3506
 10
456.575
 20
141.771
 30
0.00000
  70
    32
  0
VERTEX
  8
0
  5
3507
 10
456.486
 20
141.602
 30
0.00000
  70
    32
  0
VERTEX
  8
0
  5
3508
 10
456.399
 20
141.425
 30
0.00000
  70
    32
  0
VERTEX
  8
0
  5
3509
 10
456.315
 20
141.240
 30
0.00000
  70
    32
  0
VERTEX
  8
0
  5
350A
 10
456.235
 20
141.048
 30
0.00000
  70
    32
  0
SEQEND
  8
0
  5
350B
  0
LINE
  5
1E21
  8
0
 10
458.4674702263534982
 20
128.798455153641811
 30
0.0
 11
459.7144251689039152
 21
128.798455153641811
 31
0.0
  0
POLYLINE
  5
1E22
  8
0
 10
458.0143161723087246
 20
131.048455153641811
 30
0.0
 66
     1
 70
     8
  0
VERTEX
  8
0
  5
350C
 10
458.014
 20
131.048
 30
0.00000
  70
    32
  0
VERTEX
  8
0
  5
350D
 10
458.067
 20
131.050
 30
0.00000
  70
    32
  0
VERTEX
  8
0
  5
350E
 10
458.119
 20
131.054
 30
0.00000
  70
    32
  0
VERTEX
  8
0
  5
350F
 10
458.171
 20
131.062
 30
0.00000
  70
    32
  0
VERTEX
  8
0
  5
3510
 10
458.223
 20
131.073
 30
0.00000
  70
    32
  0
VERTEX
  8
0
  5
3511
 10
458.275
 20
131.086
 30
0.00000
  70
    32
  0
VERTEX
  8
0
  5
3512
 10
458.327
 20
131.103
 30
0.00000
  70
    32
  0
VERTEX
  8
0
  5
3513
 10
458.379
 20
131.122
 30
0.00000
  70
    32
  0
VERTEX
  8
0
  5
3514
 10
458.430
 20
131.145
 30
0.00000
  70
    32
  0
VERTEX
  8
0
  5
3515
 10
458.481
 20
131.170
 30
0.00000
  70
    32
  0
VERTEX
  8
0
  5
3516
 10
458.532
 20
131.198
 30
0.00000
  70
    32
  0
VERTEX
  8
0
  5
3517
 10
458.583
 20
131.230
 30
0.00000
  70
    32
  0
VERTEX
  8
0
  5
3518
 10
458.633
 20
131.264
 30
0.00000
  70
    32
  0
VERTEX
  8
0
  5
3519
 10
458.683
 20
131.301
 30
0.00000
  70
    32
  0
VERTEX
  8
0
  5
351A
 10
458.733
 20
131.341
 30
0.00000
  70
    32
  0
VERTEX
  8
0
  5
351B
 10
458.782
 20
131.383
 30
0.00000
  70
    32
  0
VERTEX
  8
0
  5
351C
 10
458.830
 20
131.429
 30
0.00000
  70
    32
  0
VERTEX
  8
0
  5
351D
 10
458.878
 20
131.477
 30
0.00000
  70
    32
  0
VERTEX
  8
0
  5
351E
 10
458.926
 20
131.529
 30
0.00000
  70
    32
  0
VERTEX
  8
0
  5
351F
 10
458.973
 20
131.582
 30
0.00000
  70
    32
  0
VERTEX
  8
0
  5
3520
 10
459.019
 20
131.639
 30
0.00000
  70
    32
  0
VERTEX
  8
0
  5
3521
 10
459.065
 20
131.698
 30
0.00000
  70
    32
  0
VERTEX
  8
0
  5
3522
 10
459.111
 20
131.760
 30
0.00000
  70
    32
  0
VERTEX
  8
0
  5
3523
 10
459.155
 20
131.824
 30
0.00000
  70
    32
  0
VERTEX
  8
0
  5
3524
 10
459.199
 20
131.891
 30
0.00000
  70
    32
  0
VERTEX
  8
0
  5
3525
 10
459.242
 20
131.961
 30
0.00000
  70
    32
  0
VERTEX
  8
0
  5
3526
 10
459.284
 20
132.032
 30
0.00000
  70
    32
  0
VERTEX
  8
0
  5
3527
 10
459.326
 20
132.107
 30
0.00000
  70
    32
  0
VERTEX
  8
0
  5
3528
 10
459.367
 20
132.183
 30
0.00000
  70
    32
  0
VERTEX
  8
0
  5
3529
 10
459.407
 20
132.262
 30
0.00000
  70
    32
  0
VERTEX
  8
0
  5
352A
 10
459.446
 20
132.344
 30
0.00000
  70
    32
  0
VERTEX
  8
0
  5
352B
 10
459.485
 20
132.427
 30
0.00000
  70
    32
  0
VERTEX
  8
0
  5
352C
 10
459.522
 20
132.513
 30
0.00000
  70
    32
  0
VERTEX
  8
0
  5
352D
 10
459.559
 20
132.601
 30
0.00000
  70
    32
  0
VERTEX
  8
0
  5
352E
 10
459.594
 20
132.691
 30
0.00000
  70
    32
  0
VERTEX
  8
0
  5
352F
 10
459.629
 20
132.783
 30
0.00000
  70
    32
  0
VERTEX
  8
0
  5
3530
 10
459.663
 20
132.876
 30
0.00000
  70
    32
  0
VERTEX
  8
0
  5
3531
 10
459.695
 20
132.972
 30
0.00000
  70
    32
  0
VERTEX
  8
0
  5
3532
 10
459.727
 20
133.070
 30
0.00000
  70
    32
  0
VERTEX
  8
0
  5
3533
 10
459.758
 20
133.169
 30
0.00000
  70
    32
  0
VERTEX
  8
0
  5
3534
 10
459.787
 20
133.271
 30
0.00000
  70
    32
  0
VERTEX
  8
0
  5
3535
 10
459.816
 20
133.373
 30
0.00000
  70
    32
  0
VERTEX
  8
0
  5
3536
 10
459.843
 20
133.478
 30
0.00000
  70
    32
  0
VERTEX
  8
0
  5
3537
 10
459.870
 20
133.584
 30
0.00000
  70
    32
  0
VERTEX
  8
0
  5
3538
 10
459.895
 20
133.691
 30
0.00000
  70
    32
  0
VERTEX
  8
0
  5
3539
 10
459.919
 20
133.800
 30
0.00000
  70
    32
  0
VERTEX
  8
0
  5
353A
 10
459.942
 20
133.911
 30
0.00000
  70
    32
  0
VERTEX
  8
0
  5
353B
 10
459.964
 20
134.022
 30
0.00000
  70
    32
  0
VERTEX
  8
0
  5
353C
 10
459.984
 20
134.135
 30
0.00000
  70
    32
  0
VERTEX
  8
0
  5
353D
 10
460.004
 20
134.249
 30
0.00000
  70
    32
  0
VERTEX
  8
0
  5
353E
 10
460.022
 20
134.364
 30
0.00000
  70
    32
  0
VERTEX
  8
0
  5
353F
 10
460.039
 20
134.480
 30
0.00000
  70
    32
  0
VERTEX
  8
0
  5
3540
 10
460.055
 20
134.597
 30
0.00000
  70
    32
  0
VERTEX
  8
0
  5
3541
 10
460.069
 20
134.715
 30
0.00000
  70
    32
  0
VERTEX
  8
0
  5
3542
 10
460.083
 20
134.834
 30
0.00000
  70
    32
  0
VERTEX
  8
0
  5
3543
 10
460.095
 20
134.953
 30
0.00000
  70
    32
  0
VERTEX
  8
0
  5
3544
 10
460.106
 20
135.073
 30
0.00000
  70
    32
  0
VERTEX
  8
0
  5
3545
 10
460.115
 20
135.194
 30
0.00000
  70
    32
  0
VERTEX
  8
0
  5
3546
 10
460.123
 20
135.315
 30
0.00000
  70
    32
  0
VERTEX
  8
0
  5
3547
 10
460.131
 20
135.436
 30
0.00000
  70
    32
  0
VERTEX
  8
0
  5
3548
 10
460.136
 20
135.558
 30
0.00000
  70
    32
  0
VERTEX
  8
0
  5
3549
 10
460.141
 20
135.681
 30
0.00000
  70
    32
  0
VERTEX
  8
0
  5
354A
 10
460.144
 20
135.803
 30
0.00000
  70
    32
  0
VERTEX
  8
0
  5
354B
 10
460.146
 20
135.926
 30
0.00000
  70
    32
  0
VERTEX
  8
0
  5
354C
 10
460.147
 20
136.048
 30
0.00000
  70
    32
  0
VERTEX
  8
0
  5
354D
 10
460.146
 20
136.171
 30
0.00000
  70
    32
  0
VERTEX
  8
0
  5
354E
 10
460.144
 20
136.294
 30
0.00000
  70
    32
  0
VERTEX
  8
0
  5
354F
 10
460.141
 20
136.416
 30
0.00000
  70
    32
  0
VERTEX
  8
0
  5
3550
 10
460.136
 20
136.539
 30
0.00000
  70
    32
  0
VERTEX
  8
0
  5
3551
 10
460.131
 20
136.661
 30
0.00000
  70
    32
  0
VERTEX
  8
0
  5
3552
 10
460.123
 20
136.782
 30
0.00000
  70
    32
  0
VERTEX
  8
0
  5
3553
 10
460.115
 20
136.903
 30
0.00000
  70
    32
  0
VERTEX
  8
0
  5
3554
 10
460.106
 20
137.024
 30
0.00000
  70
    32
  0
VERTEX
  8
0
  5
3555
 10
460.095
 20
137.144
 30
0.00000
  70
    32
  0
VERTEX
  8
0
  5
3556
 10
460.083
 20
137.263
 30
0.00000
  70
    32
  0
VERTEX
  8
0
  5
3557
 10
460.069
 20
137.382
 30
0.00000
  70
    32
  0
VERTEX
  8
0
  5
3558
 10
460.055
 20
137.500
 30
0.00000
  70
    32
  0
VERTEX
  8
0
  5
3559
 10
460.039
 20
137.617
 30
0.00000
  70
    32
  0
VERTEX
  8
0
  5
355A
 10
460.022
 20
137.733
 30
0.00000
  70
    32
  0
VERTEX
  8
0
  5
355B
 10
460.004
 20
137.848
 30
0.00000
  70
    32
  0
VERTEX
  8
0
  5
355C
 10
459.984
 20
137.962
 30
0.00000
  70
    32
  0
VERTEX
  8
0
  5
355D
 10
459.964
 20
138.075
 30
0.00000
  70
    32
  0
VERTEX
  8
0
  5
355E
 10
459.942
 20
138.186
 30
0.00000
  70
    32
  0
VERTEX
  8
0
  5
355F
 10
459.919
 20
138.297
 30
0.00000
  70
    32
  0
VERTEX
  8
0
  5
3560
 10
459.895
 20
138.405
 30
0.00000
  70
    32
  0
VERTEX
  8
0
  5
3561
 10
459.870
 20
138.513
 30
0.00000
  70
    32
  0
VERTEX
  8
0
  5
3562
 10
459.843
 20
138.619
 30
0.00000
  70
    32
  0
VERTEX
  8
0
  5
3563
 10
459.816
 20
138.723
 30
0.00000
  70
    32
  0
VERTEX
  8
0
  5
3564
 10
459.787
 20
138.826
 30
0.00000
  70
    32
  0
VERTEX
  8
0
  5
3565
 10
459.758
 20
138.927
 30
0.00000
  70
    32
  0
VERTEX
  8
0
  5
3566
 10
459.727
 20
139.027
 30
0.00000
  70
    32
  0
VERTEX
  8
0
  5
3567
 10
459.695
 20
139.125
 30
0.00000
  70
    32
  0
VERTEX
  8
0
  5
3568
 10
459.663
 20
139.220
 30
0.00000
  70
    32
  0
VERTEX
  8
0
  5
3569
 10
459.629
 20
139.314
 30
0.00000
  70
    32
  0
VERTEX
  8
0
  5
356A
 10
459.594
 20
139.406
 30
0.00000
  70
    32
  0
VERTEX
  8
0
  5
356B
 10
459.559
 20
139.496
 30
0.00000
  70
    32
  0
VERTEX
  8
0
  5
356C
 10
459.522
 20
139.584
 30
0.00000
  70
    32
  0
VERTEX
  8
0
  5
356D
 10
459.485
 20
139.670
 30
0.00000
  70
    32
  0
VERTEX
  8
0
  5
356E
 10
459.446
 20
139.753
 30
0.00000
  70
    32
  0
VERTEX
  8
0
  5
356F
 10
459.407
 20
139.834
 30
0.00000
  70
    32
  0
VERTEX
  8
0
  5
3570
 10
459.367
 20
139.914
 30
0.00000
  70
    32
  0
VERTEX
  8
0
  5
3571
 10
459.326
 20
139.990
 30
0.00000
  70
    32
  0
VERTEX
  8
0
  5
3572
 10
459.284
 20
140.064
 30
0.00000
  70
    32
  0
VERTEX
  8
0
  5
3573
 10
459.242
 20
140.136
 30
0.00000
  70
    32
  0
VERTEX
  8
0
  5
3574
 10
459.199
 20
140.206
 30
0.00000
  70
    32
  0
VERTEX
  8
0
  5
3575
 10
459.155
 20
140.273
 30
0.00000
  70
    32
  0
VERTEX
  8
0
  5
3576
 10
459.111
 20
140.337
 30
0.00000
  70
    32
  0
VERTEX
  8
0
  5
3577
 10
459.065
 20
140.399
 30
0.00000
  70
    32
  0
VERTEX
  8
0
  5
3578
 10
459.019
 20
140.458
 30
0.00000
  70
    32
  0
VERTEX
  8
0
  5
3579
 10
458.973
 20
140.515
 30
0.00000
  70
    32
  0
VERTEX
  8
0
  5
357A
 10
458.926
 20
140.568
 30
0.00000
  70
    32
  0
VERTEX
  8
0
  5
357B
 10
458.878
 20
140.620
 30
0.00000
  70
    32
  0
VERTEX
  8
0
  5
357C
 10
458.830
 20
140.668
 30
0.00000
  70
    32
  0
VERTEX
  8
0
  5
357D
 10
458.782
 20
140.713
 30
0.00000
  70
    32
  0
VERTEX
  8
0
  5
357E
 10
458.733
 20
140.756
 30
0.00000
  70
    32
  0
VERTEX
  8
0
  5
357F
 10
458.683
 20
140.796
 30
0.00000
  70
    32
  0
VERTEX
  8
0
  5
3580
 10
458.633
 20
140.833
 30
0.00000
  70
    32
  0
VERTEX
  8
0
  5
3581
 10
458.583
 20
140.867
 30
0.00000
  70
    32
  0
VERTEX
  8
0
  5
3582
 10
458.532
 20
140.899
 30
0.00000
  70
    32
  0
VERTEX
  8
0
  5
3583
 10
458.481
 20
140.927
 30
0.00000
  70
    32
  0
VERTEX
  8
0
  5
3584
 10
458.430
 20
140.952
 30
0.00000
  70
    32
  0
VERTEX
  8
0
  5
3585
 10
458.379
 20
140.975
 30
0.00000
  70
    32
  0
VERTEX
  8
0
  5
3586
 10
458.327
 20
140.994
 30
0.00000
  70
    32
  0
VERTEX
  8
0
  5
3587
 10
458.275
 20
141.011
 30
0.00000
  70
    32
  0
VERTEX
  8
0
  5
3588
 10
458.223
 20
141.024
 30
0.00000
  70
    32
  0
VERTEX
  8
0
  5
3589
 10
458.171
 20
141.035
 30
0.00000
  70
    32
  0
VERTEX
  8
0
  5
358A
 10
458.119
 20
141.042
 30
0.00000
  70
    32
  0
VERTEX
  8
0
  5
358B
 10
458.067
 20
141.047
 30
0.00000
  70
    32
  0
VERTEX
  8
0
  5
358C
 10
458.014
 20
141.048
 30
0.00000
  70
    32
  0
SEQEND
  8
0
  5
358D
  0
POLYLINE
  5
1E23
  8
0
 10
236.1661499743132993
 20
131.0484551536418962
 30
0.0
 66
     1
 70
     8
  0
VERTEX
  8
0
  5
358E
 10
236.166
 20
131.048
 30
0.00000
  70
    32
  0
VERTEX
  8
0
  5
358F
 10
236.056
 20
131.050
 30
0.00000
  70
    32
  0
VERTEX
  8
0
  5
3590
 10
235.946
 20
131.054
 30
0.00000
  70
    32
  0
VERTEX
  8
0
  5
3591
 10
235.836
 20
131.062
 30
0.00000
  70
    32
  0
VERTEX
  8
0
  5
3592
 10
235.726
 20
131.073
 30
0.00000
  70
    32
  0
VERTEX
  8
0
  5
3593
 10
235.616
 20
131.086
 30
0.00000
  70
    32
  0
VERTEX
  8
0
  5
3594
 10
235.507
 20
131.103
 30
0.00000
  70
    32
  0
VERTEX
  8
0
  5
3595
 10
235.398
 20
131.122
 30
0.00000
  70
    32
  0
VERTEX
  8
0
  5
3596
 10
235.290
 20
131.145
 30
0.00000
  70
    32
  0
VERTEX
  8
0
  5
3597
 10
235.182
 20
131.170
 30
0.00000
  70
    32
  0
VERTEX
  8
0
  5
3598
 10
235.075
 20
131.198
 30
0.00000
  70
    32
  0
VERTEX
  8
0
  5
3599
 10
234.968
 20
131.230
 30
0.00000
  70
    32
  0
VERTEX
  8
0
  5
359A
 10
234.863
 20
131.264
 30
0.00000
  70
    32
  0
VERTEX
  8
0
  5
359B
 10
234.758
 20
131.301
 30
0.00000
  70
    32
  0
VERTEX
  8
0
  5
359C
 10
234.653
 20
131.341
 30
0.00000
  70
    32
  0
VERTEX
  8
0
  5
359D
 10
234.550
 20
131.383
 30
0.00000
  70
    32
  0
VERTEX
  8
0
  5
359E
 10
234.448
 20
131.429
 30
0.00000
  70
    32
  0
VERTEX
  8
0
  5
359F
 10
234.346
 20
131.477
 30
0.00000
  70
    32
  0
VERTEX
  8
0
  5
35A0
 10
234.246
 20
131.529
 30
0.00000
  70
    32
  0
VERTEX
  8
0
  5
35A1
 10
234.147
 20
131.582
 30
0.00000
  70
    32
  0
VERTEX
  8
0
  5
35A2
 10
234.049
 20
131.639
 30
0.00000
  70
    32
  0
VERTEX
  8
0
  5
35A3
 10
233.953
 20
131.698
 30
0.00000
  70
    32
  0
VERTEX
  8
0
  5
35A4
 10
233.858
 20
131.760
 30
0.00000
  70
    32
  0
VERTEX
  8
0
  5
35A5
 10
233.764
 20
131.824
 30
0.00000
  70
    32
  0
VERTEX
  8
0
  5
35A6
 10
233.671
 20
131.891
 30
0.00000
  70
    32
  0
VERTEX
  8
0
  5
35A7
 10
233.580
 20
131.961
 30
0.00000
  70
    32
  0
VERTEX
  8
0
  5
35A8
 10
233.491
 20
132.032
 30
0.00000
  70
    32
  0
VERTEX
  8
0
  5
35A9
 10
233.403
 20
132.107
 30
0.00000
  70
    32
  0
VERTEX
  8
0
  5
35AA
 10
233.317
 20
132.183
 30
0.00000
  70
    32
  0
VERTEX
  8
0
  5
35AB
 10
233.233
 20
132.262
 30
0.00000
  70
    32
  0
VERTEX
  8
0
  5
35AC
 10
233.151
 20
132.344
 30
0.00000
  70
    32
  0
VERTEX
  8
0
  5
35AD
 10
233.070
 20
132.427
 30
0.00000
  70
    32
  0
VERTEX
  8
0
  5
35AE
 10
232.991
 20
132.513
 30
0.00000
  70
    32
  0
VERTEX
  8
0
  5
35AF
 10
232.914
 20
132.601
 30
0.00000
  70
    32
  0
VERTEX
  8
0
  5
35B0
 10
232.839
 20
132.691
 30
0.00000
  70
    32
  0
VERTEX
  8
0
  5
35B1
 10
232.766
 20
132.783
 30
0.00000
  70
    32
  0
VERTEX
  8
0
  5
35B2
 10
232.695
 20
132.876
 30
0.00000
  70
    32
  0
VERTEX
  8
0
  5
35B3
 10
232.626
 20
132.972
 30
0.00000
  70
    32
  0
VERTEX
  8
0
  5
35B4
 10
232.559
 20
133.070
 30
0.00000
  70
    32
  0
VERTEX
  8
0
  5
35B5
 10
232.495
 20
133.169
 30
0.00000
  70
    32
  0
VERTEX
  8
0
  5
35B6
 10
232.432
 20
133.271
 30
0.00000
  70
    32
  0
VERTEX
  8
0
  5
35B7
 10
232.372
 20
133.373
 30
0.00000
  70
    32
  0
VERTEX
  8
0
  5
35B8
 10
232.315
 20
133.478
 30
0.00000
  70
    32
  0
VERTEX
  8
0
  5
35B9
 10
232.259
 20
133.584
 30
0.00000
  70
    32
  0
VERTEX
  8
0
  5
35BA
 10
232.206
 20
133.691
 30
0.00000
  70
    32
  0
VERTEX
  8
0
  5
35BB
 10
232.155
 20
133.800
 30
0.00000
  70
    32
  0
VERTEX
  8
0
  5
35BC
 10
232.107
 20
133.911
 30
0.00000
  70
    32
  0
VERTEX
  8
0
  5
35BD
 10
232.061
 20
134.022
 30
0.00000
  70
    32
  0
VERTEX
  8
0
  5
35BE
 10
232.017
 20
134.135
 30
0.00000
  70
    32
  0
VERTEX
  8
0
  5
35BF
 10
231.977
 20
134.249
 30
0.00000
  70
    32
  0
VERTEX
  8
0
  5
35C0
 10
231.938
 20
134.364
 30
0.00000
  70
    32
  0
VERTEX
  8
0
  5
35C1
 10
231.902
 20
134.480
 30
0.00000
  70
    32
  0
VERTEX
  8
0
  5
35C2
 10
231.869
 20
134.597
 30
0.00000
  70
    32
  0
VERTEX
  8
0
  5
35C3
 10
231.838
 20
134.715
 30
0.00000
  70
    32
  0
VERTEX
  8
0
  5
35C4
 10
231.810
 20
134.834
 30
0.00000
  70
    32
  0
VERTEX
  8
0
  5
35C5
 10
231.785
 20
134.953
 30
0.00000
  70
    32
  0
VERTEX
  8
0
  5
35C6
 10
231.762
 20
135.073
 30
0.00000
  70
    32
  0
VERTEX
  8
0
  5
35C7
 10
231.742
 20
135.194
 30
0.00000
  70
    32
  0
VERTEX
  8
0
  5
35C8
 10
231.724
 20
135.315
 30
0.00000
  70
    32
  0
VERTEX
  8
0
  5
35C9
 10
231.709
 20
135.436
 30
0.00000
  70
    32
  0
VERTEX
  8
0
  5
35CA
 10
231.697
 20
135.558
 30
0.00000
  70
    32
  0
VERTEX
  8
0
  5
35CB
 10
231.688
 20
135.681
 30
0.00000
  70
    32
  0
VERTEX
  8
0
  5
35CC
 10
231.681
 20
135.803
 30
0.00000
  70
    32
  0
VERTEX
  8
0
  5
35CD
 10
231.677
 20
135.926
 30
0.00000
  70
    32
  0
VERTEX
  8
0
  5
35CE
 10
231.676
 20
136.048
 30
0.00000
  70
    32
  0
VERTEX
  8
0
  5
35CF
 10
231.677
 20
136.171
 30
0.00000
  70
    32
  0
VERTEX
  8
0
  5
35D0
 10
231.681
 20
136.294
 30
0.00000
  70
    32
  0
VERTEX
  8
0
  5
35D1
 10
231.688
 20
136.416
 30
0.00000
  70
    32
  0
VERTEX
  8
0
  5
35D2
 10
231.697
 20
136.539
 30
0.00000
  70
    32
  0
VERTEX
  8
0
  5
35D3
 10
231.709
 20
136.661
 30
0.00000
  70
    32
  0
VERTEX
  8
0
  5
35D4
 10
231.724
 20
136.782
 30
0.00000
  70
    32
  0
VERTEX
  8
0
  5
35D5
 10
231.742
 20
136.903
 30
0.00000
  70
    32
  0
VERTEX
  8
0
  5
35D6
 10
231.762
 20
137.024
 30
0.00000
  70
    32
  0
VERTEX
  8
0
  5
35D7
 10
231.785
 20
137.144
 30
0.00000
  70
    32
  0
VERTEX
  8
0
  5
35D8
 10
231.810
 20
137.263
 30
0.00000
  70
    32
  0
VERTEX
  8
0
  5
35D9
 10
231.838
 20
137.382
 30
0.00000
  70
    32
  0
VERTEX
  8
0
  5
35DA
 10
231.869
 20
137.500
 30
0.00000
  70
    32
  0
VERTEX
  8
0
  5
35DB
 10
231.902
 20
137.617
 30
0.00000
  70
    32
  0
VERTEX
  8
0
  5
35DC
 10
231.938
 20
137.733
 30
0.00000
  70
    32
  0
VERTEX
  8
0
  5
35DD
 10
231.977
 20
137.848
 30
0.00000
  70
    32
  0
VERTEX
  8
0
  5
35DE
 10
232.017
 20
137.962
 30
0.00000
  70
    32
  0
VERTEX
  8
0
  5
35DF
 10
232.061
 20
138.075
 30
0.00000
  70
    32
  0
VERTEX
  8
0
  5
35E0
 10
232.107
 20
138.186
 30
0.00000
  70
    32
  0
VERTEX
  8
0
  5
35E1
 10
232.155
 20
138.297
 30
0.00000
  70
    32
  0
VERTEX
  8
0
  5
35E2
 10
232.206
 20
138.405
 30
0.00000
  70
    32
  0
VERTEX
  8
0
  5
35E3
 10
232.259
 20
138.513
 30
0.00000
  70
    32
  0
VERTEX
  8
0
  5
35E4
 10
232.315
 20
138.619
 30
0.00000
  70
    32
  0
VERTEX
  8
0
  5
35E5
 10
232.372
 20
138.723
 30
0.00000
  70
    32
  0
VERTEX
  8
0
  5
35E6
 10
232.432
 20
138.826
 30
0.00000
  70
    32
  0
VERTEX
  8
0
  5
35E7
 10
232.495
 20
138.927
 30
0.00000
  70
    32
  0
VERTEX
  8
0
  5
35E8
 10
232.559
 20
139.027
 30
0.00000
  70
    32
  0
VERTEX
  8
0
  5
35E9
 10
232.626
 20
139.125
 30
0.00000
  70
    32
  0
VERTEX
  8
0
  5
35EA
 10
232.695
 20
139.220
 30
0.00000
  70
    32
  0
VERTEX
  8
0
  5
35EB
 10
232.766
 20
139.314
 30
0.00000
  70
    32
  0
VERTEX
  8
0
  5
35EC
 10
232.839
 20
139.406
 30
0.00000
  70
    32
  0
VERTEX
  8
0
  5
35ED
 10
232.914
 20
139.496
 30
0.00000
  70
    32
  0
VERTEX
  8
0
  5
35EE
 10
232.991
 20
139.584
 30
0.00000
  70
    32
  0
VERTEX
  8
0
  5
35EF
 10
233.070
 20
139.670
 30
0.00000
  70
    32
  0
VERTEX
  8
0
  5
35F0
 10
233.151
 20
139.753
 30
0.00000
  70
    32
  0
VERTEX
  8
0
  5
35F1
 10
233.233
 20
139.834
 30
0.00000
  70
    32
  0
VERTEX
  8
0
  5
35F2
 10
233.317
 20
139.914
 30
0.00000
  70
    32
  0
VERTEX
  8
0
  5
35F3
 10
233.403
 20
139.990
 30
0.00000
  70
    32
  0
VERTEX
  8
0
  5
35F4
 10
233.491
 20
140.064
 30
0.00000
  70
    32
  0
VERTEX
  8
0
  5
35F5
 10
233.580
 20
140.136
 30
0.00000
  70
    32
  0
VERTEX
  8
0
  5
35F6
 10
233.671
 20
140.206
 30
0.00000
  70
    32
  0
VERTEX
  8
0
  5
35F7
 10
233.764
 20
140.273
 30
0.00000
  70
    32
  0
VERTEX
  8
0
  5
35F8
 10
233.858
 20
140.337
 30
0.00000
  70
    32
  0
VERTEX
  8
0
  5
35F9
 10
233.953
 20
140.399
 30
0.00000
  70
    32
  0
VERTEX
  8
0
  5
35FA
 10
234.049
 20
140.458
 30
0.00000
  70
    32
  0
VERTEX
  8
0
  5
35FB
 10
234.147
 20
140.515
 30
0.00000
  70
    32
  0
VERTEX
  8
0
  5
35FC
 10
234.246
 20
140.568
 30
0.00000
  70
    32
  0
VERTEX
  8
0
  5
35FD
 10
234.346
 20
140.620
 30
0.00000
  70
    32
  0
VERTEX
  8
0
  5
35FE
 10
234.448
 20
140.668
 30
0.00000
  70
    32
  0
VERTEX
  8
0
  5
35FF
 10
234.550
 20
140.713
 30
0.00000
  70
    32
  0
VERTEX
  8
0
  5
3600
 10
234.653
 20
140.756
 30
0.00000
  70
    32
  0
VERTEX
  8
0
  5
3601
 10
234.758
 20
140.796
 30
0.00000
  70
    32
  0
VERTEX
  8
0
  5
3602
 10
234.863
 20
140.833
 30
0.00000
  70
    32
  0
VERTEX
  8
0
  5
3603
 10
234.968
 20
140.867
 30
0.00000
  70
    32
  0
VERTEX
  8
0
  5
3604
 10
235.075
 20
140.899
 30
0.00000
  70
    32
  0
VERTEX
  8
0
  5
3605
 10
235.182
 20
140.927
 30
0.00000
  70
    32
  0
VERTEX
  8
0
  5
3606
 10
235.290
 20
140.952
 30
0.00000
  70
    32
  0
VERTEX
  8
0
  5
3607
 10
235.398
 20
140.975
 30
0.00000
  70
    32
  0
VERTEX
  8
0
  5
3608
 10
235.507
 20
140.994
 30
0.00000
  70
    32
  0
VERTEX
  8
0
  5
3609
 10
235.616
 20
141.011
 30
0.00000
  70
    32
  0
VERTEX
  8
0
  5
360A
 10
235.726
 20
141.024
 30
0.00000
  70
    32
  0
VERTEX
  8
0
  5
360B
 10
235.836
 20
141.035
 30
0.00000
  70
    32
  0
VERTEX
  8
0
  5
360C
 10
235.946
 20
141.042
 30
0.00000
  70
    32
  0
VERTEX
  8
0
  5
360D
 10
236.056
 20
141.047
 30
0.00000
  70
    32
  0
VERTEX
  8
0
  5
360E
 10
236.166
 20
141.048
 30
0.00000
  70
    32
  0
SEQEND
  8
0
  5
360F
  0
LINE
  5
1E24
  8
0
 10
235.9958890330773045
 20
128.7984551536418962
 30
0.0
 11
235.4391765018328044
 21
128.7984551536418962
 31
0.0
  0
POLYLINE
  5
1E25
  8
0
 10
240.754004915019749
 20
131.0484551536419247
 30
0.0
 66
     1
 70
     8
  0
VERTEX
  8
0
  5
3610
 10
240.754
 20
131.048
 30
0.00000
  70
    32
  0
VERTEX
  8
0
  5
3611
 10
240.582
 20
130.857
 30
0.00000
  70
    32
  0
VERTEX
  8
0
  5
3612
 10
240.404
 20
130.672
 30
0.00000
  70
    32
  0
VERTEX
  8
0
  5
3613
 10
240.220
 20
130.495
 30
0.00000
  70
    32
  0
VERTEX
  8
0
  5
3614
 10
240.030
 20
130.325
 30
0.00000
  70
    32
  0
VERTEX
  8
0
  5
3615
 10
239.834
 20
130.164
 30
0.00000
  70
    32
  0
VERTEX
  8
0
  5
3616
 10
239.633
 20
130.010
 30
0.00000
  70
    32
  0
VERTEX
  8
0
  5
3617
 10
239.427
 20
129.865
 30
0.00000
  70
    32
  0
VERTEX
  8
0
  5
3618
 10
239.216
 20
129.729
 30
0.00000
  70
    32
  0
VERTEX
  8
0
  5
3619
 10
239.001
 20
129.601
 30
0.00000
  70
    32
  0
VERTEX
  8
0
  5
361A
 10
238.782
 20
129.482
 30
0.00000
  70
    32
  0
VERTEX
  8
0
  5
361B
 10
238.558
 20
129.373
 30
0.00000
  70
    32
  0
VERTEX
  8
0
  5
361C
 10
238.332
 20
129.272
 30
0.00000
  70
    32
  0
VERTEX
  8
0
  5
361D
 10
238.102
 20
129.181
 30
0.00000
  70
    32
  0
VERTEX
  8
0
  5
361E
 10
237.869
 20
129.099
 30
0.00000
  70
    32
  0
VERTEX
  8
0
  5
361F
 10
237.633
 20
129.027
 30
0.00000
  70
    32
  0
VERTEX
  8
0
  5
3620
 10
237.395
 20
128.965
 30
0.00000
  70
    32
  0
VERTEX
  8
0
  5
3621
 10
237.156
 20
128.912
 30
0.00000
  70
    32
  0
VERTEX
  8
0
  5
3622
 10
236.914
 20
128.870
 30
0.00000
  70
    32
  0
VERTEX
  8
0
  5
3623
 10
236.672
 20
128.837
 30
0.00000
  70
    32
  0
VERTEX
  8
0
  5
3624
 10
236.428
 20
128.814
 30
0.00000
  70
    32
  0
VERTEX
  8
0
  5
3625
 10
236.184
 20
128.801
 30
0.00000
  70
    32
  0
VERTEX
  8
0
  5
3626
 10
235.940
 20
128.799
 30
0.00000
  70
    32
  0
VERTEX
  8
0
  5
3627
 10
235.695
 20
128.806
 30
0.00000
  70
    32
  0
VERTEX
  8
0
  5
3628
 10
235.452
 20
128.823
 30
0.00000
  70
    32
  0
VERTEX
  8
0
  5
3629
 10
235.208
 20
128.851
 30
0.00000
  70
    32
  0
VERTEX
  8
0
  5
362A
 10
234.966
 20
128.888
 30
0.00000
  70
    32
  0
VERTEX
  8
0
  5
362B
 10
234.726
 20
128.935
 30
0.00000
  70
    32
  0
VERTEX
  8
0
  5
362C
 10
234.487
 20
128.992
 30
0.00000
  70
    32
  0
VERTEX
  8
0
  5
362D
 10
234.250
 20
129.059
 30
0.00000
  70
    32
  0
VERTEX
  8
0
  5
362E
 10
234.016
 20
129.135
 30
0.00000
  70
    32
  0
VERTEX
  8
0
  5
362F
 10
233.784
 20
129.222
 30
0.00000
  70
    32
  0
VERTEX
  8
0
  5
3630
 10
233.556
 20
129.317
 30
0.00000
  70
    32
  0
VERTEX
  8
0
  5
3631
 10
233.330
 20
129.422
 30
0.00000
  70
    32
  0
VERTEX
  8
0
  5
3632
 10
233.109
 20
129.536
 30
0.00000
  70
    32
  0
VERTEX
  8
0
  5
3633
 10
232.891
 20
129.659
 30
0.00000
  70
    32
  0
VERTEX
  8
0
  5
3634
 10
232.678
 20
129.791
 30
0.00000
  70
    32
  0
VERTEX
  8
0
  5
3635
 10
232.470
 20
129.931
 30
0.00000
  70
    32
  0
VERTEX
  8
0
  5
3636
 10
232.266
 20
130.080
 30
0.00000
  70
    32
  0
VERTEX
  8
0
  5
3637
 10
232.067
 20
130.237
 30
0.00000
  70
    32
  0
VERTEX
  8
0
  5
3638
 10
231.874
 20
130.402
 30
0.00000
  70
    32
  0
VERTEX
  8
0
  5
3639
 10
231.687
 20
130.575
 30
0.00000
  70
    32
  0
VERTEX
  8
0
  5
363A
 10
231.505
 20
130.756
 30
0.00000
  70
    32
  0
VERTEX
  8
0
  5
363B
 10
231.330
 20
130.944
 30
0.00000
  70
    32
  0
VERTEX
  8
0
  5
363C
 10
231.161
 20
131.139
 30
0.00000
  70
    32
  0
VERTEX
  8
0
  5
363D
 10
230.999
 20
131.341
 30
0.00000
  70
    32
  0
VERTEX
  8
0
  5
363E
 10
230.844
 20
131.549
 30
0.00000
  70
    32
  0
VERTEX
  8
0
  5
363F
 10
230.696
 20
131.763
 30
0.00000
  70
    32
  0
VERTEX
  8
0
  5
3640
 10
230.555
 20
131.984
 30
0.00000
  70
    32
  0
VERTEX
  8
0
  5
3641
 10
230.422
 20
132.210
 30
0.00000
  70
    32
  0
VERTEX
  8
0
  5
3642
 10
230.296
 20
132.441
 30
0.00000
  70
    32
  0
VERTEX
  8
0
  5
3643
 10
230.179
 20
132.678
 30
0.00000
  70
    32
  0
VERTEX
  8
0
  5
3644
 10
230.069
 20
132.919
 30
0.00000
  70
    32
  0
VERTEX
  8
0
  5
3645
 10
229.968
 20
133.164
 30
0.00000
  70
    32
  0
VERTEX
  8
0
  5
3646
 10
229.874
 20
133.413
 30
0.00000
  70
    32
  0
VERTEX
  8
0
  5
3647
 10
229.790
 20
133.666
 30
0.00000
  70
    32
  0
VERTEX
  8
0
  5
3648
 10
229.714
 20
133.923
 30
0.00000
  70
    32
  0
VERTEX
  8
0
  5
3649
 10
229.647
 20
134.182
 30
0.00000
  70
    32
  0
VERTEX
  8
0
  5
364A
 10
229.588
 20
134.444
 30
0.00000
  70
    32
  0
VERTEX
  8
0
  5
364B
 10
229.538
 20
134.708
 30
0.00000
  70
    32
  0
VERTEX
  8
0
  5
364C
 10
229.498
 20
134.974
 30
0.00000
  70
    32
  0
VERTEX
  8
0
  5
364D
 10
229.466
 20
135.241
 30
0.00000
  70
    32
  0
VERTEX
  8
0
  5
364E
 10
229.443
 20
135.510
 30
0.00000
  70
    32
  0
VERTEX
  8
0
  5
364F
 10
229.430
 20
135.779
 30
0.00000
  70
    32
  0
VERTEX
  8
0
  5
3650
 10
229.425
 20
136.048
 30
0.00000
  70
    32
  0
VERTEX
  8
0
  5
3651
 10
229.430
 20
136.318
 30
0.00000
  70
    32
  0
VERTEX
  8
0
  5
3652
 10
229.443
 20
136.587
 30
0.00000
  70
    32
  0
VERTEX
  8
0
  5
3653
 10
229.466
 20
136.856
 30
0.00000
  70
    32
  0
VERTEX
  8
0
  5
3654
 10
229.498
 20
137.123
 30
0.00000
  70
    32
  0
VERTEX
  8
0
  5
3655
 10
229.538
 20
137.389
 30
0.00000
  70
    32
  0
VERTEX
  8
0
  5
3656
 10
229.588
 20
137.653
 30
0.00000
  70
    32
  0
VERTEX
  8
0
  5
3657
 10
229.647
 20
137.915
 30
0.00000
  70
    32
  0
VERTEX
  8
0
  5
3658
 10
229.714
 20
138.174
 30
0.00000
  70
    32
  0
VERTEX
  8
0
  5
3659
 10
229.790
 20
138.430
 30
0.00000
  70
    32
  0
VERTEX
  8
0
  5
365A
 10
229.874
 20
138.683
 30
0.00000
  70
    32
  0
VERTEX
  8
0
  5
365B
 10
229.968
 20
138.933
 30
0.00000
  70
    32
  0
VERTEX
  8
0
  5
365C
 10
230.069
 20
139.178
 30
0.00000
  70
    32
  0
VERTEX
  8
0
  5
365D
 10
230.179
 20
139.419
 30
0.00000
  70
    32
  0
VERTEX
  8
0
  5
365E
 10
230.296
 20
139.656
 30
0.00000
  70
    32
  0
VERTEX
  8
0
  5
365F
 10
230.422
 20
139.887
 30
0.00000
  70
    32
  0
VERTEX
  8
0
  5
3660
 10
230.555
 20
140.113
 30
0.00000
  70
    32
  0
VERTEX
  8
0
  5
3661
 10
230.696
 20
140.333
 30
0.00000
  70
    32
  0
VERTEX
  8
0
  5
3662
 10
230.844
 20
140.548
 30
0.00000
  70
    32
  0
VERTEX
  8
0
  5
3663
 10
230.999
 20
140.756
 30
0.00000
  70
    32
  0
VERTEX
  8
0
  5
3664
 10
231.161
 20
140.958
 30
0.00000
  70
    32
  0
VERTEX
  8
0
  5
3665
 10
231.330
 20
141.153
 30
0.00000
  70
    32
  0
VERTEX
  8
0
  5
3666
 10
231.505
 20
141.341
 30
0.00000
  70
    32
  0
VERTEX
  8
0
  5
3667
 10
231.687
 20
141.522
 30
0.00000
  70
    32
  0
VERTEX
  8
0
  5
3668
 10
231.874
 20
141.695
 30
0.00000
  70
    32
  0
VERTEX
  8
0
  5
3669
 10
232.067
 20
141.860
 30
0.00000
  70
    32
  0
VERTEX
  8
0
  5
366A
 10
232.266
 20
142.017
 30
0.00000
  70
    32
  0
VERTEX
  8
0
  5
366B
 10
232.470
 20
142.166
 30
0.00000
  70
    32
  0
VERTEX
  8
0
  5
366C
 10
232.678
 20
142.306
 30
0.00000
  70
    32
  0
VERTEX
  8
0
  5
366D
 10
232.891
 20
142.438
 30
0.00000
  70
    32
  0
VERTEX
  8
0
  5
366E
 10
233.109
 20
142.561
 30
0.00000
  70
    32
  0
VERTEX
  8
0
  5
366F
 10
233.330
 20
142.675
 30
0.00000
  70
    32
  0
VERTEX
  8
0
  5
3670
 10
233.556
 20
142.780
 30
0.00000
  70
    32
  0
VERTEX
  8
0
  5
3671
 10
233.784
 20
142.875
 30
0.00000
  70
    32
  0
VERTEX
  8
0
  5
3672
 10
234.016
 20
142.961
 30
0.00000
  70
    32
  0
VERTEX
  8
0
  5
3673
 10
234.250
 20
143.038
 30
0.00000
  70
    32
  0
VERTEX
  8
0
  5
3674
 10
234.487
 20
143.105
 30
0.00000
  70
    32
  0
VERTEX
  8
0
  5
3675
 10
234.726
 20
143.162
 30
0.00000
  70
    32
  0
VERTEX
  8
0
  5
3676
 10
234.966
 20
143.209
 30
0.00000
  70
    32
  0
VERTEX
  8
0
  5
3677
 10
235.208
 20
143.246
 30
0.00000
  70
    32
  0
VERTEX
  8
0
  5
3678
 10
235.452
 20
143.274
 30
0.00000
  70
    32
  0
VERTEX
  8
0
  5
3679
 10
235.695
 20
143.291
 30
0.00000
  70
    32
  0
VERTEX
  8
0
  5
367A
 10
235.940
 20
143.298
 30
0.00000
  70
    32
  0
VERTEX
  8
0
  5
367B
 10
236.184
 20
143.295
 30
0.00000
  70
    32
  0
VERTEX
  8
0
  5
367C
 10
236.428
 20
143.283
 30
0.00000
  70
    32
  0
VERTEX
  8
0
  5
367D
 10
236.672
 20
143.260
 30
0.00000
  70
    32
  0
VERTEX
  8
0
  5
367E
 10
236.914
 20
143.227
 30
0.00000
  70
    32
  0
VERTEX
  8
0
  5
367F
 10
237.156
 20
143.185
 30
0.00000
  70
    32
  0
VERTEX
  8
0
  5
3680
 10
237.395
 20
143.132
 30
0.00000
  70
    32
  0
VERTEX
  8
0
  5
3681
 10
237.633
 20
143.070
 30
0.00000
  70
    32
  0
VERTEX
  8
0
  5
3682
 10
237.869
 20
142.998
 30
0.00000
  70
    32
  0
VERTEX
  8
0
  5
3683
 10
238.102
 20
142.916
 30
0.00000
  70
    32
  0
VERTEX
  8
0
  5
3684
 10
238.332
 20
142.825
 30
0.00000
  70
    32
  0
VERTEX
  8
0
  5
3685
 10
238.558
 20
142.724
 30
0.00000
  70
    32
  0
VERTEX
  8
0
  5
3686
 10
238.782
 20
142.615
 30
0.00000
  70
    32
  0
VERTEX
  8
0
  5
3687
 10
239.001
 20
142.496
 30
0.00000
  70
    32
  0
VERTEX
  8
0
  5
3688
 10
239.216
 20
142.368
 30
0.00000
  70
    32
  0
VERTEX
  8
0
  5
3689
 10
239.427
 20
142.232
 30
0.00000
  70
    32
  0
VERTEX
  8
0
  5
368A
 10
239.633
 20
142.086
 30
0.00000
  70
    32
  0
VERTEX
  8
0
  5
368B
 10
239.834
 20
141.933
 30
0.00000
  70
    32
  0
VERTEX
  8
0
  5
368C
 10
240.030
 20
141.771
 30
0.00000
  70
    32
  0
VERTEX
  8
0
  5
368D
 10
240.220
 20
141.602
 30
0.00000
  70
    32
  0
VERTEX
  8
0
  5
368E
 10
240.404
 20
141.425
 30
0.00000
  70
    32
  0
VERTEX
  8
0
  5
368F
 10
240.582
 20
141.240
 30
0.00000
  70
    32
  0
VERTEX
  8
0
  5
3690
 10
240.754
 20
141.048
 30
0.00000
  70
    32
  0
SEQEND
  8
0
  5
3691
  0
LINE
  5
1E26
  8
0
 10
235.9958890330773045
 20
143.2984551536418962
 30
0.0
 11
235.4391765018328044
 21
143.2984551536418962
 31
0.0
  0
POLYLINE
  5
1E27
  8
0
 10
235.4391765018327476
 20
128.7984551536418962
 30
0.0
 66
     1
 70
     8
  0
VERTEX
  8
0
  5
3692
 10
235.439
 20
128.798
 30
0.00000
  70
    32
  0
VERTEX
  8
0
  5
3693
 10
235.278
 20
128.801
 30
0.00000
  70
    32
  0
VERTEX
  8
0
  5
3694
 10
235.117
 20
128.807
 30
0.00000
  70
    32
  0
VERTEX
  8
0
  5
3695
 10
234.956
 20
128.818
 30
0.00000
  70
    32
  0
VERTEX
  8
0
  5
3696
 10
234.795
 20
128.833
 30
0.00000
  70
    32
  0
VERTEX
  8
0
  5
3697
 10
234.635
 20
128.853
 30
0.00000
  70
    32
  0
VERTEX
  8
0
  5
3698
 10
234.475
 20
128.877
 30
0.00000
  70
    32
  0
VERTEX
  8
0
  5
3699
 10
234.316
 20
128.905
 30
0.00000
  70
    32
  0
VERTEX
  8
0
  5
369A
 10
234.157
 20
128.938
 30
0.00000
  70
    32
  0
VERTEX
  8
0
  5
369B
 10
234.000
 20
128.975
 30
0.00000
  70
    32
  0
VERTEX
  8
0
  5
369C
 10
233.843
 20
129.016
 30
0.00000
  70
    32
  0
VERTEX
  8
0
  5
369D
 10
233.687
 20
129.061
 30
0.00000
  70
    32
  0
VERTEX
  8
0
  5
369E
 10
233.532
 20
129.111
 30
0.00000
  70
    32
  0
VERTEX
  8
0
  5
369F
 10
233.378
 20
129.164
 30
0.00000
  70
    32
  0
VERTEX
  8
0
  5
36A0
 10
233.226
 20
129.222
 30
0.00000
  70
    32
  0
VERTEX
  8
0
  5
36A1
 10
233.074
 20
129.284
 30
0.00000
  70
    32
  0
VERTEX
  8
0
  5
36A2
 10
232.925
 20
129.350
 30
0.00000
  70
    32
  0
VERTEX
  8
0
  5
36A3
 10
232.776
 20
129.420
 30
0.00000
  70
    32
  0
VERTEX
  8
0
  5
36A4
 10
232.630
 20
129.495
 30
0.00000
  70
    32
  0
VERTEX
  8
0
  5
36A5
 10
232.485
 20
129.573
 30
0.00000
  70
    32
  0
VERTEX
  8
0
  5
36A6
 10
232.342
 20
129.655
 30
0.00000
  70
    32
  0
VERTEX
  8
0
  5
36A7
 10
232.200
 20
129.740
 30
0.00000
  70
    32
  0
VERTEX
  8
0
  5
36A8
 10
232.061
 20
129.830
 30
0.00000
  70
    32
  0
VERTEX
  8
0
  5
36A9
 10
231.924
 20
129.923
 30
0.00000
  70
    32
  0
VERTEX
  8
0
  5
36AA
 10
231.789
 20
130.020
 30
0.00000
  70
    32
  0
VERTEX
  8
0
  5
36AB
 10
231.656
 20
130.121
 30
0.00000
  70
    32
  0
VERTEX
  8
0
  5
36AC
 10
231.525
 20
130.225
 30
0.00000
  70
    32
  0
VERTEX
  8
0
  5
36AD
 10
231.397
 20
130.333
 30
0.00000
  70
    32
  0
VERTEX
  8
0
  5
36AE
 10
231.271
 20
130.444
 30
0.00000
  70
    32
  0
VERTEX
  8
0
  5
36AF
 10
231.147
 20
130.559
 30
0.00000
  70
    32
  0
VERTEX
  8
0
  5
36B0
 10
231.027
 20
130.677
 30
0.00000
  70
    32
  0
VERTEX
  8
0
  5
36B1
 10
230.908
 20
130.798
 30
0.00000
  70
    32
  0
VERTEX
  8
0
  5
36B2
 10
230.793
 20
130.922
 30
0.00000
  70
    32
  0
VERTEX
  8
0
  5
36B3
 10
230.680
 20
131.049
 30
0.00000
  70
    32
  0
VERTEX
  8
0
  5
36B4
 10
230.571
 20
131.180
 30
0.00000
  70
    32
  0
VERTEX
  8
0
  5
36B5
 10
230.464
 20
131.313
 30
0.00000
  70
    32
  0
VERTEX
  8
0
  5
36B6
 10
230.360
 20
131.449
 30
0.00000
  70
    32
  0
VERTEX
  8
0
  5
36B7
 10
230.259
 20
131.588
 30
0.00000
  70
    32
  0
VERTEX
  8
0
  5
36B8
 10
230.162
 20
131.730
 30
0.00000
  70
    32
  0
VERTEX
  8
0
  5
36B9
 10
230.067
 20
131.874
 30
0.00000
  70
    32
  0
VERTEX
  8
0
  5
36BA
 10
229.976
 20
132.021
 30
0.00000
  70
    32
  0
VERTEX
  8
0
  5
36BB
 10
229.888
 20
132.170
 30
0.00000
  70
    32
  0
VERTEX
  8
0
  5
36BC
 10
229.803
 20
132.321
 30
0.00000
  70
    32
  0
VERTEX
  8
0
  5
36BD
 10
229.722
 20
132.475
 30
0.00000
  70
    32
  0
VERTEX
  8
0
  5
36BE
 10
229.644
 20
132.631
 30
0.00000
  70
    32
  0
VERTEX
  8
0
  5
36BF
 10
229.570
 20
132.789
 30
0.00000
  70
    32
  0
VERTEX
  8
0
  5
36C0
 10
229.499
 20
132.949
 30
0.00000
  70
    32
  0
VERTEX
  8
0
  5
36C1
 10
229.432
 20
133.110
 30
0.00000
  70
    32
  0
VERTEX
  8
0
  5
36C2
 10
229.369
 20
133.274
 30
0.00000
  70
    32
  0
VERTEX
  8
0
  5
36C3
 10
229.309
 20
133.439
 30
0.00000
  70
    32
  0
VERTEX
  8
0
  5
36C4
 10
229.253
 20
133.606
 30
0.00000
  70
    32
  0
VERTEX
  8
0
  5
36C5
 10
229.200
 20
133.774
 30
0.00000
  70
    32
  0
VERTEX
  8
0
  5
36C6
 10
229.151
 20
133.944
 30
0.00000
  70
    32
  0
VERTEX
  8
0
  5
36C7
 10
229.106
 20
134.115
 30
0.00000
  70
    32
  0
VERTEX
  8
0
  5
36C8
 10
229.065
 20
134.287
 30
0.00000
  70
    32
  0
VERTEX
  8
0
  5
36C9
 10
229.028
 20
134.460
 30
0.00000
  70
    32
  0
VERTEX
  8
0
  5
36CA
 10
228.995
 20
134.634
 30
0.00000
  70
    32
  0
VERTEX
  8
0
  5
36CB
 10
228.965
 20
134.809
 30
0.00000
  70
    32
  0
VERTEX
  8
0
  5
36CC
 10
228.940
 20
134.985
 30
0.00000
  70
    32
  0
VERTEX
  8
0
  5
36CD
 10
228.918
 20
135.161
 30
0.00000
  70
    32
  0
VERTEX
  8
0
  5
36CE
 10
228.900
 20
135.338
 30
0.00000
  70
    32
  0
VERTEX
  8
0
  5
36CF
 10
228.886
 20
135.515
 30
0.00000
  70
    32
  0
VERTEX
  8
0
  5
36D0
 10
228.876
 20
135.693
 30
0.00000
  70
    32
  0
VERTEX
  8
0
  5
36D1
 10
228.870
 20
135.871
 30
0.00000
  70
    32
  0
VERTEX
  8
0
  5
36D2
 10
228.868
 20
136.048
 30
0.00000
  70
    32
  0
VERTEX
  8
0
  5
36D3
 10
228.870
 20
136.226
 30
0.00000
  70
    32
  0
VERTEX
  8
0
  5
36D4
 10
228.876
 20
136.404
 30
0.00000
  70
    32
  0
VERTEX
  8
0
  5
36D5
 10
228.886
 20
136.582
 30
0.00000
  70
    32
  0
VERTEX
  8
0
  5
36D6
 10
228.900
 20
136.759
 30
0.00000
  70
    32
  0
VERTEX
  8
0
  5
36D7
 10
228.918
 20
136.936
 30
0.00000
  70
    32
  0
VERTEX
  8
0
  5
36D8
 10
228.940
 20
137.112
 30
0.00000
  70
    32
  0
VERTEX
  8
0
  5
36D9
 10
228.965
 20
137.288
 30
0.00000
  70
    32
  0
VERTEX
  8
0
  5
36DA
 10
228.995
 20
137.463
 30
0.00000
  70
    32
  0
VERTEX
  8
0
  5
36DB
 10
229.028
 20
137.637
 30
0.00000
  70
    32
  0
VERTEX
  8
0
  5
36DC
 10
229.065
 20
137.810
 30
0.00000
  70
    32
  0
VERTEX
  8
0
  5
36DD
 10
229.106
 20
137.982
 30
0.00000
  70
    32
  0
VERTEX
  8
0
  5
36DE
 10
229.151
 20
138.153
 30
0.00000
  70
    32
  0
VERTEX
  8
0
  5
36DF
 10
229.200
 20
138.323
 30
0.00000
  70
    32
  0
VERTEX
  8
0
  5
36E0
 10
229.253
 20
138.491
 30
0.00000
  70
    32
  0
VERTEX
  8
0
  5
36E1
 10
229.309
 20
138.658
 30
0.00000
  70
    32
  0
VERTEX
  8
0
  5
36E2
 10
229.369
 20
138.823
 30
0.00000
  70
    32
  0
VERTEX
  8
0
  5
36E3
 10
229.432
 20
138.986
 30
0.00000
  70
    32
  0
VERTEX
  8
0
  5
36E4
 10
229.499
 20
139.148
 30
0.00000
  70
    32
  0
VERTEX
  8
0
  5
36E5
 10
229.570
 20
139.308
 30
0.00000
  70
    32
  0
VERTEX
  8
0
  5
36E6
 10
229.644
 20
139.466
 30
0.00000
  70
    32
  0
VERTEX
  8
0
  5
36E7
 10
229.722
 20
139.622
 30
0.00000
  70
    32
  0
VERTEX
  8
0
  5
36E8
 10
229.803
 20
139.776
 30
0.00000
  70
    32
  0
VERTEX
  8
0
  5
36E9
 10
229.888
 20
139.927
 30
0.00000
  70
    32
  0
VERTEX
  8
0
  5
36EA
 10
229.976
 20
140.076
 30
0.00000
  70
    32
  0
VERTEX
  8
0
  5
36EB
 10
230.067
 20
140.223
 30
0.00000
  70
    32
  0
VERTEX
  8
0
  5
36EC
 10
230.162
 20
140.367
 30
0.00000
  70
    32
  0
VERTEX
  8
0
  5
36ED
 10
230.259
 20
140.509
 30
0.00000
  70
    32
  0
VERTEX
  8
0
  5
36EE
 10
230.360
 20
140.648
 30
0.00000
  70
    32
  0
VERTEX
  8
0
  5
36EF
 10
230.464
 20
140.784
 30
0.00000
  70
    32
  0
VERTEX
  8
0
  5
36F0
 10
230.571
 20
140.917
 30
0.00000
  70
    32
  0
VERTEX
  8
0
  5
36F1
 10
230.680
 20
141.048
 30
0.00000
  70
    32
  0
VERTEX
  8
0
  5
36F2
 10
230.793
 20
141.175
 30
0.00000
  70
    32
  0
VERTEX
  8
0
  5
36F3
 10
230.908
 20
141.299
 30
0.00000
  70
    32
  0
VERTEX
  8
0
  5
36F4
 10
231.027
 20
141.420
 30
0.00000
  70
    32
  0
VERTEX
  8
0
  5
36F5
 10
231.147
 20
141.538
 30
0.00000
  70
    32
  0
VERTEX
  8
0
  5
36F6
 10
231.271
 20
141.653
 30
0.00000
  70
    32
  0
VERTEX
  8
0
  5
36F7
 10
231.397
 20
141.764
 30
0.00000
  70
    32
  0
VERTEX
  8
0
  5
36F8
 10
231.525
 20
141.872
 30
0.00000
  70
    32
  0
VERTEX
  8
0
  5
36F9
 10
231.656
 20
141.976
 30
0.00000
  70
    32
  0
VERTEX
  8
0
  5
36FA
 10
231.789
 20
142.077
 30
0.00000
  70
    32
  0
VERTEX
  8
0
  5
36FB
 10
231.924
 20
142.174
 30
0.00000
  70
    32
  0
VERTEX
  8
0
  5
36FC
 10
232.061
 20
142.267
 30
0.00000
  70
    32
  0
VERTEX
  8
0
  5
36FD
 10
232.200
 20
142.357
 30
0.00000
  70
    32
  0
VERTEX
  8
0
  5
36FE
 10
232.342
 20
142.442
 30
0.00000
  70
    32
  0
VERTEX
  8
0
  5
36FF
 10
232.485
 20
142.524
 30
0.00000
  70
    32
  0
VERTEX
  8
0
  5
3700
 10
232.630
 20
142.602
 30
0.00000
  70
    32
  0
VERTEX
  8
0
  5
3701
 10
232.776
 20
142.676
 30
0.00000
  70
    32
  0
VERTEX
  8
0
  5
3702
 10
232.925
 20
142.747
 30
0.00000
  70
    32
  0
VERTEX
  8
0
  5
3703
 10
233.074
 20
142.813
 30
0.00000
  70
    32
  0
VERTEX
  8
0
  5
3704
 10
233.226
 20
142.875
 30
0.00000
  70
    32
  0
VERTEX
  8
0
  5
3705
 10
233.378
 20
142.933
 30
0.00000
  70
    32
  0
VERTEX
  8
0
  5
3706
 10
233.532
 20
142.986
 30
0.00000
  70
    32
  0
VERTEX
  8
0
  5
3707
 10
233.687
 20
143.036
 30
0.00000
  70
    32
  0
VERTEX
  8
0
  5
3708
 10
233.843
 20
143.081
 30
0.00000
  70
    32
  0
VERTEX
  8
0
  5
3709
 10
234.000
 20
143.122
 30
0.00000
  70
    32
  0
VERTEX
  8
0
  5
370A
 10
234.157
 20
143.159
 30
0.00000
  70
    32
  0
VERTEX
  8
0
  5
370B
 10
234.316
 20
143.192
 30
0.00000
  70
    32
  0
VERTEX
  8
0
  5
370C
 10
234.475
 20
143.220
 30
0.00000
  70
    32
  0
VERTEX
  8
0
  5
370D
 10
234.635
 20
143.244
 30
0.00000
  70
    32
  0
VERTEX
  8
0
  5
370E
 10
234.795
 20
143.264
 30
0.00000
  70
    32
  0
VERTEX
  8
0
  5
370F
 10
234.956
 20
143.279
 30
0.00000
  70
    32
  0
VERTEX
  8
0
  5
3710
 10
235.117
 20
143.290
 30
0.00000
  70
    32
  0
VERTEX
  8
0
  5
3711
 10
235.278
 20
143.296
 30
0.00000
  70
    32
  0
VERTEX
  8
0
  5
3712
 10
235.439
 20
143.298
 30
0.00000
  70
    32
  0
SEQEND
  8
0
  5
3713
  0
LINE
  5
1E28
  8
0
 10
252.0774482417155866
 20
131.048455153641811
 30
0.0
 11
236.1661499743132993
 21
131.0484551536420099
 31
0.0
  0
LINE
  5
1E29
  8
0
 10
236.1661499743132993
 20
141.0484551536418962
 30
0.0
 11
252.0774482417155866
 21
141.0484551536418962
 31
0.0
  0
ARC
  5
1E2A
  8
0
 10
231.1357791756855988
 20
136.0484551536420952
 30
0.0
 40
12.5000001526261997
 50
23.578178172873951
 51
336.4218218271261094
  0
LINE
  5
1E2B
  8
0
 10
252.0774482417155866
 20
130.548455153641612
 30
0.0
 11
253.0774482417155866
 21
129.548455153641612
 31
0.0
  0
LINE
  5
1E2C
  8
0
 10
252.0774482417155866
 20
141.548455153641612
 30
0.0
 11
252.0774482417155866
 21
130.548455153641612
 31
0.0
  0
LINE
  5
1E2D
  8
0
 10
253.0774482417155866
 20
142.548455153641612
 30
0.0
 11
252.0774482417155866
 21
141.548455153641612
 31
0.0
  0
LINE
  5
1E2E
  8
0
 10
289.077448241715615
 20
142.548455153641612
 30
0.0
 11
253.0774482417155866
 21
142.548455153641612
 31
0.0
  0
LINE
  5
1E2F
  8
0
 10
252.0774482417155866
 20
141.548455153641612
 30
0.0
 11
290.077448241715615
 21
141.548455153641612
 31
0.0
  0
LINE
  5
1E33
  8
0
 10
290.0774482417153877
 20
130.548455153641612
 30
0.0
 11
252.0774482417155866
 21
130.548455153641612
 31
0.0
  0
LINE
  5
1E34
  8
0
 10
289.077448241715615
 20
142.548455153641612
 30
0.0
 11
290.077448241715615
 21
141.548455153641612
 31
0.0
  0
LINE
  5
1E35
  8
0
 10
290.077448241715615
 20
141.548455153641612
 30
0.0
 11
290.0774482417153877
 21
130.548455153641612
 31
0.0
  0
LINE
  5
1E36
  8
0
 10
290.0774482417153877
 20
130.548455153641612
 30
0.0
 11
289.077448241715615
 21
129.548455153641612
 31
0.0
  0
LINE
  5
1E37
  8
0
 10
259.3707299980571861
 20
113.3484543987346029
 30
0.0
 11
251.0774486887505077
 21
113.3484543987346029
 31
0.0
  0
LINE
  5
1E38
  8
0
 10
259.3707299980570724
 20
113.5484543936819932
 30
0.0
 11
251.2774483490040041
 21
113.5484543936821069
 31
0.0
  0
LINE
  5
1E39
  8
0
 10
289.577448241715615
 20
67.0484543936821638
 30
0.0
 11
289.077448241715615
 21
66.5484543936821638
 31
0.0
  0
LINE
  5
1E3A
  8
0
 10
253.0774482417155866
 20
66.5484543936821638
 30
0.0
 11
252.5774482417155866
 21
67.0484543936821638
 31
0.0
  0
LINE
  5
1E3B
  8
0
 10
252.5774482417155866
 20
67.0484543936821638
 30
0.0
 11
252.5774482417155866
 21
76.5484543936822632
 31
0.0
  0
LINE
  5
1E3C
  8
0
 10
289.577448241715615
 20
76.5484543936822632
 30
0.0
 11
289.577448241715615
 21
67.0484543936821638
 31
0.0
  0
LINE
  5
1E3D
  8
0
 10
253.0774482417155866
 20
66.5484543936821638
 30
0.0
 11
289.077448241715615
 21
66.5484543936821638
 31
0.0
  0
LINE
  5
1E3E
  8
0
 10
289.577448241715615
 20
67.0484543936821638
 30
0.0
 11
252.5774482417155866
 21
67.0484543936821638
 31
0.0
  0
LINE
  5
1E3F
  8
1
 10
271.077448241715615
 20
62.817510617917371
 30
0.0
 11
271.077448241715615
 21
147.548455153641612
 31
0.0
  0
LINE
  5
1E40
  8
0
 10
291.0774477946807792
 20
76.7484535770985303
 30
0.0
 11
290.8774481344273113
 21
76.5484539168450056
 31
0.0
  0
LINE
  5
1E41
  8
0
 10
291.0774477946807792
 20
76.7484535770985303
 30
0.0
 11
291.0774477946807792
 21
113.3484543987346029
 31
0.0
  0
LINE
  5
1E42
  8
0
 10
290.8774481344273113
 20
113.5484543936821069
 30
0.0
 11
291.0774477946807792
 21
113.3484543987346029
 31
0.0
  0
LINE
  5
1E43
  8
0
 10
251.2774483490040041
 20
76.5484539168450056
 30
0.0
 11
251.0774486887505077
 21
76.7484535770985303
 31
0.0
  0
LINE
  5
1E44
  8
0
 10
251.277447872166789
 20
76.5484543936820501
 30
0.0
 11
290.8774486112644126
 21
76.5484543936821638
 31
0.0
  0
LINE
  5
1E45
  8
0
 10
290.8774481344273113
 20
113.5484543936823059
 30
0.0
 11
282.7841664853742145
 21
113.5484543936821069
 31
0.0
  0
LINE
  5
1E46
  8
0
 10
251.0774486887505077
 20
113.3484543987346029
 30
0.0
 11
251.2774483490040041
 21
113.5484543936821069
 31
0.0
  0
LINE
  5
1E47
  8
0
 10
251.0774486887505077
 20
113.3484543987346029
 30
0.0
 11
251.0774486887505077
 21
76.7484535770985303
 31
0.0
  0
LINE
  5
1E48
  8
0
 10
291.0774477946807792
 20
113.3484543987346029
 30
0.0
 11
282.7841664853742145
 21
113.3484543987346029
 31
0.0
  0
LINE
  5
1E49
  8
0
 10
251.0774486887505077
 20
76.7484535770985303
 30
0.0
 11
291.0774477946807792
 21
76.7484535770985303
 31
0.0
  0
LINE
  5
1E66
  8
0
 10
290.8774481344273113
 20
76.5484539168450056
 30
0.0
 11
291.0774477946807792
 21
76.7484535770985303
 31
0.0
  0
CIRCLE
  5
1E80
  8
3
 10
271.077448241715615
 20
210.5484542595719972
 30
0.0
 40
4.0
  0
CIRCLE
  5
1E81
  8
0
 10
271.077448241715615
 20
210.5484542595719972
 30
0.0
 40
3.3235000000000001
  0
LINE
  5
1E82
  8
1
 10
246.0774482417157003
 20
242.548454259571912
 30
0.0
 11
296.0774482417156719
 21
242.548454259571912
 31
0.0
  0
LINE
  5
1E83
  8
1
 10
271.0774482417156719
 20
267.5484538125369909
 30
0.0
 11
271.077448241715615
 21
197.548455153641612
 31
0.0
  0
LINE
  5
1E84
  8
1
 10
264.577448241715615
 20
210.5484542595719972
 30
0.0
 11
277.577448241715615
 21
210.5484542595719972
 31
0.0
  0
CIRCLE
  5
1E85
  8
0
 10
271.0774482417156719
 20
242.548454259571912
 30
0.0
 40
18.0000569816457698
  0
CIRCLE
  5
1E86
  8
0
 10
271.0774482417156719
 20
242.548454259571912
 30
0.0
 40
18.9999999999999716
  0
CIRCLE
  5
1E87
  8
0
 10
271.0774482417156719
 20
242.548454259571912
 30
0.0
 40
5.6339745962155803
  0
LINE
  5
1E88
  8
0
 10
272.809499049284284
 20
239.5484542595721109
 30
0.0
 11
274.5415498568532939
 21
242.5484542595721109
 31
0.0
  0
LINE
  5
1E89
  8
0
 10
274.5415498568532939
 20
242.5484542595721109
 30
0.0
 11
272.809499049284284
 21
245.548454259571912
 31
0.0
  0
LINE
  5
1E8A
  8
0
 10
272.809499049284284
 20
245.548454259571912
 30
0.0
 11
269.3453974341460935
 21
245.548454259571912
 31
0.0
  0
LINE
  5
1E8B
  8
0
 10
269.3453974341460935
 20
245.548454259571912
 30
0.0
 11
267.6133466265778225
 21
242.548454259571912
 31
0.0
  0
LINE
  5
1E8C
  8
0
 10
267.6133466265778225
 20
242.548454259571912
 30
0.0
 11
269.3453974341471167
 21
239.5484542595714004
 31
0.0
  0
LINE
  5
1E8D
  8
0
 10
269.3453974341471167
 20
239.5484542595714004
 30
0.0
 11
272.809499049284284
 21
239.5484542595721109
 31
0.0
  0
CIRCLE
  5
1E8E
  8
0
 10
271.0774482417156719
 20
242.548454259571912
 30
0.0
 40
6.5
  0
CIRCLE
  5
1E8F
  8
0
 10
271.0774482417156719
 20
242.548454259571912
 30
0.0
 40
7.0
  0
CIRCLE
  5
1E90
  8
0
 10
271.0774482417156719
 20
242.548454259571912
 30
0.0
 40
8.0
  0
ARC
  5
1E9A
  8
0
 10
231.1810707717085904
 20
328.2136812546203828
 30
0.0
 40
12.5
 50
330.4505426391768879
 51
259.5494573608237943
  0
LINE
  5
1E9B
  8
0
 10
229.4704493257108879
 20
314.727159306078704
 30
0.0
 11
242.6119122377421888
 21
320.8551241013188928
 31
0.0
  0
LINE
  5
1E9C
  8
0
 10
242.6119122377421888
 20
320.8551241013188928
 30
0.0
 11
242.0551997064976035
 21
322.048997977307522
 31
0.0
  0
LINE
  5
1E9D
  8
0
 10
228.8889846866256903
 20
315.9210331820676174
 30
0.0
 11
242.0304475986569912
 21
322.0489979773076925
 31
0.0
  0
LINE
  5
1E9F
  8
0
 10
229.4704493257108879
 20
314.727159306078704
 30
0.0
 11
228.9137367944663026
 21
315.92103318206739
 31
0.0
  0
LINE
  5
1EA0
  8
1
 10
271.0774482417156719
 20
242.548454259571912
 30
0.0
 11
223.7442276963643053
 21
344.0548732890825931
 31
0.0
  0
LINE
  5
1EA1
  8
0
 10
525.7636602862929749
 20
76.5484539168450056
 30
0.0
 11
525.5636606260394501
 21
76.7484535770985303
 31
0.0
  0
LINE
  5
1EAC
  8
0
 10
565.5636597319697785
 20
76.7484535770985303
 30
0.0
 11
525.5636606260394501
 21
76.7484535770985303
 31
0.0
  0
LINE
  5
1EAD
  8
0
 10
565.5636597319697785
 20
113.3484543987346029
 30
0.0
 11
565.5636597319697785
 21
76.7484535770985303
 31
0.0
  0
LINE
  5
1EAE
  8
0
 10
565.5636597319697785
 20
113.3484543987346029
 30
0.0
 11
565.3636600717162537
 21
113.5484543936821069
 31
0.0
  0
LINE
  5
1EAF
  8
0
 10
565.3636605485535256
 20
76.5484543936820501
 30
0.0
 11
525.7636598094559304
 21
76.5484543936821638
 31
0.0
  0
LINE
  5
1EB0
  8
0
 10
565.3636600717162537
 20
76.5484539168450056
 30
0.0
 11
565.5636597319697785
 21
76.7484535770985303
 31
0.0
  0
LINE
  5
1EB1
  8
0
 10
525.7636602862929749
 20
113.5484543936821069
 30
0.0
 11
525.5636606260394501
 21
113.3484543987346029
 31
0.0
  0
LINE
  5
1EB2
  8
0
 10
525.5636606260394501
 20
76.7484535770985303
 30
0.0
 11
525.5636606260394501
 21
113.3484543987346029
 31
0.0
  0
LINE
  5
1EB3
  8
0
 10
525.5636606260394501
 20
76.7484535770985303
 30
0.0
 11
525.7636602862929749
 21
76.5484539168450056
 31
0.0
  0
LINE
  5
1EB4
  8
1
 10
545.563660179004728
 20
62.817510617917371
 30
0.0
 11
545.563660179004728
 21
147.548455153641612
 31
0.0
  0
LINE
  5
1EB5
  8
0
 10
527.063660179004728
 20
67.0484543936821638
 30
0.0
 11
564.063660179004728
 21
67.0484543936821638
 31
0.0
  0
LINE
  5
1EB6
  8
0
 10
563.5636601790046143
 20
66.5484543936821638
 30
0.0
 11
527.563660179004728
 21
66.5484543936821638
 31
0.0
  0
LINE
  5
1EB7
  8
0
 10
527.063660179004728
 20
76.5484543936822632
 30
0.0
 11
527.063660179004728
 21
67.0484543936821638
 31
0.0
  0
LINE
  5
1EB8
  8
0
 10
564.063660179004728
 20
67.0484543936821638
 30
0.0
 11
564.063660179004728
 21
76.5484543936822632
 31
0.0
  0
LINE
  5
1EB9
  8
0
 10
563.5636601790046143
 20
66.5484543936821638
 30
0.0
 11
564.063660179004728
 21
67.0484543936821638
 31
0.0
  0
LINE
  5
1EBA
  8
0
 10
527.063660179004728
 20
67.0484543936821638
 30
0.0
 11
527.563660179004728
 21
66.5484543936821638
 31
0.0
  0
LINE
  5
1EBC
  8
0
 10
525.5636606260400185
 20
113.3484543987346029
 30
0.0
 11
565.5636597319697785
 21
113.3484543987346029
 31
0.0
  0
LINE
  5
1EBD
  8
0
 10
526.5636601790051827
 20
130.548455153641612
 30
0.0
 11
527.563660179004728
 21
129.548455153641612
 31
0.0
  0
LINE
  5
1EBE
  8
0
 10
526.563660179004728
 20
141.548455153641612
 30
0.0
 11
526.5636601790051827
 21
130.548455153641612
 31
0.0
  0
LINE
  5
1EBF
  8
0
 10
527.563660179004728
 20
142.548455153641612
 30
0.0
 11
526.563660179004728
 21
141.548455153641612
 31
0.0
  0
LINE
  5
1EC0
  8
0
 10
545.563660179004728
 20
130.548455153641612
 30
0.0
 11
564.563660179004728
 21
130.548455153641612
 31
0.0
  0
LINE
  5
1EC1
  8
0
 10
526.5636601790051827
 20
130.548455153641612
 30
0.0
 11
545.563660179004728
 21
130.548455153641612
 31
0.0
  0
LINE
  5
1EC3
  8
0
 10
545.563660179004728
 20
141.548455153641612
 30
0.0
 11
526.563660179004728
 21
141.548455153641612
 31
0.0
  0
LINE
  5
1EC4
  8
0
 10
564.563660179004728
 20
141.548455153641612
 30
0.0
 11
545.563660179004728
 21
141.548455153641612
 31
0.0
  0
LINE
  5
1EC5
  8
0
 10
527.563660179004728
 20
142.548455153641612
 30
0.0
 11
563.5636601790046143
 21
142.548455153641612
 31
0.0
  0
LINE
  5
1EC6
  8
0
 10
563.5636601790046143
 20
142.548455153641612
 30
0.0
 11
564.563660179004728
 21
141.548455153641612
 31
0.0
  0
LINE
  5
1EC7
  8
0
 10
564.563660179004728
 20
141.548455153641612
 30
0.0
 11
564.563660179004728
 21
141.0484551536418962
 31
0.0
  0
LINE
  5
1EC8
  8
0
 10
564.563660179004728
 20
130.548455153641612
 30
0.0
 11
563.5636601790046143
 21
129.548455153641612
 31
0.0
  0
LINE
  5
1EC9
  8
0
 10
574.0488898411163063
 20
141.0484551536418962
 30
0.0
 11
553.5934071520777024
 21
141.0484551536418962
 31
0.0
  0
LINE
  5
1ECA
  8
0
 10
553.5934071520777024
 20
131.048455153641612
 30
0.0
 11
574.0488898411165337
 21
131.0484551536418962
 31
0.0
  0
LINE
  5
1ECB
  8
1
 10
603.0053293976610576
 20
136.0484551536418962
 30
0.0
 11
534.7220678197058987
 21
136.0484551536420099
 31
0.0
  0
CIRCLE
  5
1ECC
  8
0
 10
585.5053292450347726
 20
136.0484551536420952
 30
0.0
 40
12.5000001526261695
  0
LINE
  5
1ECD
  8
0
 10
564.563660179004728
 20
131.048455153641811
 30
0.0
 11
564.563660179004728
 21
130.548455153641612
 31
0.0
  0
POLYLINE
  5
1ECE
  8
0
 66
     1
 10
0.0
 20
0.0
 30
0.0
  0
VERTEX
  5
1ECF
  8
0
 10
548.7377936773222018
 20
136.0484551536418962
 30
0.0
 42
0.0959040192898976
  0
VERTEX
  5
1ED0
  8
0
 10
549.1095355838087926
 20
134.1281874581439979
 30
0.0
 42
0.0973817450774579
  0
VERTEX
  5
1ED1
  8
0
 10
550.1599699372575287
 20
132.5129212477091869
 30
0.0
 42
0.099547112948775
 70
     2
 50
314.1606664811690734
  0
VERTEX
  5
1ED2
  8
0
 10
551.7421115007862227
 20
131.4267837318672889
 30
0.0
 42
0.1011342995971684
 50
314.1606664811690734
  0
VERTEX
  5
1ED3
  8
0
 10
553.5934071520777024
 20
131.0484551536418962
 30
0.0
 42
0.1011342995971906
  0
SEQEND
  5
1ED4
  8
0
  0
POLYLINE
  5
1ED5
  8
0
 66
     1
 10
0.0
 20
0.0
 30
0.0
  0
VERTEX
  5
1ED6
  8
0
 10
553.5934071520777024
 20
141.0484551536418962
 30
0.0
 42
0.1011342995971879
  0
VERTEX
  5
1ED7
  8
0
 10
551.7421115007864501
 20
140.6701265754165036
 30
0.0
 42
0.0995471129488199
  0
VERTEX
  5
1ED8
  8
0
 10
550.1599699372575287
 20
139.5839890595746056
 30
0.0
 42
0.0973817450774962
 70
     2
 50
225.8393335188320918
  0
VERTEX
  5
1ED9
  8
0
 10
549.1095355838087926
 20
137.9687228491397093
 30
0.0
 42
0.0959040192899359
 50
225.8393335188320918
  0
VERTEX
  5
1EDA
  8
0
 10
548.7377936773222018
 20
136.0484551536418962
 30
0.0
 42
0.0959040192898976
  0
SEQEND
  5
1EDB
  8
0
  0
POLYLINE
  5
1EDC
  8
0
 66
     1
 10
0.0
 20
0.0
 30
0.0
  0
VERTEX
  5
1EDD
  8
0
 10
542.2643448033331879
 20
141.280228081628195
 30
0.0
 42
0.1018279315367546
  0
VERTEX
  5
1EDE
  8
0
 10
540.3437635829550345
 20
140.8849922842047135
 30
0.0
 42
0.0998113785941405
  0
VERTEX
  5
1EDF
  8
0
 10
538.6989165555895624
 20
139.7478772686488924
 30
0.0
 42
0.0970859191069778
 70
     2
 50
226.0566511766969882
  0
VERTEX
  5
1EE0
  8
0
 10
537.6086605212220775
 20
138.0595551410098096
 30
0.0
 42
0.0952428628799755
 50
226.0566511766969882
  0
VERTEX
  5
1EE1
  8
0
 10
537.222067819705785
 20
136.0484551536411004
 30
0.0
 42
0.0952428628800855
  0
VERTEX
  5
1EE2
  8
0
 10
537.6086605212226459
 20
134.0373551662725049
 30
0.0
 42
0.0970859191070733
  0
VERTEX
  5
1EE3
  8
0
 10
538.6989165555895624
 20
132.3490330386333085
 30
0.0
 42
0.0998113785940756
 70
     2
 50
313.9433488233029266
  0
VERTEX
  5
1EE4
  8
0
 10
540.3437635829544661
 20
131.211918023077601
 30
0.0
 42
0.1018279315367343
 50
313.9433488233029266
  0
VERTEX
  5
1EE5
  8
0
 10
542.2643448033331879
 20
130.8166822256540058
 30
0.0
 42
0.1018279315367815
  0
SEQEND
  5
1EE6
  8
0
  0
POLYLINE
  5
1EE7
  8
0
 66
     1
 10
0.0
 20
0.0
 30
0.0
  0
VERTEX
  5
1EE8
  8
0
 10
542.2643448033331879
 20
130.8166822256540058
 30
0.0
 42
0.097362302681731
  0
VERTEX
  5
1EE9
  8
0
 10
544.2952447461251495
 20
131.2159330812876874
 30
0.0
 42
0.0980165199035983
  0
VERTEX
  5
1EEA
  8
0
 10
546.0110869924386634
 20
132.3490330386333085
 30
0.0
 42
0.0989561355552235
 70
     2
 50
44.6358925315216624
  0
VERTEX
  5
1EEB
  8
0
 10
547.1607340740488326
 20
134.0495233652083016
 30
0.0
 42
0.0996309493898631
 50
44.6358925315216624
  0
VERTEX
  5
1EEC
  8
0
 10
547.5630384218816289
 20
136.0484551536411004
 30
0.0
 42
0.0996309493897527
  0
VERTEX
  5
1EED
  8
0
 10
547.1607340740492873
 20
138.0473869420740129
 30
0.0
 42
0.0989561355551307
  0
VERTEX
  5
1EEE
  8
0
 10
546.0110869924386634
 20
139.7478772686488924
 30
0.0
 42
0.0980165199033672
 70
     2
 50
135.364107468478295
  0
VERTEX
  5
1EEF
  8
0
 10
544.2952447461266274
 20
140.8809772259947977
 30
0.0
 42
0.0973623026816124
 50
135.364107468478295
  0
VERTEX
  5
1EF0
  8
0
 10
542.2643448033331879
 20
141.280228081628195
 30
0.0
 42
0.0973623026816105
  0
SEQEND
  5
1EF1
  8
0
  0
POLYLINE
  5
1EF2
  8
0
 66
     1
 10
0.0
 20
0.0
 30
0.0
  0
VERTEX
  5
1EF3
  8
0
 10
542.2643448033331879
 20
130.8166822256540058
 30
0.0
 42
0.097362302681731
  0
VERTEX
  5
1EF4
  8
0
 10
544.2952447461251495
 20
131.2159330812876874
 30
0.0
 42
0.0980165199035983
  0
VERTEX
  5
1EF5
  8
0
 10
546.0110869924386634
 20
132.3490330386333085
 30
0.0
 42
0.0989561355552235
 70
     2
 50
44.6358925315216624
  0
VERTEX
  5
1EF6
  8
0
 10
547.1607340740488326
 20
134.0495233652083016
 30
0.0
 42
0.0996309493898631
 50
44.6358925315216624
  0
VERTEX
  5
1EF7
  8
0
 10
547.5630384218816289
 20
136.0484551536411004
 30
0.0
 42
0.0996309493897527
  0
VERTEX
  5
1EF8
  8
0
 10
547.1607340740492873
 20
138.0473869420740129
 30
0.0
 42
0.0989561355551307
  0
VERTEX
  5
1EF9
  8
0
 10
546.0110869924386634
 20
139.7478772686488924
 30
0.0
 42
0.0980165199033672
 70
     2
 50
135.364107468478295
  0
VERTEX
  5
1EFA
  8
0
 10
544.2952447461266274
 20
140.8809772259947977
 30
0.0
 42
0.0973623026816107
 50
135.364107468478295
  0
VERTEX
  5
1EFB
  8
0
 10
542.2643448033331879
 20
141.280228081628195
 30
0.0
 42
0.0973623026816105
  0
SEQEND
  5
1EFC
  8
0
  0
POLYLINE
  5
1EFD
  8
0
 66
     1
 10
0.0
 20
0.0
 30
0.0
 70
     1
  0
VERTEX
  5
1EFE
  8
0
 10
545.8848199245444448
 20
136.0484551536411004
 30
0.0
 42
0.0971327249038991
  0
VERTEX
  5
1EFF
  8
0
 10
545.6216489375019592
 20
137.3903717453696061
 30
0.0
 42
0.0979181960277107
  0
VERTEX
  5
1F00
  8
0
 10
544.8752676745648387
 20
138.5233288877942073
 30
0.0
 42
0.0990498840403848
 70
     2
 50
134.5614501522522914
  0
VERTEX
  5
1F01
  8
0
 10
543.7545087364883329
 20
139.2828580170940995
 30
0.0
 42
0.0998652351304675
 50
134.5614501522522914
  0
VERTEX
  5
1F02
  8
0
 10
542.4379929407396048
 20
139.5484551536414131
 30
0.0
 42
0.0998652351304836
  0
VERTEX
  5
1F03
  8
0
 10
541.1214771449898535
 20
139.2828580170939006
 30
0.0
 42
0.0990498840402647
  0
VERTEX
  5
1F04
  8
0
 10
540.000718206914371
 20
138.5233288877942073
 30
0.0
 42
0.0979181960276626
 70
     2
 50
225.4385498477477086
  0
VERTEX
  5
1F05
  8
0
 10
539.2543369439767957
 20
137.3903717453692082
 30
0.0
 42
0.0971327249037667
 50
225.4385498477477086
  0
VERTEX
  5
1F06
  8
0
 10
538.9911659569347648
 20
136.0484551536411004
 30
0.0
 42
0.0971327249036698
  0
VERTEX
  5
1F07
  8
0
 10
539.2543369439767957
 20
134.7065385619117137
 30
0.0
 42
0.0979181960273831
  0
VERTEX
  5
1F08
  8
0
 10
540.000718206914371
 20
133.5735814194879936
 30
0.0
 42
0.09904988404031
 70
     2
 50
314.5614501522524051
  0
VERTEX
  5
1F09
  8
0
 10
541.1214771449895125
 20
132.8140522901888971
 30
0.0
 42
0.0998652351306174
 50
314.5614501522524051
  0
VERTEX
  5
1F0A
  8
0
 10
542.4379929407396048
 20
132.5484551536409015
 30
0.0
 42
0.0998652351304836
  0
VERTEX
  5
1F0B
  8
0
 10
543.7545087364892424
 20
132.814052290188414
 30
0.0
 42
0.0990498840402647
  0
VERTEX
  5
1F0C
  8
0
 10
544.8752676745648387
 20
133.5735814194879936
 30
0.0
 42
0.0979181960275695
 70
     2
 50
45.4385498477476375
  0
VERTEX
  5
1F0D
  8
0
 10
545.6216489375024139
 20
134.7065385619127085
 30
0.0
 42
0.0971327249037344
 50
45.4385498477476375
  0
SEQEND
  5
1F0E
  8
0
  0
POLYLINE
  5
1F0F
  8
3
 66
     1
 10
0.0
 20
0.0
 30
0.0
 70
     1
  0
VERTEX
  5
1F10
  8
3
 10
545.4792402305542964
 20
136.0484551536411004
 30
0.0
 42
0.0971327258519944
  0
VERTEX
  5
1F11
  8
3
 10
545.2536650968554568
 20
137.1986693736153882
 30
0.0
 42
0.0979181964349817
  0
VERTEX
  5
1F12
  8
3
 10
544.6139097212736715
 20
138.1697754972007033
 30
0.0
 42
0.0990498836534437
 70
     2
 50
134.5614504600414136
  0
VERTEX
  5
1F13
  8
3
 10
543.6532591941340797
 20
138.8208004646714073
 30
0.0
 42
0.0998652341608314
 50
134.5614504600414136
  0
VERTEX
  5
1F14
  8
3
 10
542.5248170698332615
 20
139.0484551536411004
 30
0.0
 42
0.0998652341607731
  0
VERTEX
  5
1F15
  8
3
 10
541.3963749455330117
 20
138.8208004646716063
 30
0.0
 42
0.0990498836534727
  0
VERTEX
  5
1F16
  8
3
 10
540.4357244183929652
 20
138.1697754972007033
 30
0.0
 42
0.0979181964351467
 70
     2
 50
225.4385495399585011
  0
VERTEX
  5
1F17
  8
3
 10
539.7959690428116346
 20
137.1986693736153882
 30
0.0
 42
0.0971327258521865
 50
225.4385495399585011
  0
VERTEX
  5
1F18
  8
3
 10
539.5703939091123402
 20
136.0484551536411004
 30
0.0
 42
0.0971327258526122
  0
VERTEX
  5
1F19
  8
3
 10
539.7959690428128852
 20
134.8982409336651074
 30
0.0
 42
0.0979181964352068
  0
VERTEX
  5
1F1A
  8
3
 10
540.4357244183929652
 20
133.9271348100816112
 30
0.0
 42
0.0990498836536073
 70
     2
 50
314.5614504600414989
  0
VERTEX
  5
1F1B
  8
3
 10
541.3963749455325569
 20
133.2761098426113904
 30
0.0
 42
0.099865234161027
 50
314.5614504600414989
  0
VERTEX
  5
1F1C
  8
3
 10
542.5248170698332615
 20
133.0484551536411004
 30
0.0
 42
0.0998652341608898
  0
VERTEX
  5
1F1D
  8
3
 10
543.6532591941346482
 20
133.2761098426111062
 30
0.0
 42
0.0990498836534142
  0
VERTEX
  5
1F1E
  8
3
 10
544.6139097212736715
 20
133.9271348100816112
 30
0.0
 42
0.0979181964348735
 70
     2
 50
45.4385495399584869
  0
VERTEX
  5
1F1F
  8
3
 10
545.2536650968554568
 20
134.8982409336663864
 30
0.0
 42
0.0971327258519567
 50
45.4385495399584869
  0
SEQEND
  5
1F20
  8
3
  0
POLYLINE
  5
1F21
  8
0
 66
     1
 10
0.0
 20
0.0
 30
0.0
 70
     1
  0
VERTEX
  5
1F22
  8
0
 10
545.0736605411971141
 20
136.0484551536411004
 30
0.0
 42
0.0971327286487094
  0
VERTEX
  5
1F23
  8
0
 10
544.8856812583247802
 20
137.0069669999193991
 30
0.0
 42
0.097918197636349
  0
VERTEX
  5
1F24
  8
0
 10
544.3525517606130961
 20
137.8162221066075972
 30
0.0
 42
0.0990498825131807
 70
     2
 50
134.5614513677205082
  0
VERTEX
  5
1F25
  8
0
 10
543.5520096330637898
 20
138.3587429116026897
 30
0.0
 42
0.0998652313015481
 50
134.5614513677205082
  0
VERTEX
  5
1F26
  8
0
 10
542.6116411625803266
 20
138.5484551536414131
 30
0.0
 42
0.0998652313015007
  0
VERTEX
  5
1F27
  8
0
 10
541.671272692096295
 20
138.3587429116026897
 30
0.0
 42
0.0990498825130475
  0
VERTEX
  5
1F28
  8
0
 10
540.8707305645474435
 20
137.8162221066075972
 30
0.0
 42
0.0979181976363491
 70
     2
 50
225.4385486322794918
  0
VERTEX
  5
1F29
  8
0
 10
540.3376010668356457
 20
137.0069669999193991
 30
0.0
 42
0.0971327286487094
 50
225.4385486322794918
  0
VERTEX
  5
1F2A
  8
0
 10
540.1496217839635392
 20
136.0484551536411004
 30
0.0
 42
0.0971327286487094
  0
VERTEX
  5
1F2B
  8
0
 10
540.3376010668356457
 20
135.089943307362887
 30
0.0
 42
0.0979181976363489
  0
VERTEX
  5
1F2C
  8
0
 10
540.8707305645474435
 20
134.2806882006746889
 30
0.0
 42
0.0990498825131459
 70
     2
 50
314.5614513677205082
  0
VERTEX
  5
1F2D
  8
0
 10
541.671272692096295
 20
133.7381673956797954
 30
0.0
 42
0.0998652313016181
 50
314.5614513677205082
  0
VERTEX
  5
1F2E
  8
0
 10
542.6116411625803266
 20
133.5484551536409015
 30
0.0
 42
0.0998652313016181
  0
VERTEX
  5
1F2F
  8
0
 10
543.5520096330642446
 20
133.7381673956797954
 30
0.0
 42
0.099049882513146
  0
VERTEX
  5
1F30
  8
0
 10
544.3525517606130961
 20
134.2806882006746889
 30
0.0
 42
0.0979181976362186
 70
     2
 50
45.4385486322795131
  0
VERTEX
  5
1F31
  8
0
 10
544.8856812583247802
 20
135.0899433073624039
 30
0.0
 42
0.0971327286486642
 50
45.4385486322795131
  0
SEQEND
  5
1F32
  8
0
  0
LINE
  5
1F39
  8
1
 10
213.6357790230593139
 20
136.0484551536420952
 30
0.0
 11
271.077448241715615
 21
136.0484551536420099
 31
0.0
  0
LINE
  5
1F3A
  8
0
 10
118.5449407400724056
 20
131.0484551536428057
 30
0.0
 11
118.544940740072505
 21
130.5484551536420952
 31
0.0
  0
POLYLINE
  5
1F3B
  8
0
 10
120.3323333360665544
 20
141.0484551536425499
 30
0.0
 66
     1
 70
     8
  0
VERTEX
  8
0
  5
3714
 10
120.332
 20
141.048
 30
0.00000
  70
    32
  0
VERTEX
  8
0
  5
3715
 10
120.399
 20
141.047
 30
0.00000
  70
    32
  0
VERTEX
  8
0
  5
3716
 10
120.465
 20
141.043
 30
0.00000
  70
    32
  0
VERTEX
  8
0
  5
3717
 10
120.531
 20
141.036
 30
0.00000
  70
    32
  0
VERTEX
  8
0
  5
3718
 10
120.597
 20
141.025
 30
0.00000
  70
    32
  0
VERTEX
  8
0
  5
3719
 10
120.663
 20
141.012
 30
0.00000
  70
    32
  0
VERTEX
  8
0
  5
371A
 10
120.729
 20
140.996
 30
0.00000
  70
    32
  0
VERTEX
  8
0
  5
371B
 10
120.795
 20
140.976
 30
0.00000
  70
    32
  0
VERTEX
  8
0
  5
371C
 10
120.860
 20
140.954
 30
0.00000
  70
    32
  0
VERTEX
  8
0
  5
371D
 10
120.925
 20
140.929
 30
0.00000
  70
    32
  0
VERTEX
  8
0
  5
371E
 10
120.989
 20
140.901
 30
0.00000
  70
    32
  0
VERTEX
  8
0
  5
371F
 10
121.053
 20
140.869
 30
0.00000
  70
    32
  0
VERTEX
  8
0
  5
3720
 10
121.117
 20
140.835
 30
0.00000
  70
    32
  0
VERTEX
  8
0
  5
3721
 10
121.180
 20
140.798
 30
0.00000
  70
    32
  0
VERTEX
  8
0
  5
3722
 10
121.243
 20
140.759
 30
0.00000
  70
    32
  0
VERTEX
  8
0
  5
3723
 10
121.305
 20
140.716
 30
0.00000
  70
    32
  0
VERTEX
  8
0
  5
3724
 10
121.367
 20
140.671
 30
0.00000
  70
    32
  0
VERTEX
  8
0
  5
3725
 10
121.427
 20
140.622
 30
0.00000
  70
    32
  0
VERTEX
  8
0
  5
3726
 10
121.488
 20
140.571
 30
0.00000
  70
    32
  0
VERTEX
  8
0
  5
3727
 10
121.547
 20
140.518
 30
0.00000
  70
    32
  0
VERTEX
  8
0
  5
3728
 10
121.606
 20
140.461
 30
0.00000
  70
    32
  0
VERTEX
  8
0
  5
3729
 10
121.664
 20
140.402
 30
0.00000
  70
    32
  0
VERTEX
  8
0
  5
372A
 10
121.721
 20
140.340
 30
0.00000
  70
    32
  0
VERTEX
  8
0
  5
372B
 10
121.778
 20
140.276
 30
0.00000
  70
    32
  0
VERTEX
  8
0
  5
372C
 10
121.833
 20
140.209
 30
0.00000
  70
    32
  0
VERTEX
  8
0
  5
372D
 10
121.888
 20
140.140
 30
0.00000
  70
    32
  0
VERTEX
  8
0
  5
372E
 10
121.942
 20
140.068
 30
0.00000
  70
    32
  0
VERTEX
  8
0
  5
372F
 10
121.994
 20
139.994
 30
0.00000
  70
    32
  0
VERTEX
  8
0
  5
3730
 10
122.046
 20
139.917
 30
0.00000
  70
    32
  0
VERTEX
  8
0
  5
3731
 10
122.096
 20
139.838
 30
0.00000
  70
    32
  0
VERTEX
  8
0
  5
3732
 10
122.146
 20
139.757
 30
0.00000
  70
    32
  0
VERTEX
  8
0
  5
3733
 10
122.195
 20
139.673
 30
0.00000
  70
    32
  0
VERTEX
  8
0
  5
3734
 10
122.242
 20
139.587
 30
0.00000
  70
    32
  0
VERTEX
  8
0
  5
3735
 10
122.288
 20
139.499
 30
0.00000
  70
    32
  0
VERTEX
  8
0
  5
3736
 10
122.333
 20
139.410
 30
0.00000
  70
    32
  0
VERTEX
  8
0
  5
3737
 10
122.377
 20
139.318
 30
0.00000
  70
    32
  0
VERTEX
  8
0
  5
3738
 10
122.419
 20
139.224
 30
0.00000
  70
    32
  0
VERTEX
  8
0
  5
3739
 10
122.461
 20
139.128
 30
0.00000
  70
    32
  0
VERTEX
  8
0
  5
373A
 10
122.501
 20
139.030
 30
0.00000
  70
    32
  0
VERTEX
  8
0
  5
373B
 10
122.539
 20
138.931
 30
0.00000
  70
    32
  0
VERTEX
  8
0
  5
373C
 10
122.577
 20
138.829
 30
0.00000
  70
    32
  0
VERTEX
  8
0
  5
373D
 10
122.613
 20
138.726
 30
0.00000
  70
    32
  0
VERTEX
  8
0
  5
373E
 10
122.647
 20
138.622
 30
0.00000
  70
    32
  0
VERTEX
  8
0
  5
373F
 10
122.680
 20
138.516
 30
0.00000
  70
    32
  0
VERTEX
  8
0
  5
3740
 10
122.712
 20
138.408
 30
0.00000
  70
    32
  0
VERTEX
  8
0
  5
3741
 10
122.742
 20
138.299
 30
0.00000
  70
    32
  0
VERTEX
  8
0
  5
3742
 10
122.771
 20
138.189
 30
0.00000
  70
    32
  0
VERTEX
  8
0
  5
3743
 10
122.799
 20
138.077
 30
0.00000
  70
    32
  0
VERTEX
  8
0
  5
3744
 10
122.825
 20
137.964
 30
0.00000
  70
    32
  0
VERTEX
  8
0
  5
3745
 10
122.849
 20
137.850
 30
0.00000
  70
    32
  0
VERTEX
  8
0
  5
3746
 10
122.872
 20
137.735
 30
0.00000
  70
    32
  0
VERTEX
  8
0
  5
3747
 10
122.893
 20
137.619
 30
0.00000
  70
    32
  0
VERTEX
  8
0
  5
3748
 10
122.913
 20
137.502
 30
0.00000
  70
    32
  0
VERTEX
  8
0
  5
3749
 10
122.931
 20
137.384
 30
0.00000
  70
    32
  0
VERTEX
  8
0
  5
374A
 10
122.948
 20
137.265
 30
0.00000
  70
    32
  0
VERTEX
  8
0
  5
374B
 10
122.963
 20
137.145
 30
0.00000
  70
    32
  0
VERTEX
  8
0
  5
374C
 10
122.976
 20
137.025
 30
0.00000
  70
    32
  0
VERTEX
  8
0
  5
374D
 10
122.988
 20
136.904
 30
0.00000
  70
    32
  0
VERTEX
  8
0
  5
374E
 10
122.999
 20
136.783
 30
0.00000
  70
    32
  0
VERTEX
  8
0
  5
374F
 10
123.007
 20
136.661
 30
0.00000
  70
    32
  0
VERTEX
  8
0
  5
3750
 10
123.014
 20
136.539
 30
0.00000
  70
    32
  0
VERTEX
  8
0
  5
3751
 10
123.020
 20
136.417
 30
0.00000
  70
    32
  0
VERTEX
  8
0
  5
3752
 10
123.023
 20
136.294
 30
0.00000
  70
    32
  0
VERTEX
  8
0
  5
3753
 10
123.025
 20
136.171
 30
0.00000
  70
    32
  0
VERTEX
  8
0
  5
3754
 10
123.026
 20
136.048
 30
0.00000
  70
    32
  0
VERTEX
  8
0
  5
3755
 10
123.025
 20
135.926
 30
0.00000
  70
    32
  0
VERTEX
  8
0
  5
3756
 10
123.022
 20
135.803
 30
0.00000
  70
    32
  0
VERTEX
  8
0
  5
3757
 10
123.018
 20
135.680
 30
0.00000
  70
    32
  0
VERTEX
  8
0
  5
3758
 10
123.012
 20
135.558
 30
0.00000
  70
    32
  0
VERTEX
  8
0
  5
3759
 10
123.004
 20
135.436
 30
0.00000
  70
    32
  0
VERTEX
  8
0
  5
375A
 10
122.995
 20
135.314
 30
0.00000
  70
    32
  0
VERTEX
  8
0
  5
375B
 10
122.984
 20
135.193
 30
0.00000
  70
    32
  0
VERTEX
  8
0
  5
375C
 10
122.972
 20
135.072
 30
0.00000
  70
    32
  0
VERTEX
  8
0
  5
375D
 10
122.958
 20
134.952
 30
0.00000
  70
    32
  0
VERTEX
  8
0
  5
375E
 10
122.942
 20
134.832
 30
0.00000
  70
    32
  0
VERTEX
  8
0
  5
375F
 10
122.925
 20
134.713
 30
0.00000
  70
    32
  0
VERTEX
  8
0
  5
3760
 10
122.906
 20
134.595
 30
0.00000
  70
    32
  0
VERTEX
  8
0
  5
3761
 10
122.885
 20
134.478
 30
0.00000
  70
    32
  0
VERTEX
  8
0
  5
3762
 10
122.864
 20
134.362
 30
0.00000
  70
    32
  0
VERTEX
  8
0
  5
3763
 10
122.840
 20
134.247
 30
0.00000
  70
    32
  0
VERTEX
  8
0
  5
3764
 10
122.815
 20
134.133
 30
0.00000
  70
    32
  0
VERTEX
  8
0
  5
3765
 10
122.789
 20
134.020
 30
0.00000
  70
    32
  0
VERTEX
  8
0
  5
3766
 10
122.761
 20
133.908
 30
0.00000
  70
    32
  0
VERTEX
  8
0
  5
3767
 10
122.731
 20
133.798
 30
0.00000
  70
    32
  0
VERTEX
  8
0
  5
3768
 10
122.701
 20
133.689
 30
0.00000
  70
    32
  0
VERTEX
  8
0
  5
3769
 10
122.668
 20
133.581
 30
0.00000
  70
    32
  0
VERTEX
  8
0
  5
376A
 10
122.635
 20
133.475
 30
0.00000
  70
    32
  0
VERTEX
  8
0
  5
376B
 10
122.599
 20
133.371
 30
0.00000
  70
    32
  0
VERTEX
  8
0
  5
376C
 10
122.563
 20
133.268
 30
0.00000
  70
    32
  0
VERTEX
  8
0
  5
376D
 10
122.525
 20
133.166
 30
0.00000
  70
    32
  0
VERTEX
  8
0
  5
376E
 10
122.486
 20
133.067
 30
0.00000
  70
    32
  0
VERTEX
  8
0
  5
376F
 10
122.445
 20
132.969
 30
0.00000
  70
    32
  0
VERTEX
  8
0
  5
3770
 10
122.404
 20
132.873
 30
0.00000
  70
    32
  0
VERTEX
  8
0
  5
3771
 10
122.361
 20
132.779
 30
0.00000
  70
    32
  0
VERTEX
  8
0
  5
3772
 10
122.316
 20
132.687
 30
0.00000
  70
    32
  0
VERTEX
  8
0
  5
3773
 10
122.271
 20
132.597
 30
0.00000
  70
    32
  0
VERTEX
  8
0
  5
3774
 10
122.224
 20
132.510
 30
0.00000
  70
    32
  0
VERTEX
  8
0
  5
3775
 10
122.177
 20
132.424
 30
0.00000
  70
    32
  0
VERTEX
  8
0
  5
3776
 10
122.128
 20
132.340
 30
0.00000
  70
    32
  0
VERTEX
  8
0
  5
3777
 10
122.078
 20
132.259
 30
0.00000
  70
    32
  0
VERTEX
  8
0
  5
3778
 10
122.027
 20
132.180
 30
0.00000
  70
    32
  0
VERTEX
  8
0
  5
3779
 10
121.975
 20
132.103
 30
0.00000
  70
    32
  0
VERTEX
  8
0
  5
377A
 10
121.922
 20
132.029
 30
0.00000
  70
    32
  0
VERTEX
  8
0
  5
377B
 10
121.868
 20
131.957
 30
0.00000
  70
    32
  0
VERTEX
  8
0
  5
377C
 10
121.813
 20
131.888
 30
0.00000
  70
    32
  0
VERTEX
  8
0
  5
377D
 10
121.757
 20
131.821
 30
0.00000
  70
    32
  0
VERTEX
  8
0
  5
377E
 10
121.700
 20
131.757
 30
0.00000
  70
    32
  0
VERTEX
  8
0
  5
377F
 10
121.643
 20
131.695
 30
0.00000
  70
    32
  0
VERTEX
  8
0
  5
3780
 10
121.584
 20
131.636
 30
0.00000
  70
    32
  0
VERTEX
  8
0
  5
3781
 10
121.525
 20
131.579
 30
0.00000
  70
    32
  0
VERTEX
  8
0
  5
3782
 10
121.465
 20
131.526
 30
0.00000
  70
    32
  0
VERTEX
  8
0
  5
3783
 10
121.405
 20
131.475
 30
0.00000
  70
    32
  0
VERTEX
  8
0
  5
3784
 10
121.344
 20
131.426
 30
0.00000
  70
    32
  0
VERTEX
  8
0
  5
3785
 10
121.282
 20
131.381
 30
0.00000
  70
    32
  0
VERTEX
  8
0
  5
3786
 10
121.220
 20
131.338
 30
0.00000
  70
    32
  0
VERTEX
  8
0
  5
3787
 10
121.157
 20
131.298
 30
0.00000
  70
    32
  0
VERTEX
  8
0
  5
3788
 10
121.093
 20
131.262
 30
0.00000
  70
    32
  0
VERTEX
  8
0
  5
3789
 10
121.030
 20
131.227
 30
0.00000
  70
    32
  0
VERTEX
  8
0
  5
378A
 10
120.965
 20
131.196
 30
0.00000
  70
    32
  0
VERTEX
  8
0
  5
378B
 10
120.901
 20
131.168
 30
0.00000
  70
    32
  0
VERTEX
  8
0
  5
378C
 10
120.836
 20
131.143
 30
0.00000
  70
    32
  0
VERTEX
  8
0
  5
378D
 10
120.770
 20
131.121
 30
0.00000
  70
    32
  0
VERTEX
  8
0
  5
378E
 10
120.705
 20
131.101
 30
0.00000
  70
    32
  0
VERTEX
  8
0
  5
378F
 10
120.639
 20
131.085
 30
0.00000
  70
    32
  0
VERTEX
  8
0
  5
3790
 10
120.573
 20
131.072
 30
0.00000
  70
    32
  0
VERTEX
  8
0
  5
3791
 10
120.507
 20
131.061
 30
0.00000
  70
    32
  0
VERTEX
  8
0
  5
3792
 10
120.440
 20
131.054
 30
0.00000
  70
    32
  0
VERTEX
  8
0
  5
3793
 10
120.374
 20
131.050
 30
0.00000
  70
    32
  0
VERTEX
  8
0
  5
3794
 10
120.308
 20
131.048
 30
0.00000
  70
    32
  0
SEQEND
  8
0
  5
3795
  0
LINE
  5
1F3C
  8
0
 10
62.3022532959453201
 20
128.7984551536428057
 30
0.0
 11
62.0624200122176717
 21
128.7984551536428057
 31
0.0
  0
LINE
  5
1F3D
  8
0
 10
62.3022532959453201
 20
143.2984551536428057
 30
0.0
 11
62.0624200122177783
 21
143.2984551536428057
 31
0.0
  0
POLYLINE
  5
1F3E
  8
0
 10
62.0764303252695697
 20
143.2787371612993752
 30
0.0
 66
     1
 70
     8
  0
VERTEX
  8
0
  5
3796
 10
62.0764
 20
143.279
 30
0.00000
  70
    32
  0
VERTEX
  8
0
  5
3797
 10
62.1550
 20
143.290
 30
0.00000
  70
    32
  0
VERTEX
  8
0
  5
3798
 10
62.2337
 20
143.297
 30
0.00000
  70
    32
  0
VERTEX
  8
0
  5
3799
 10
62.3124
 20
143.298
 30
0.00000
  70
    32
  0
VERTEX
  8
0
  5
379A
 10
62.3911
 20
143.295
 30
0.00000
  70
    32
  0
VERTEX
  8
0
  5
379B
 10
62.4698
 20
143.288
 30
0.00000
  70
    32
  0
VERTEX
  8
0
  5
379C
 10
62.5484
 20
143.275
 30
0.00000
  70
    32
  0
VERTEX
  8
0
  5
379D
 10
62.6267
 20
143.258
 30
0.00000
  70
    32
  0
VERTEX
  8
0
  5
379E
 10
62.7049
 20
143.236
 30
0.00000
  70
    32
  0
VERTEX
  8
0
  5
379F
 10
62.7828
 20
143.209
 30
0.00000
  70
    32
  0
VERTEX
  8
0
  5
37A0
 10
62.8604
 20
143.177
 30
0.00000
  70
    32
  0
VERTEX
  8
0
  5
37A1
 10
62.9376
 20
143.141
 30
0.00000
  70
    32
  0
VERTEX
  8
0
  5
37A2
 10
63.0144
 20
143.100
 30
0.00000
  70
    32
  0
VERTEX
  8
0
  5
37A3
 10
63.0908
 20
143.054
 30
0.00000
  70
    32
  0
VERTEX
  8
0
  5
37A4
 10
63.1666
 20
143.004
 30
0.00000
  70
    32
  0
VERTEX
  8
0
  5
37A5
 10
63.2418
 20
142.949
 30
0.00000
  70
    32
  0
VERTEX
  8
0
  5
37A6
 10
63.3165
 20
142.890
 30
0.00000
  70
    32
  0
VERTEX
  8
0
  5
37A7
 10
63.3904
 20
142.826
 30
0.00000
  70
    32
  0
VERTEX
  8
0
  5
37A8
 10
63.4636
 20
142.757
 30
0.00000
  70
    32
  0
VERTEX
  8
0
  5
37A9
 10
63.5361
 20
142.685
 30
0.00000
  70
    32
  0
VERTEX
  8
0
  5
37AA
 10
63.6078
 20
142.607
 30
0.00000
  70
    32
  0
VERTEX
  8
0
  5
37AB
 10
63.6786
 20
142.526
 30
0.00000
  70
    32
  0
VERTEX
  8
0
  5
37AC
 10
63.7484
 20
142.440
 30
0.00000
  70
    32
  0
VERTEX
  8
0
  5
37AD
 10
63.8174
 20
142.350
 30
0.00000
  70
    32
  0
VERTEX
  8
0
  5
37AE
 10
63.8853
 20
142.256
 30
0.00000
  70
    32
  0
VERTEX
  8
0
  5
37AF
 10
63.9522
 20
142.158
 30
0.00000
  70
    32
  0
VERTEX
  8
0
  5
37B0
 10
64.0180
 20
142.055
 30
0.00000
  70
    32
  0
VERTEX
  8
0
  5
37B1
 10
64.0826
 20
141.949
 30
0.00000
  70
    32
  0
VERTEX
  8
0
  5
37B2
 10
64.1461
 20
141.839
 30
0.00000
  70
    32
  0
VERTEX
  8
0
  5
37B3
 10
64.2084
 20
141.725
 30
0.00000
  70
    32
  0
VERTEX
  8
0
  5
37B4
 10
64.2694
 20
141.607
 30
0.00000
  70
    32
  0
VERTEX
  8
0
  5
37B5
 10
64.3291
 20
141.486
 30
0.00000
  70
    32
  0
VERTEX
  8
0
  5
37B6
 10
64.3874
 20
141.361
 30
0.00000
  70
    32
  0
VERTEX
  8
0
  5
37B7
 10
64.4444
 20
141.232
 30
0.00000
  70
    32
  0
VERTEX
  8
0
  5
37B8
 10
64.5000
 20
141.100
 30
0.00000
  70
    32
  0
VERTEX
  8
0
  5
37B9
 10
64.5541
 20
140.965
 30
0.00000
  70
    32
  0
VERTEX
  8
0
  5
37BA
 10
64.6068
 20
140.826
 30
0.00000
  70
    32
  0
VERTEX
  8
0
  5
37BB
 10
64.6579
 20
140.685
 30
0.00000
  70
    32
  0
VERTEX
  8
0
  5
37BC
 10
64.7075
 20
140.540
 30
0.00000
  70
    32
  0
VERTEX
  8
0
  5
37BD
 10
64.7554
 20
140.392
 30
0.00000
  70
    32
  0
VERTEX
  8
0
  5
37BE
 10
64.8018
 20
140.242
 30
0.00000
  70
    32
  0
VERTEX
  8
0
  5
37BF
 10
64.8465
 20
140.088
 30
0.00000
  70
    32
  0
VERTEX
  8
0
  5
37C0
 10
64.8895
 20
139.932
 30
0.00000
  70
    32
  0
VERTEX
  8
0
  5
37C1
 10
64.9309
 20
139.774
 30
0.00000
  70
    32
  0
VERTEX
  8
0
  5
37C2
 10
64.9704
 20
139.613
 30
0.00000
  70
    32
  0
VERTEX
  8
0
  5
37C3
 10
65.0083
 20
139.449
 30
0.00000
  70
    32
  0
VERTEX
  8
0
  5
37C4
 10
65.0443
 20
139.284
 30
0.00000
  70
    32
  0
VERTEX
  8
0
  5
37C5
 10
65.0785
 20
139.116
 30
0.00000
  70
    32
  0
VERTEX
  8
0
  5
37C6
 10
65.1109
 20
138.946
 30
0.00000
  70
    32
  0
VERTEX
  8
0
  5
37C7
 10
65.1414
 20
138.774
 30
0.00000
  70
    32
  0
VERTEX
  8
0
  5
37C8
 10
65.1701
 20
138.601
 30
0.00000
  70
    32
  0
VERTEX
  8
0
  5
37C9
 10
65.1969
 20
138.426
 30
0.00000
  70
    32
  0
VERTEX
  8
0
  5
37CA
 10
65.2217
 20
138.249
 30
0.00000
  70
    32
  0
VERTEX
  8
0
  5
37CB
 10
65.2446
 20
138.071
 30
0.00000
  70
    32
  0
VERTEX
  8
0
  5
37CC
 10
65.2656
 20
137.891
 30
0.00000
  70
    32
  0
VERTEX
  8
0
  5
37CD
 10
65.2847
 20
137.710
 30
0.00000
  70
    32
  0
VERTEX
  8
0
  5
37CE
 10
65.3017
 20
137.528
 30
0.00000
  70
    32
  0
VERTEX
  8
0
  5
37CF
 10
65.3168
 20
137.346
 30
0.00000
  70
    32
  0
VERTEX
  8
0
  5
37D0
 10
65.3299
 20
137.162
 30
0.00000
  70
    32
  0
VERTEX
  8
0
  5
37D1
 10
65.3410
 20
136.977
 30
0.00000
  70
    32
  0
VERTEX
  8
0
  5
37D2
 10
65.3501
 20
136.792
 30
0.00000
  70
    32
  0
VERTEX
  8
0
  5
37D3
 10
65.3571
 20
136.607
 30
0.00000
  70
    32
  0
VERTEX
  8
0
  5
37D4
 10
65.3622
 20
136.421
 30
0.00000
  70
    32
  0
VERTEX
  8
0
  5
37D5
 10
65.3652
 20
136.235
 30
0.00000
  70
    32
  0
VERTEX
  8
0
  5
37D6
 10
65.3662
 20
136.048
 30
0.00000
  70
    32
  0
VERTEX
  8
0
  5
37D7
 10
65.3652
 20
135.862
 30
0.00000
  70
    32
  0
VERTEX
  8
0
  5
37D8
 10
65.3622
 20
135.676
 30
0.00000
  70
    32
  0
VERTEX
  8
0
  5
37D9
 10
65.3571
 20
135.490
 30
0.00000
  70
    32
  0
VERTEX
  8
0
  5
37DA
 10
65.3501
 20
135.305
 30
0.00000
  70
    32
  0
VERTEX
  8
0
  5
37DB
 10
65.3410
 20
135.120
 30
0.00000
  70
    32
  0
VERTEX
  8
0
  5
37DC
 10
65.3299
 20
134.935
 30
0.00000
  70
    32
  0
VERTEX
  8
0
  5
37DD
 10
65.3168
 20
134.751
 30
0.00000
  70
    32
  0
VERTEX
  8
0
  5
37DE
 10
65.3017
 20
134.569
 30
0.00000
  70
    32
  0
VERTEX
  8
0
  5
37DF
 10
65.2847
 20
134.387
 30
0.00000
  70
    32
  0
VERTEX
  8
0
  5
37E0
 10
65.2656
 20
134.206
 30
0.00000
  70
    32
  0
VERTEX
  8
0
  5
37E1
 10
65.2446
 20
134.026
 30
0.00000
  70
    32
  0
VERTEX
  8
0
  5
37E2
 10
65.2217
 20
133.848
 30
0.00000
  70
    32
  0
VERTEX
  8
0
  5
37E3
 10
65.1969
 20
133.671
 30
0.00000
  70
    32
  0
VERTEX
  8
0
  5
37E4
 10
65.1701
 20
133.496
 30
0.00000
  70
    32
  0
VERTEX
  8
0
  5
37E5
 10
65.1414
 20
133.323
 30
0.00000
  70
    32
  0
VERTEX
  8
0
  5
37E6
 10
65.1109
 20
133.151
 30
0.00000
  70
    32
  0
VERTEX
  8
0
  5
37E7
 10
65.0785
 20
132.981
 30
0.00000
  70
    32
  0
VERTEX
  8
0
  5
37E8
 10
65.0443
 20
132.813
 30
0.00000
  70
    32
  0
VERTEX
  8
0
  5
37E9
 10
65.0083
 20
132.648
 30
0.00000
  70
    32
  0
VERTEX
  8
0
  5
37EA
 10
64.9704
 20
132.484
 30
0.00000
  70
    32
  0
VERTEX
  8
0
  5
37EB
 10
64.9309
 20
132.323
 30
0.00000
  70
    32
  0
VERTEX
  8
0
  5
37EC
 10
64.8895
 20
132.165
 30
0.00000
  70
    32
  0
VERTEX
  8
0
  5
37ED
 10
64.8465
 20
132.009
 30
0.00000
  70
    32
  0
VERTEX
  8
0
  5
37EE
 10
64.8018
 20
131.855
 30
0.00000
  70
    32
  0
VERTEX
  8
0
  5
37EF
 10
64.7554
 20
131.705
 30
0.00000
  70
    32
  0
VERTEX
  8
0
  5
37F0
 10
64.7075
 20
131.557
 30
0.00000
  70
    32
  0
VERTEX
  8
0
  5
37F1
 10
64.6579
 20
131.412
 30
0.00000
  70
    32
  0
VERTEX
  8
0
  5
37F2
 10
64.6068
 20
131.271
 30
0.00000
  70
    32
  0
VERTEX
  8
0
  5
37F3
 10
64.5541
 20
131.132
 30
0.00000
  70
    32
  0
VERTEX
  8
0
  5
37F4
 10
64.5000
 20
130.997
 30
0.00000
  70
    32
  0
VERTEX
  8
0
  5
37F5
 10
64.4444
 20
130.865
 30
0.00000
  70
    32
  0
VERTEX
  8
0
  5
37F6
 10
64.3874
 20
130.736
 30
0.00000
  70
    32
  0
VERTEX
  8
0
  5
37F7
 10
64.3291
 20
130.611
 30
0.00000
  70
    32
  0
VERTEX
  8
0
  5
37F8
 10
64.2694
 20
130.490
 30
0.00000
  70
    32
  0
VERTEX
  8
0
  5
37F9
 10
64.2084
 20
130.372
 30
0.00000
  70
    32
  0
VERTEX
  8
0
  5
37FA
 10
64.1461
 20
130.258
 30
0.00000
  70
    32
  0
VERTEX
  8
0
  5
37FB
 10
64.0826
 20
130.148
 30
0.00000
  70
    32
  0
VERTEX
  8
0
  5
37FC
 10
64.0180
 20
130.042
 30
0.00000
  70
    32
  0
VERTEX
  8
0
  5
37FD
 10
63.9522
 20
129.939
 30
0.00000
  70
    32
  0
VERTEX
  8
0
  5
37FE
 10
63.8853
 20
129.841
 30
0.00000
  70
    32
  0
VERTEX
  8
0
  5
37FF
 10
63.8174
 20
129.747
 30
0.00000
  70
    32
  0
VERTEX
  8
0
  5
3800
 10
63.7484
 20
129.657
 30
0.00000
  70
    32
  0
VERTEX
  8
0
  5
3801
 10
63.6786
 20
129.571
 30
0.00000
  70
    32
  0
VERTEX
  8
0
  5
3802
 10
63.6078
 20
129.489
 30
0.00000
  70
    32
  0
VERTEX
  8
0
  5
3803
 10
63.5361
 20
129.412
 30
0.00000
  70
    32
  0
VERTEX
  8
0
  5
3804
 10
63.4636
 20
129.339
 30
0.00000
  70
    32
  0
VERTEX
  8
0
  5
3805
 10
63.3904
 20
129.271
 30
0.00000
  70
    32
  0
VERTEX
  8
0
  5
3806
 10
63.3165
 20
129.207
 30
0.00000
  70
    32
  0
VERTEX
  8
0
  5
3807
 10
63.2418
 20
129.148
 30
0.00000
  70
    32
  0
VERTEX
  8
0
  5
3808
 10
63.1666
 20
129.093
 30
0.00000
  70
    32
  0
VERTEX
  8
0
  5
3809
 10
63.0908
 20
129.043
 30
0.00000
  70
    32
  0
VERTEX
  8
0
  5
380A
 10
63.0144
 20
128.997
 30
0.00000
  70
    32
  0
VERTEX
  8
0
  5
380B
 10
62.9376
 20
128.956
 30
0.00000
  70
    32
  0
VERTEX
  8
0
  5
380C
 10
62.8604
 20
128.920
 30
0.00000
  70
    32
  0
VERTEX
  8
0
  5
380D
 10
62.7828
 20
128.888
 30
0.00000
  70
    32
  0
VERTEX
  8
0
  5
380E
 10
62.7049
 20
128.861
 30
0.00000
  70
    32
  0
VERTEX
  8
0
  5
380F
 10
62.6267
 20
128.839
 30
0.00000
  70
    32
  0
VERTEX
  8
0
  5
3810
 10
62.5484
 20
128.822
 30
0.00000
  70
    32
  0
VERTEX
  8
0
  5
3811
 10
62.4698
 20
128.809
 30
0.00000
  70
    32
  0
VERTEX
  8
0
  5
3812
 10
62.3911
 20
128.802
 30
0.00000
  70
    32
  0
VERTEX
  8
0
  5
3813
 10
62.3124
 20
128.798
 30
0.00000
  70
    32
  0
VERTEX
  8
0
  5
3814
 10
62.2337
 20
128.800
 30
0.00000
  70
    32
  0
VERTEX
  8
0
  5
3815
 10
62.1550
 20
128.807
 30
0.00000
  70
    32
  0
VERTEX
  8
0
  5
3816
 10
62.0764
 20
128.818
 30
0.00000
  70
    32
  0
SEQEND
  8
0
  5
3817
  0
CIRCLE
  5
1F3F
  8
0
 10
51.8797138976500491
 20
136.048455153642891
 30
0.0
 40
12.5000001526261997
  0
LINE
  5
1F40
  8
0
 10
95.3824876754092656
 20
141.048455153642692
 30
0.0
 11
120.3424807192506023
 21
141.0484551536424931
 31
0.0
  0
LINE
  5
1F41
  8
0
 10
64.5209991700839964
 20
141.0484551536428057
 30
0.0
 11
88.132025379116044
 21
141.048455153642692
 31
0.0
  0
LINE
  5
1F42
  8
0
 10
88.132025379116044
 20
131.048455153642692
 30
0.0
 11
64.5209991700839964
 21
131.0484551536428057
 31
0.0
  0
LINE
  5
1F43
  8
0
 10
120.3424807192506023
 20
131.048455153642692
 30
0.0
 11
95.3824876754092656
 21
131.048455153642692
 31
0.0
  0
POLYLINE
  5
1F44
  8
0
 66
     1
 10
0.0
 20
0.0
 30
0.0
 70
   128
  0
VERTEX
  5
30BB
  8
0
 10
94.1146328901870675
 20
132.048455153642692
 30
0.0
  0
VERTEX
  5
30BC
  8
0
 10
94.4017878832162154
 20
131.619558594071691
 30
0.0
  0
VERTEX
  5
30BD
  8
0
 10
94.7142695314683039
 20
131.3050386633900928
 30
0.0
  0
VERTEX
  5
30BE
  8
0
 10
95.0440079699026228
 20
131.1130178654551912
 30
0.0
  0
VERTEX
  5
30BF
  8
0
 10
95.3824876754092656
 20
131.048455153642692
 30
0.0
  0
VERTEX
  5
30C0
  8
0
 10
95.7209673809159085
 20
131.1130178654551912
 30
0.0
  0
VERTEX
  5
30C1
  8
0
 10
96.0507058193502417
 20
131.3050386633900928
 30
0.0
  0
VERTEX
  5
30C2
  8
0
 10
96.3631874676023159
 20
131.6195585940718047
 30
0.0
  0
VERTEX
  5
30C3
  8
0
 10
96.6503424606313644
 20
132.048455153642692
 30
0.0
  0
SEQEND
  5
30C4
  8
0
  0
POLYLINE
  5
1F45
  8
0
 66
     1
 10
0.0
 20
0.0
 30
0.0
 70
   128
  0
VERTEX
  5
30C5
  8
0
 10
89.3998801643381285
 20
132.048455153642692
 30
0.0
  0
VERTEX
  5
30C6
  8
0
 10
89.1127251713091937
 20
131.6195585940718047
 30
0.0
  0
VERTEX
  5
30C7
  8
0
 10
88.8002435230569063
 20
131.3050386633902065
 30
0.0
  0
VERTEX
  5
30C8
  8
0
 10
88.4705050846226868
 20
131.1130178654551912
 30
0.0
  0
VERTEX
  5
30C9
  8
0
 10
88.132025379116044
 20
131.048455153642692
 30
0.0
  0
SEQEND
  5
30CA
  8
0
  0
LINE
  5
1F46
  8
0
 10
89.3998801643381285
 20
132.048455153642692
 30
0.0
 11
96.6503424606313644
 21
132.048455153642692
 31
0.0
  0
POLYLINE
  5
1F47
  8
0
 66
     1
 10
0.0
 20
0.0
 30
0.0
 70
   128
  0
VERTEX
  5
30CB
  8
0
 10
96.6503424606314638
 20
140.048455153642692
 30
0.0
  0
VERTEX
  5
30CC
  8
0
 10
96.3631874676024154
 20
140.4773517132134941
 30
0.0
  0
VERTEX
  5
30CD
  8
0
 10
96.0507058193502417
 20
140.791871643895206
 30
0.0
  0
VERTEX
  5
30CE
  8
0
 10
95.7209673809159085
 20
140.9838924418301076
 30
0.0
  0
VERTEX
  5
30CF
  8
0
 10
95.3824876754092656
 20
141.048455153642692
 30
0.0
  0
VERTEX
  5
30D0
  8
0
 10
95.0440079699026228
 20
140.9838924418301076
 30
0.0
  0
VERTEX
  5
30D1
  8
0
 10
94.7142695314683039
 20
140.791871643895206
 30
0.0
  0
VERTEX
  5
30D2
  8
0
 10
94.4017878832162154
 20
140.4773517132134941
 30
0.0
  0
VERTEX
  5
30D3
  8
0
 10
94.1146328901870675
 20
140.048455153642692
 30
0.0
  0
SEQEND
  5
30D4
  8
0
  0
LINE
  5
1F48
  8
0
 10
96.6503424606314638
 20
140.048455153642692
 30
0.0
 11
89.3998801643381285
 21
140.048455153642692
 31
0.0
  0
POLYLINE
  5
1F49
  8
0
 66
     1
 10
0.0
 20
0.0
 30
0.0
 70
   128
  0
VERTEX
  5
30D5
  8
0
 10
88.132025379116044
 20
141.048455153642692
 30
0.0
  0
VERTEX
  5
30D6
  8
0
 10
88.4705050846226868
 20
140.9838924418301929
 30
0.0
  0
VERTEX
  5
30D7
  8
0
 10
88.8002435230569063
 20
140.791871643895206
 30
0.0
  0
VERTEX
  5
30D8
  8
0
 10
89.1127251713091937
 20
140.4773517132136078
 30
0.0
  0
VERTEX
  5
30D9
  8
0
 10
89.3998801643381285
 20
140.048455153642692
 30
0.0
  0
SEQEND
  5
30DA
  8
0
  0
LINE
  5
1F4A
  8
1
 10
137.5449407400724056
 20
136.0484551536420952
 30
0.0
 11
34.3797137450238779
 21
136.0484551536430047
 31
0.0
  0
LINE
  5
1F4B
  8
0
 10
156.5449407400722919
 20
130.5484551536420952
 30
0.0
 11
155.5449407400724056
 21
129.5484551536420952
 31
0.0
  0
LINE
  5
1F4C
  8
0
 10
156.5449407400724056
 20
141.5484551536420952
 30
0.0
 11
156.5449407400722919
 21
130.5484551536420952
 31
0.0
  0
LINE
  5
1F4D
  8
0
 10
155.5449407400724056
 20
142.5484551536420952
 30
0.0
 11
156.5449407400724056
 21
141.5484551536420952
 31
0.0
  0
LINE
  5
1F4E
  8
0
 10
156.5449407400722919
 20
130.5484551536420952
 30
0.0
 11
118.5449407400724056
 21
130.5484551536420952
 31
0.0
  0
LINE
  5
1F50
  8
0
 10
118.5449407400724056
 20
141.5484551536420952
 30
0.0
 11
156.5449407400724056
 21
141.5484551536420952
 31
0.0
  0
LINE
  5
1F51
  8
0
 10
155.5449407400724056
 20
142.5484551536420952
 30
0.0
 11
119.5449407400724056
 21
142.5484551536420952
 31
0.0
  0
LINE
  5
1F52
  8
0
 10
119.5449407400724056
 20
142.5484551536420952
 30
0.0
 11
118.5449407400724056
 21
141.5484551536420952
 31
0.0
  0
LINE
  5
1F53
  8
0
 10
118.5449407400724056
 20
141.5484551536420952
 30
0.0
 11
118.5449407400724056
 21
141.0484551536424931
 31
0.0
  0
LINE
  5
1F54
  8
0
 10
118.544940740072505
 20
130.5484551536420952
 30
0.0
 11
119.5449407400724056
 21
129.5484551536420952
 31
0.0
  0
LINE
  5
1F58
  8
0
 10
117.5449411871071987
 20
76.7484535770991556
 30
0.0
 11
157.5449402930375982
 21
76.7484535770991556
 31
0.0
  0
LINE
  5
1F59
  8
0
 10
157.5449402930375982
 20
113.3484543987351998
 30
0.0
 11
117.5449411871071987
 21
113.3484543987351998
 31
0.0
  0
LINE
  5
1F5A
  8
0
 10
117.5449411871071987
 20
113.3484543987351998
 30
0.0
 11
117.5449411871071987
 21
76.7484535770991556
 31
0.0
  0
LINE
  5
1F5B
  8
0
 10
117.5449411871071987
 20
113.3484543987351998
 30
0.0
 11
117.7449408473607946
 21
113.5484543936828032
 31
0.0
  0
LINE
  5
1F5D
  8
0
 10
117.7449403705235937
 20
76.5484543936826753
 30
0.0
 11
157.3449411096212032
 21
76.548454393682789
 31
0.0
  0
LINE
  5
1F5E
  8
0
 10
117.7449408473607946
 20
76.5484539168456308
 30
0.0
 11
117.5449411871071987
 21
76.7484535770991556
 31
0.0
  0
LINE
  5
1F5F
  8
0
 10
157.3449406327839881
 20
113.5484543936828032
 30
0.0
 11
157.5449402930375982
 21
113.3484543987351998
 31
0.0
  0
LINE
  5
1F60
  8
0
 10
157.5449402930375982
 20
76.7484535770991556
 30
0.0
 11
157.5449402930375982
 21
113.3484543987351998
 31
0.0
  0
LINE
  5
1F61
  8
0
 10
157.5449402930375982
 20
76.7484535770991556
 30
0.0
 11
157.3449406327839881
 21
76.5484539168456308
 31
0.0
  0
LINE
  5
1F76
  8
1
 10
137.5449407400724056
 20
62.8175106179180034
 30
0.0
 11
137.5449407400724056
 21
147.5484551536420952
 31
0.0
  0
LINE
  5
1F77
  8
0
 10
156.0449407400724056
 20
67.048454393682789
 30
0.0
 11
119.0449407400723061
 21
67.048454393682789
 31
0.0
  0
LINE
  5
1F78
  8
0
 10
119.5449407400723061
 20
66.548454393682789
 30
0.0
 11
155.5449407400724056
 21
66.548454393682789
 31
0.0
  0
LINE
  5
1F79
  8
0
 10
156.0449407400724056
 20
76.5484543936829027
 30
0.0
 11
156.0449407400724056
 21
67.048454393682789
 31
0.0
  0
LINE
  5
1F7A
  8
0
 10
119.0449407400723061
 20
67.048454393682789
 30
0.0
 11
119.0449407400723061
 21
76.5484543936829027
 31
0.0
  0
LINE
  5
1F7B
  8
0
 10
119.5449407400723061
 20
66.548454393682789
 30
0.0
 11
119.0449407400723061
 21
67.048454393682789
 31
0.0
  0
LINE
  5
1F7C
  8
0
 10
156.0449407400724056
 20
67.048454393682789
 30
0.0
 11
155.5449407400724056
 21
66.548454393682789
 31
0.0
  0
POLYLINE
  5
1F7D
  8
0
 10
128.5449406241490919
 20
138.5069551536421102
 30
0.0
 66
     1
 70
     8
  0
VERTEX
  8
0
  5
3818
 10
128.545
 20
138.507
 30
0.00000
  70
    32
  0
VERTEX
  8
0
  5
3819
 10
128.609
 20
138.506
 30
0.00000
  70
    32
  0
VERTEX
  8
0
  5
381A
 10
128.674
 20
138.504
 30
0.00000
  70
    32
  0
VERTEX
  8
0
  5
381B
 10
128.738
 20
138.500
 30
0.00000
  70
    32
  0
VERTEX
  8
0
  5
381C
 10
128.803
 20
138.495
 30
0.00000
  70
    32
  0
VERTEX
  8
0
  5
381D
 10
128.867
 20
138.488
 30
0.00000
  70
    32
  0
VERTEX
  8
0
  5
381E
 10
128.931
 20
138.480
 30
0.00000
  70
    32
  0
VERTEX
  8
0
  5
381F
 10
128.994
 20
138.471
 30
0.00000
  70
    32
  0
VERTEX
  8
0
  5
3820
 10
129.058
 20
138.460
 30
0.00000
  70
    32
  0
VERTEX
  8
0
  5
3821
 10
129.121
 20
138.447
 30
0.00000
  70
    32
  0
VERTEX
  8
0
  5
3822
 10
129.184
 20
138.433
 30
0.00000
  70
    32
  0
VERTEX
  8
0
  5
3823
 10
129.246
 20
138.418
 30
0.00000
  70
    32
  0
VERTEX
  8
0
  5
3824
 10
129.308
 20
138.401
 30
0.00000
  70
    32
  0
VERTEX
  8
0
  5
3825
 10
129.370
 20
138.383
 30
0.00000
  70
    32
  0
VERTEX
  8
0
  5
3826
 10
129.431
 20
138.363
 30
0.00000
  70
    32
  0
VERTEX
  8
0
  5
3827
 10
129.491
 20
138.342
 30
0.00000
  70
    32
  0
VERTEX
  8
0
  5
3828
 10
129.551
 20
138.320
 30
0.00000
  70
    32
  0
VERTEX
  8
0
  5
3829
 10
129.610
 20
138.296
 30
0.00000
  70
    32
  0
VERTEX
  8
0
  5
382A
 10
129.669
 20
138.271
 30
0.00000
  70
    32
  0
VERTEX
  8
0
  5
382B
 10
129.727
 20
138.244
 30
0.00000
  70
    32
  0
VERTEX
  8
0
  5
382C
 10
129.784
 20
138.217
 30
0.00000
  70
    32
  0
VERTEX
  8
0
  5
382D
 10
129.841
 20
138.188
 30
0.00000
  70
    32
  0
VERTEX
  8
0
  5
382E
 10
129.897
 20
138.157
 30
0.00000
  70
    32
  0
VERTEX
  8
0
  5
382F
 10
129.952
 20
138.126
 30
0.00000
  70
    32
  0
VERTEX
  8
0
  5
3830
 10
130.006
 20
138.093
 30
0.00000
  70
    32
  0
VERTEX
  8
0
  5
3831
 10
130.059
 20
138.058
 30
0.00000
  70
    32
  0
VERTEX
  8
0
  5
3832
 10
130.111
 20
138.023
 30
0.00000
  70
    32
  0
VERTEX
  8
0
  5
3833
 10
130.162
 20
137.987
 30
0.00000
  70
    32
  0
VERTEX
  8
0
  5
3834
 10
130.213
 20
137.949
 30
0.00000
  70
    32
  0
VERTEX
  8
0
  5
3835
 10
130.262
 20
137.910
 30
0.00000
  70
    32
  0
VERTEX
  8
0
  5
3836
 10
130.311
 20
137.870
 30
0.00000
  70
    32
  0
VERTEX
  8
0
  5
3837
 10
130.358
 20
137.829
 30
0.00000
  70
    32
  0
VERTEX
  8
0
  5
3838
 10
130.404
 20
137.787
 30
0.00000
  70
    32
  0
VERTEX
  8
0
  5
3839
 10
130.449
 20
137.744
 30
0.00000
  70
    32
  0
VERTEX
  8
0
  5
383A
 10
130.493
 20
137.699
 30
0.00000
  70
    32
  0
VERTEX
  8
0
  5
383B
 10
130.536
 20
137.654
 30
0.00000
  70
    32
  0
VERTEX
  8
0
  5
383C
 10
130.577
 20
137.608
 30
0.00000
  70
    32
  0
VERTEX
  8
0
  5
383D
 10
130.618
 20
137.561
 30
0.00000
  70
    32
  0
VERTEX
  8
0
  5
383E
 10
130.657
 20
137.513
 30
0.00000
  70
    32
  0
VERTEX
  8
0
  5
383F
 10
130.694
 20
137.464
 30
0.00000
  70
    32
  0
VERTEX
  8
0
  5
3840
 10
130.731
 20
137.414
 30
0.00000
  70
    32
  0
VERTEX
  8
0
  5
3841
 10
130.766
 20
137.364
 30
0.00000
  70
    32
  0
VERTEX
  8
0
  5
3842
 10
130.800
 20
137.312
 30
0.00000
  70
    32
  0
VERTEX
  8
0
  5
3843
 10
130.833
 20
137.260
 30
0.00000
  70
    32
  0
VERTEX
  8
0
  5
3844
 10
130.864
 20
137.207
 30
0.00000
  70
    32
  0
VERTEX
  8
0
  5
3845
 10
130.893
 20
137.154
 30
0.00000
  70
    32
  0
VERTEX
  8
0
  5
3846
 10
130.922
 20
137.100
 30
0.00000
  70
    32
  0
VERTEX
  8
0
  5
3847
 10
130.949
 20
137.045
 30
0.00000
  70
    32
  0
VERTEX
  8
0
  5
3848
 10
130.974
 20
136.989
 30
0.00000
  70
    32
  0
VERTEX
  8
0
  5
3849
 10
130.998
 20
136.933
 30
0.00000
  70
    32
  0
VERTEX
  8
0
  5
384A
 10
131.020
 20
136.877
 30
0.00000
  70
    32
  0
VERTEX
  8
0
  5
384B
 10
131.041
 20
136.820
 30
0.00000
  70
    32
  0
VERTEX
  8
0
  5
384C
 10
131.061
 20
136.762
 30
0.00000
  70
    32
  0
VERTEX
  8
0
  5
384D
 10
131.079
 20
136.704
 30
0.00000
  70
    32
  0
VERTEX
  8
0
  5
384E
 10
131.095
 20
136.646
 30
0.00000
  70
    32
  0
VERTEX
  8
0
  5
384F
 10
131.110
 20
136.587
 30
0.00000
  70
    32
  0
VERTEX
  8
0
  5
3850
 10
131.124
 20
136.528
 30
0.00000
  70
    32
  0
VERTEX
  8
0
  5
3851
 10
131.135
 20
136.469
 30
0.00000
  70
    32
  0
VERTEX
  8
0
  5
3852
 10
131.146
 20
136.409
 30
0.00000
  70
    32
  0
VERTEX
  8
0
  5
3853
 10
131.154
 20
136.349
 30
0.00000
  70
    32
  0
VERTEX
  8
0
  5
3854
 10
131.161
 20
136.289
 30
0.00000
  70
    32
  0
VERTEX
  8
0
  5
3855
 10
131.167
 20
136.229
 30
0.00000
  70
    32
  0
VERTEX
  8
0
  5
3856
 10
131.171
 20
136.169
 30
0.00000
  70
    32
  0
VERTEX
  8
0
  5
3857
 10
131.173
 20
136.109
 30
0.00000
  70
    32
  0
VERTEX
  8
0
  5
3858
 10
131.174
 20
136.048
 30
0.00000
  70
    32
  0
VERTEX
  8
0
  5
3859
 10
131.173
 20
135.988
 30
0.00000
  70
    32
  0
VERTEX
  8
0
  5
385A
 10
131.171
 20
135.928
 30
0.00000
  70
    32
  0
VERTEX
  8
0
  5
385B
 10
131.167
 20
135.868
 30
0.00000
  70
    32
  0
VERTEX
  8
0
  5
385C
 10
131.161
 20
135.807
 30
0.00000
  70
    32
  0
VERTEX
  8
0
  5
385D
 10
131.154
 20
135.748
 30
0.00000
  70
    32
  0
VERTEX
  8
0
  5
385E
 10
131.146
 20
135.688
 30
0.00000
  70
    32
  0
VERTEX
  8
0
  5
385F
 10
131.135
 20
135.628
 30
0.00000
  70
    32
  0
VERTEX
  8
0
  5
3860
 10
131.124
 20
135.569
 30
0.00000
  70
    32
  0
VERTEX
  8
0
  5
3861
 10
131.110
 20
135.510
 30
0.00000
  70
    32
  0
VERTEX
  8
0
  5
3862
 10
131.095
 20
135.451
 30
0.00000
  70
    32
  0
VERTEX
  8
0
  5
3863
 10
131.079
 20
135.393
 30
0.00000
  70
    32
  0
VERTEX
  8
0
  5
3864
 10
131.061
 20
135.335
 30
0.00000
  70
    32
  0
VERTEX
  8
0
  5
3865
 10
131.041
 20
135.277
 30
0.00000
  70
    32
  0
VERTEX
  8
0
  5
3866
 10
131.020
 20
135.220
 30
0.00000
  70
    32
  0
VERTEX
  8
0
  5
3867
 10
130.998
 20
135.164
 30
0.00000
  70
    32
  0
VERTEX
  8
0
  5
3868
 10
130.974
 20
135.108
 30
0.00000
  70
    32
  0
VERTEX
  8
0
  5
3869
 10
130.949
 20
135.052
 30
0.00000
  70
    32
  0
VERTEX
  8
0
  5
386A
 10
130.922
 20
134.997
 30
0.00000
  70
    32
  0
VERTEX
  8
0
  5
386B
 10
130.893
 20
134.943
 30
0.00000
  70
    32
  0
VERTEX
  8
0
  5
386C
 10
130.864
 20
134.890
 30
0.00000
  70
    32
  0
VERTEX
  8
0
  5
386D
 10
130.833
 20
134.837
 30
0.00000
  70
    32
  0
VERTEX
  8
0
  5
386E
 10
130.800
 20
134.785
 30
0.00000
  70
    32
  0
VERTEX
  8
0
  5
386F
 10
130.766
 20
134.733
 30
0.00000
  70
    32
  0
VERTEX
  8
0
  5
3870
 10
130.731
 20
134.683
 30
0.00000
  70
    32
  0
VERTEX
  8
0
  5
3871
 10
130.694
 20
134.633
 30
0.00000
  70
    32
  0
VERTEX
  8
0
  5
3872
 10
130.657
 20
134.584
 30
0.00000
  70
    32
  0
VERTEX
  8
0
  5
3873
 10
130.618
 20
134.536
 30
0.00000
  70
    32
  0
VERTEX
  8
0
  5
3874
 10
130.577
 20
134.489
 30
0.00000
  70
    32
  0
VERTEX
  8
0
  5
3875
 10
130.536
 20
134.443
 30
0.00000
  70
    32
  0
VERTEX
  8
0
  5
3876
 10
130.493
 20
134.397
 30
0.00000
  70
    32
  0
VERTEX
  8
0
  5
3877
 10
130.449
 20
134.353
 30
0.00000
  70
    32
  0
VERTEX
  8
0
  5
3878
 10
130.404
 20
134.310
 30
0.00000
  70
    32
  0
VERTEX
  8
0
  5
3879
 10
130.358
 20
134.268
 30
0.00000
  70
    32
  0
VERTEX
  8
0
  5
387A
 10
130.311
 20
134.227
 30
0.00000
  70
    32
  0
VERTEX
  8
0
  5
387B
 10
130.262
 20
134.187
 30
0.00000
  70
    32
  0
VERTEX
  8
0
  5
387C
 10
130.213
 20
134.148
 30
0.00000
  70
    32
  0
VERTEX
  8
0
  5
387D
 10
130.162
 20
134.110
 30
0.00000
  70
    32
  0
VERTEX
  8
0
  5
387E
 10
130.111
 20
134.074
 30
0.00000
  70
    32
  0
VERTEX
  8
0
  5
387F
 10
130.059
 20
134.038
 30
0.00000
  70
    32
  0
VERTEX
  8
0
  5
3880
 10
130.006
 20
134.004
 30
0.00000
  70
    32
  0
VERTEX
  8
0
  5
3881
 10
129.952
 20
133.971
 30
0.00000
  70
    32
  0
VERTEX
  8
0
  5
3882
 10
129.897
 20
133.940
 30
0.00000
  70
    32
  0
VERTEX
  8
0
  5
3883
 10
129.841
 20
133.909
 30
0.00000
  70
    32
  0
VERTEX
  8
0
  5
3884
 10
129.784
 20
133.880
 30
0.00000
  70
    32
  0
VERTEX
  8
0
  5
3885
 10
129.727
 20
133.852
 30
0.00000
  70
    32
  0
VERTEX
  8
0
  5
3886
 10
129.669
 20
133.826
 30
0.00000
  70
    32
  0
VERTEX
  8
0
  5
3887
 10
129.610
 20
133.801
 30
0.00000
  70
    32
  0
VERTEX
  8
0
  5
3888
 10
129.551
 20
133.777
 30
0.00000
  70
    32
  0
VERTEX
  8
0
  5
3889
 10
129.491
 20
133.755
 30
0.00000
  70
    32
  0
VERTEX
  8
0
  5
388A
 10
129.431
 20
133.734
 30
0.00000
  70
    32
  0
VERTEX
  8
0
  5
388B
 10
129.370
 20
133.714
 30
0.00000
  70
    32
  0
VERTEX
  8
0
  5
388C
 10
129.308
 20
133.696
 30
0.00000
  70
    32
  0
VERTEX
  8
0
  5
388D
 10
129.246
 20
133.679
 30
0.00000
  70
    32
  0
VERTEX
  8
0
  5
388E
 10
129.184
 20
133.664
 30
0.00000
  70
    32
  0
VERTEX
  8
0
  5
388F
 10
129.121
 20
133.650
 30
0.00000
  70
    32
  0
VERTEX
  8
0
  5
3890
 10
129.058
 20
133.637
 30
0.00000
  70
    32
  0
VERTEX
  8
0
  5
3891
 10
128.994
 20
133.626
 30
0.00000
  70
    32
  0
VERTEX
  8
0
  5
3892
 10
128.931
 20
133.617
 30
0.00000
  70
    32
  0
VERTEX
  8
0
  5
3893
 10
128.867
 20
133.608
 30
0.00000
  70
    32
  0
VERTEX
  8
0
  5
3894
 10
128.803
 20
133.602
 30
0.00000
  70
    32
  0
VERTEX
  8
0
  5
3895
 10
128.738
 20
133.597
 30
0.00000
  70
    32
  0
VERTEX
  8
0
  5
3896
 10
128.674
 20
133.593
 30
0.00000
  70
    32
  0
VERTEX
  8
0
  5
3897
 10
128.609
 20
133.591
 30
0.00000
  70
    32
  0
VERTEX
  8
0
  5
3898
 10
128.545
 20
133.590
 30
0.00000
  70
    32
  0
SEQEND
  8
0
  5
3899
  0
POLYLINE
  5
1F7E
  8
0
 10
128.5449406241490919
 20
133.5899551536420802
 30
0.0
 66
     1
 70
     8
  0
VERTEX
  8
0
  5
389A
 10
128.545
 20
133.590
 30
0.00000
  70
    32
  0
VERTEX
  8
0
  5
389B
 10
128.505
 20
133.591
 30
0.00000
  70
    32
  0
VERTEX
  8
0
  5
389C
 10
128.465
 20
133.593
 30
0.00000
  70
    32
  0
VERTEX
  8
0
  5
389D
 10
128.425
 20
133.597
 30
0.00000
  70
    32
  0
VERTEX
  8
0
  5
389E
 10
128.385
 20
133.602
 30
0.00000
  70
    32
  0
VERTEX
  8
0
  5
389F
 10
128.346
 20
133.608
 30
0.00000
  70
    32
  0
VERTEX
  8
0
  5
38A0
 10
128.306
 20
133.617
 30
0.00000
  70
    32
  0
VERTEX
  8
0
  5
38A1
 10
128.266
 20
133.626
 30
0.00000
  70
    32
  0
VERTEX
  8
0
  5
38A2
 10
128.227
 20
133.637
 30
0.00000
  70
    32
  0
VERTEX
  8
0
  5
38A3
 10
128.188
 20
133.650
 30
0.00000
  70
    32
  0
VERTEX
  8
0
  5
38A4
 10
128.149
 20
133.664
 30
0.00000
  70
    32
  0
VERTEX
  8
0
  5
38A5
 10
128.110
 20
133.679
 30
0.00000
  70
    32
  0
VERTEX
  8
0
  5
38A6
 10
128.072
 20
133.696
 30
0.00000
  70
    32
  0
VERTEX
  8
0
  5
38A7
 10
128.034
 20
133.714
 30
0.00000
  70
    32
  0
VERTEX
  8
0
  5
38A8
 10
127.996
 20
133.734
 30
0.00000
  70
    32
  0
VERTEX
  8
0
  5
38A9
 10
127.959
 20
133.755
 30
0.00000
  70
    32
  0
VERTEX
  8
0
  5
38AA
 10
127.922
 20
133.777
 30
0.00000
  70
    32
  0
VERTEX
  8
0
  5
38AB
 10
127.885
 20
133.801
 30
0.00000
  70
    32
  0
VERTEX
  8
0
  5
38AC
 10
127.848
 20
133.826
 30
0.00000
  70
    32
  0
VERTEX
  8
0
  5
38AD
 10
127.812
 20
133.852
 30
0.00000
  70
    32
  0
VERTEX
  8
0
  5
38AE
 10
127.777
 20
133.880
 30
0.00000
  70
    32
  0
VERTEX
  8
0
  5
38AF
 10
127.742
 20
133.909
 30
0.00000
  70
    32
  0
VERTEX
  8
0
  5
38B0
 10
127.707
 20
133.940
 30
0.00000
  70
    32
  0
VERTEX
  8
0
  5
38B1
 10
127.673
 20
133.971
 30
0.00000
  70
    32
  0
VERTEX
  8
0
  5
38B2
 10
127.640
 20
134.004
 30
0.00000
  70
    32
  0
VERTEX
  8
0
  5
38B3
 10
127.607
 20
134.038
 30
0.00000
  70
    32
  0
VERTEX
  8
0
  5
38B4
 10
127.574
 20
134.074
 30
0.00000
  70
    32
  0
VERTEX
  8
0
  5
38B5
 10
127.543
 20
134.110
 30
0.00000
  70
    32
  0
VERTEX
  8
0
  5
38B6
 10
127.511
 20
134.148
 30
0.00000
  70
    32
  0
VERTEX
  8
0
  5
38B7
 10
127.481
 20
134.187
 30
0.00000
  70
    32
  0
VERTEX
  8
0
  5
38B8
 10
127.451
 20
134.227
 30
0.00000
  70
    32
  0
VERTEX
  8
0
  5
38B9
 10
127.422
 20
134.268
 30
0.00000
  70
    32
  0
VERTEX
  8
0
  5
38BA
 10
127.393
 20
134.310
 30
0.00000
  70
    32
  0
VERTEX
  8
0
  5
38BB
 10
127.365
 20
134.353
 30
0.00000
  70
    32
  0
VERTEX
  8
0
  5
38BC
 10
127.338
 20
134.397
 30
0.00000
  70
    32
  0
VERTEX
  8
0
  5
38BD
 10
127.311
 20
134.443
 30
0.00000
  70
    32
  0
VERTEX
  8
0
  5
38BE
 10
127.286
 20
134.489
 30
0.00000
  70
    32
  0
VERTEX
  8
0
  5
38BF
 10
127.261
 20
134.536
 30
0.00000
  70
    32
  0
VERTEX
  8
0
  5
38C0
 10
127.236
 20
134.584
 30
0.00000
  70
    32
  0
VERTEX
  8
0
  5
38C1
 10
127.213
 20
134.633
 30
0.00000
  70
    32
  0
VERTEX
  8
0
  5
38C2
 10
127.190
 20
134.683
 30
0.00000
  70
    32
  0
VERTEX
  8
0
  5
38C3
 10
127.169
 20
134.733
 30
0.00000
  70
    32
  0
VERTEX
  8
0
  5
38C4
 10
127.148
 20
134.785
 30
0.00000
  70
    32
  0
VERTEX
  8
0
  5
38C5
 10
127.127
 20
134.837
 30
0.00000
  70
    32
  0
VERTEX
  8
0
  5
38C6
 10
127.108
 20
134.890
 30
0.00000
  70
    32
  0
VERTEX
  8
0
  5
38C7
 10
127.090
 20
134.943
 30
0.00000
  70
    32
  0
VERTEX
  8
0
  5
38C8
 10
127.072
 20
134.997
 30
0.00000
  70
    32
  0
VERTEX
  8
0
  5
38C9
 10
127.056
 20
135.052
 30
0.00000
  70
    32
  0
VERTEX
  8
0
  5
38CA
 10
127.040
 20
135.108
 30
0.00000
  70
    32
  0
VERTEX
  8
0
  5
38CB
 10
127.025
 20
135.164
 30
0.00000
  70
    32
  0
VERTEX
  8
0
  5
38CC
 10
127.011
 20
135.220
 30
0.00000
  70
    32
  0
VERTEX
  8
0
  5
38CD
 10
126.998
 20
135.277
 30
0.00000
  70
    32
  0
VERTEX
  8
0
  5
38CE
 10
126.986
 20
135.335
 30
0.00000
  70
    32
  0
VERTEX
  8
0
  5
38CF
 10
126.975
 20
135.393
 30
0.00000
  70
    32
  0
VERTEX
  8
0
  5
38D0
 10
126.965
 20
135.451
 30
0.00000
  70
    32
  0
VERTEX
  8
0
  5
38D1
 10
126.955
 20
135.510
 30
0.00000
  70
    32
  0
VERTEX
  8
0
  5
38D2
 10
126.947
 20
135.569
 30
0.00000
  70
    32
  0
VERTEX
  8
0
  5
38D3
 10
126.940
 20
135.628
 30
0.00000
  70
    32
  0
VERTEX
  8
0
  5
38D4
 10
126.933
 20
135.688
 30
0.00000
  70
    32
  0
VERTEX
  8
0
  5
38D5
 10
126.928
 20
135.748
 30
0.00000
  70
    32
  0
VERTEX
  8
0
  5
38D6
 10
126.924
 20
135.807
 30
0.00000
  70
    32
  0
VERTEX
  8
0
  5
38D7
 10
126.920
 20
135.868
 30
0.00000
  70
    32
  0
VERTEX
  8
0
  5
38D8
 10
126.918
 20
135.928
 30
0.00000
  70
    32
  0
VERTEX
  8
0
  5
38D9
 10
126.916
 20
135.988
 30
0.00000
  70
    32
  0
VERTEX
  8
0
  5
38DA
 10
126.916
 20
136.048
 30
0.00000
  70
    32
  0
VERTEX
  8
0
  5
38DB
 10
126.916
 20
136.109
 30
0.00000
  70
    32
  0
VERTEX
  8
0
  5
38DC
 10
126.918
 20
136.169
 30
0.00000
  70
    32
  0
VERTEX
  8
0
  5
38DD
 10
126.920
 20
136.229
 30
0.00000
  70
    32
  0
VERTEX
  8
0
  5
38DE
 10
126.924
 20
136.289
 30
0.00000
  70
    32
  0
VERTEX
  8
0
  5
38DF
 10
126.928
 20
136.349
 30
0.00000
  70
    32
  0
VERTEX
  8
0
  5
38E0
 10
126.933
 20
136.409
 30
0.00000
  70
    32
  0
VERTEX
  8
0
  5
38E1
 10
126.940
 20
136.469
 30
0.00000
  70
    32
  0
VERTEX
  8
0
  5
38E2
 10
126.947
 20
136.528
 30
0.00000
  70
    32
  0
VERTEX
  8
0
  5
38E3
 10
126.955
 20
136.587
 30
0.00000
  70
    32
  0
VERTEX
  8
0
  5
38E4
 10
126.965
 20
136.646
 30
0.00000
  70
    32
  0
VERTEX
  8
0
  5
38E5
 10
126.975
 20
136.704
 30
0.00000
  70
    32
  0
VERTEX
  8
0
  5
38E6
 10
126.986
 20
136.762
 30
0.00000
  70
    32
  0
VERTEX
  8
0
  5
38E7
 10
126.998
 20
136.820
 30
0.00000
  70
    32
  0
VERTEX
  8
0
  5
38E8
 10
127.011
 20
136.877
 30
0.00000
  70
    32
  0
VERTEX
  8
0
  5
38E9
 10
127.025
 20
136.933
 30
0.00000
  70
    32
  0
VERTEX
  8
0
  5
38EA
 10
127.040
 20
136.989
 30
0.00000
  70
    32
  0
VERTEX
  8
0
  5
38EB
 10
127.056
 20
137.045
 30
0.00000
  70
    32
  0
VERTEX
  8
0
  5
38EC
 10
127.072
 20
137.100
 30
0.00000
  70
    32
  0
VERTEX
  8
0
  5
38ED
 10
127.090
 20
137.154
 30
0.00000
  70
    32
  0
VERTEX
  8
0
  5
38EE
 10
127.108
 20
137.207
 30
0.00000
  70
    32
  0
VERTEX
  8
0
  5
38EF
 10
127.127
 20
137.260
 30
0.00000
  70
    32
  0
VERTEX
  8
0
  5
38F0
 10
127.148
 20
137.312
 30
0.00000
  70
    32
  0
VERTEX
  8
0
  5
38F1
 10
127.169
 20
137.364
 30
0.00000
  70
    32
  0
VERTEX
  8
0
  5
38F2
 10
127.190
 20
137.414
 30
0.00000
  70
    32
  0
VERTEX
  8
0
  5
38F3
 10
127.213
 20
137.464
 30
0.00000
  70
    32
  0
VERTEX
  8
0
  5
38F4
 10
127.236
 20
137.513
 30
0.00000
  70
    32
  0
VERTEX
  8
0
  5
38F5
 10
127.261
 20
137.561
 30
0.00000
  70
    32
  0
VERTEX
  8
0
  5
38F6
 10
127.286
 20
137.608
 30
0.00000
  70
    32
  0
VERTEX
  8
0
  5
38F7
 10
127.311
 20
137.654
 30
0.00000
  70
    32
  0
VERTEX
  8
0
  5
38F8
 10
127.338
 20
137.699
 30
0.00000
  70
    32
  0
VERTEX
  8
0
  5
38F9
 10
127.365
 20
137.744
 30
0.00000
  70
    32
  0
VERTEX
  8
0
  5
38FA
 10
127.393
 20
137.787
 30
0.00000
  70
    32
  0
VERTEX
  8
0
  5
38FB
 10
127.422
 20
137.829
 30
0.00000
  70
    32
  0
VERTEX
  8
0
  5
38FC
 10
127.451
 20
137.870
 30
0.00000
  70
    32
  0
VERTEX
  8
0
  5
38FD
 10
127.481
 20
137.910
 30
0.00000
  70
    32
  0
VERTEX
  8
0
  5
38FE
 10
127.511
 20
137.949
 30
0.00000
  70
    32
  0
VERTEX
  8
0
  5
38FF
 10
127.543
 20
137.987
 30
0.00000
  70
    32
  0
VERTEX
  8
0
  5
3900
 10
127.574
 20
138.023
 30
0.00000
  70
    32
  0
VERTEX
  8
0
  5
3901
 10
127.607
 20
138.058
 30
0.00000
  70
    32
  0
VERTEX
  8
0
  5
3902
 10
127.640
 20
138.093
 30
0.00000
  70
    32
  0
VERTEX
  8
0
  5
3903
 10
127.673
 20
138.126
 30
0.00000
  70
    32
  0
VERTEX
  8
0
  5
3904
 10
127.707
 20
138.157
 30
0.00000
  70
    32
  0
VERTEX
  8
0
  5
3905
 10
127.742
 20
138.188
 30
0.00000
  70
    32
  0
VERTEX
  8
0
  5
3906
 10
127.777
 20
138.217
 30
0.00000
  70
    32
  0
VERTEX
  8
0
  5
3907
 10
127.812
 20
138.244
 30
0.00000
  70
    32
  0
VERTEX
  8
0
  5
3908
 10
127.848
 20
138.271
 30
0.00000
  70
    32
  0
VERTEX
  8
0
  5
3909
 10
127.885
 20
138.296
 30
0.00000
  70
    32
  0
VERTEX
  8
0
  5
390A
 10
127.922
 20
138.320
 30
0.00000
  70
    32
  0
VERTEX
  8
0
  5
390B
 10
127.959
 20
138.342
 30
0.00000
  70
    32
  0
VERTEX
  8
0
  5
390C
 10
127.996
 20
138.363
 30
0.00000
  70
    32
  0
VERTEX
  8
0
  5
390D
 10
128.034
 20
138.383
 30
0.00000
  70
    32
  0
VERTEX
  8
0
  5
390E
 10
128.072
 20
138.401
 30
0.00000
  70
    32
  0
VERTEX
  8
0
  5
390F
 10
128.110
 20
138.418
 30
0.00000
  70
    32
  0
VERTEX
  8
0
  5
3910
 10
128.149
 20
138.433
 30
0.00000
  70
    32
  0
VERTEX
  8
0
  5
3911
 10
128.188
 20
138.447
 30
0.00000
  70
    32
  0
VERTEX
  8
0
  5
3912
 10
128.227
 20
138.460
 30
0.00000
  70
    32
  0
VERTEX
  8
0
  5
3913
 10
128.266
 20
138.471
 30
0.00000
  70
    32
  0
VERTEX
  8
0
  5
3914
 10
128.306
 20
138.480
 30
0.00000
  70
    32
  0
VERTEX
  8
0
  5
3915
 10
128.346
 20
138.488
 30
0.00000
  70
    32
  0
VERTEX
  8
0
  5
3916
 10
128.385
 20
138.495
 30
0.00000
  70
    32
  0
VERTEX
  8
0
  5
3917
 10
128.425
 20
138.500
 30
0.00000
  70
    32
  0
VERTEX
  8
0
  5
3918
 10
128.465
 20
138.504
 30
0.00000
  70
    32
  0
VERTEX
  8
0
  5
3919
 10
128.505
 20
138.506
 30
0.00000
  70
    32
  0
VERTEX
  8
0
  5
391A
 10
128.545
 20
138.507
 30
0.00000
  70
    32
  0
SEQEND
  8
0
  5
391B
  0
POLYLINE
  5
1F7F
  8
3
 10
128.5449406241492056
 20
133.0484551536420952
 30
0.0
 66
     1
 70
     8
  0
VERTEX
  8
3
  5
391C
 10
128.545
 20
133.048
 30
0.00000
  70
    32
  0
VERTEX
  8
3
  5
391D
 10
128.487
 20
133.049
 30
0.00000
  70
    32
  0
VERTEX
  8
3
  5
391E
 10
128.429
 20
133.052
 30
0.00000
  70
    32
  0
VERTEX
  8
3
  5
391F
 10
128.371
 20
133.057
 30
0.00000
  70
    32
  0
VERTEX
  8
3
  5
3920
 10
128.313
 20
133.063
 30
0.00000
  70
    32
  0
VERTEX
  8
3
  5
3921
 10
128.255
 20
133.071
 30
0.00000
  70
    32
  0
VERTEX
  8
3
  5
3922
 10
128.197
 20
133.081
 30
0.00000
  70
    32
  0
VERTEX
  8
3
  5
3923
 10
128.140
 20
133.093
 30
0.00000
  70
    32
  0
VERTEX
  8
3
  5
3924
 10
128.083
 20
133.106
 30
0.00000
  70
    32
  0
VERTEX
  8
3
  5
3925
 10
128.026
 20
133.121
 30
0.00000
  70
    32
  0
VERTEX
  8
3
  5
3926
 10
127.969
 20
133.138
 30
0.00000
  70
    32
  0
VERTEX
  8
3
  5
3927
 10
127.913
 20
133.157
 30
0.00000
  70
    32
  0
VERTEX
  8
3
  5
3928
 10
127.857
 20
133.178
 30
0.00000
  70
    32
  0
VERTEX
  8
3
  5
3929
 10
127.802
 20
133.200
 30
0.00000
  70
    32
  0
VERTEX
  8
3
  5
392A
 10
127.747
 20
133.224
 30
0.00000
  70
    32
  0
VERTEX
  8
3
  5
392B
 10
127.692
 20
133.249
 30
0.00000
  70
    32
  0
VERTEX
  8
3
  5
392C
 10
127.638
 20
133.277
 30
0.00000
  70
    32
  0
VERTEX
  8
3
  5
392D
 10
127.585
 20
133.306
 30
0.00000
  70
    32
  0
VERTEX
  8
3
  5
392E
 10
127.532
 20
133.336
 30
0.00000
  70
    32
  0
VERTEX
  8
3
  5
392F
 10
127.480
 20
133.369
 30
0.00000
  70
    32
  0
VERTEX
  8
3
  5
3930
 10
127.428
 20
133.403
 30
0.00000
  70
    32
  0
VERTEX
  8
3
  5
3931
 10
127.377
 20
133.438
 30
0.00000
  70
    32
  0
VERTEX
  8
3
  5
3932
 10
127.327
 20
133.475
 30
0.00000
  70
    32
  0
VERTEX
  8
3
  5
3933
 10
127.278
 20
133.514
 30
0.00000
  70
    32
  0
VERTEX
  8
3
  5
3934
 10
127.229
 20
133.554
 30
0.00000
  70
    32
  0
VERTEX
  8
3
  5
3935
 10
127.181
 20
133.596
 30
0.00000
  70
    32
  0
VERTEX
  8
3
  5
3936
 10
127.134
 20
133.639
 30
0.00000
  70
    32
  0
VERTEX
  8
3
  5
3937
 10
127.088
 20
133.683
 30
0.00000
  70
    32
  0
VERTEX
  8
3
  5
3938
 10
127.042
 20
133.729
 30
0.00000
  70
    32
  0
VERTEX
  8
3
  5
3939
 10
126.998
 20
133.777
 30
0.00000
  70
    32
  0
VERTEX
  8
3
  5
393A
 10
126.954
 20
133.826
 30
0.00000
  70
    32
  0
VERTEX
  8
3
  5
393B
 10
126.912
 20
133.876
 30
0.00000
  70
    32
  0
VERTEX
  8
3
  5
393C
 10
126.870
 20
133.927
 30
0.00000
  70
    32
  0
VERTEX
  8
3
  5
393D
 10
126.829
 20
133.980
 30
0.00000
  70
    32
  0
VERTEX
  8
3
  5
393E
 10
126.790
 20
134.034
 30
0.00000
  70
    32
  0
VERTEX
  8
3
  5
393F
 10
126.751
 20
134.089
 30
0.00000
  70
    32
  0
VERTEX
  8
3
  5
3940
 10
126.714
 20
134.145
 30
0.00000
  70
    32
  0
VERTEX
  8
3
  5
3941
 10
126.677
 20
134.203
 30
0.00000
  70
    32
  0
VERTEX
  8
3
  5
3942
 10
126.642
 20
134.261
 30
0.00000
  70
    32
  0
VERTEX
  8
3
  5
3943
 10
126.608
 20
134.321
 30
0.00000
  70
    32
  0
VERTEX
  8
3
  5
3944
 10
126.575
 20
134.382
 30
0.00000
  70
    32
  0
VERTEX
  8
3
  5
3945
 10
126.544
 20
134.443
 30
0.00000
  70
    32
  0
VERTEX
  8
3
  5
3946
 10
126.513
 20
134.506
 30
0.00000
  70
    32
  0
VERTEX
  8
3
  5
3947
 10
126.484
 20
134.570
 30
0.00000
  70
    32
  0
VERTEX
  8
3
  5
3948
 10
126.456
 20
134.634
 30
0.00000
  70
    32
  0
VERTEX
  8
3
  5
3949
 10
126.429
 20
134.700
 30
0.00000
  70
    32
  0
VERTEX
  8
3
  5
394A
 10
126.404
 20
134.766
 30
0.00000
  70
    32
  0
VERTEX
  8
3
  5
394B
 10
126.379
 20
134.833
 30
0.00000
  70
    32
  0
VERTEX
  8
3
  5
394C
 10
126.356
 20
134.900
 30
0.00000
  70
    32
  0
VERTEX
  8
3
  5
394D
 10
126.335
 20
134.969
 30
0.00000
  70
    32
  0
VERTEX
  8
3
  5
394E
 10
126.315
 20
135.038
 30
0.00000
  70
    32
  0
VERTEX
  8
3
  5
394F
 10
126.296
 20
135.107
 30
0.00000
  70
    32
  0
VERTEX
  8
3
  5
3950
 10
126.278
 20
135.178
 30
0.00000
  70
    32
  0
VERTEX
  8
3
  5
3951
 10
126.262
 20
135.248
 30
0.00000
  70
    32
  0
VERTEX
  8
3
  5
3952
 10
126.247
 20
135.320
 30
0.00000
  70
    32
  0
VERTEX
  8
3
  5
3953
 10
126.234
 20
135.391
 30
0.00000
  70
    32
  0
VERTEX
  8
3
  5
3954
 10
126.222
 20
135.463
 30
0.00000
  70
    32
  0
VERTEX
  8
3
  5
3955
 10
126.211
 20
135.536
 30
0.00000
  70
    32
  0
VERTEX
  8
3
  5
3956
 10
126.202
 20
135.608
 30
0.00000
  70
    32
  0
VERTEX
  8
3
  5
3957
 10
126.194
 20
135.681
 30
0.00000
  70
    32
  0
VERTEX
  8
3
  5
3958
 10
126.188
 20
135.754
 30
0.00000
  70
    32
  0
VERTEX
  8
3
  5
3959
 10
126.183
 20
135.828
 30
0.00000
  70
    32
  0
VERTEX
  8
3
  5
395A
 10
126.179
 20
135.901
 30
0.00000
  70
    32
  0
VERTEX
  8
3
  5
395B
 10
126.177
 20
135.975
 30
0.00000
  70
    32
  0
VERTEX
  8
3
  5
395C
 10
126.176
 20
136.048
 30
0.00000
  70
    32
  0
VERTEX
  8
3
  5
395D
 10
126.177
 20
136.122
 30
0.00000
  70
    32
  0
VERTEX
  8
3
  5
395E
 10
126.179
 20
136.196
 30
0.00000
  70
    32
  0
VERTEX
  8
3
  5
395F
 10
126.183
 20
136.269
 30
0.00000
  70
    32
  0
VERTEX
  8
3
  5
3960
 10
126.188
 20
136.343
 30
0.00000
  70
    32
  0
VERTEX
  8
3
  5
3961
 10
126.194
 20
136.416
 30
0.00000
  70
    32
  0
VERTEX
  8
3
  5
3962
 10
126.202
 20
136.489
 30
0.00000
  70
    32
  0
VERTEX
  8
3
  5
3963
 10
126.211
 20
136.561
 30
0.00000
  70
    32
  0
VERTEX
  8
3
  5
3964
 10
126.222
 20
136.634
 30
0.00000
  70
    32
  0
VERTEX
  8
3
  5
3965
 10
126.234
 20
136.706
 30
0.00000
  70
    32
  0
VERTEX
  8
3
  5
3966
 10
126.247
 20
136.777
 30
0.00000
  70
    32
  0
VERTEX
  8
3
  5
3967
 10
126.262
 20
136.849
 30
0.00000
  70
    32
  0
VERTEX
  8
3
  5
3968
 10
126.278
 20
136.919
 30
0.00000
  70
    32
  0
VERTEX
  8
3
  5
3969
 10
126.296
 20
136.990
 30
0.00000
  70
    32
  0
VERTEX
  8
3
  5
396A
 10
126.315
 20
137.059
 30
0.00000
  70
    32
  0
VERTEX
  8
3
  5
396B
 10
126.335
 20
137.128
 30
0.00000
  70
    32
  0
VERTEX
  8
3
  5
396C
 10
126.356
 20
137.197
 30
0.00000
  70
    32
  0
VERTEX
  8
3
  5
396D
 10
126.379
 20
137.264
 30
0.00000
  70
    32
  0
VERTEX
  8
3
  5
396E
 10
126.404
 20
137.331
 30
0.00000
  70
    32
  0
VERTEX
  8
3
  5
396F
 10
126.429
 20
137.397
 30
0.00000
  70
    32
  0
VERTEX
  8
3
  5
3970
 10
126.456
 20
137.463
 30
0.00000
  70
    32
  0
VERTEX
  8
3
  5
3971
 10
126.484
 20
137.527
 30
0.00000
  70
    32
  0
VERTEX
  8
3
  5
3972
 10
126.513
 20
137.591
 30
0.00000
  70
    32
  0
VERTEX
  8
3
  5
3973
 10
126.544
 20
137.653
 30
0.00000
  70
    32
  0
VERTEX
  8
3
  5
3974
 10
126.575
 20
137.715
 30
0.00000
  70
    32
  0
VERTEX
  8
3
  5
3975
 10
126.608
 20
137.776
 30
0.00000
  70
    32
  0
VERTEX
  8
3
  5
3976
 10
126.642
 20
137.836
 30
0.00000
  70
    32
  0
VERTEX
  8
3
  5
3977
 10
126.677
 20
137.894
 30
0.00000
  70
    32
  0
VERTEX
  8
3
  5
3978
 10
126.714
 20
137.952
 30
0.00000
  70
    32
  0
VERTEX
  8
3
  5
3979
 10
126.751
 20
138.008
 30
0.00000
  70
    32
  0
VERTEX
  8
3
  5
397A
 10
126.790
 20
138.063
 30
0.00000
  70
    32
  0
VERTEX
  8
3
  5
397B
 10
126.829
 20
138.117
 30
0.00000
  70
    32
  0
VERTEX
  8
3
  5
397C
 10
126.870
 20
138.170
 30
0.00000
  70
    32
  0
VERTEX
  8
3
  5
397D
 10
126.912
 20
138.221
 30
0.00000
  70
    32
  0
VERTEX
  8
3
  5
397E
 10
126.954
 20
138.271
 30
0.00000
  70
    32
  0
VERTEX
  8
3
  5
397F
 10
126.998
 20
138.320
 30
0.00000
  70
    32
  0
VERTEX
  8
3
  5
3980
 10
127.042
 20
138.367
 30
0.00000
  70
    32
  0
VERTEX
  8
3
  5
3981
 10
127.088
 20
138.413
 30
0.00000
  70
    32
  0
VERTEX
  8
3
  5
3982
 10
127.134
 20
138.458
 30
0.00000
  70
    32
  0
VERTEX
  8
3
  5
3983
 10
127.181
 20
138.501
 30
0.00000
  70
    32
  0
VERTEX
  8
3
  5
3984
 10
127.229
 20
138.543
 30
0.00000
  70
    32
  0
VERTEX
  8
3
  5
3985
 10
127.278
 20
138.583
 30
0.00000
  70
    32
  0
VERTEX
  8
3
  5
3986
 10
127.327
 20
138.622
 30
0.00000
  70
    32
  0
VERTEX
  8
3
  5
3987
 10
127.377
 20
138.659
 30
0.00000
  70
    32
  0
VERTEX
  8
3
  5
3988
 10
127.428
 20
138.694
 30
0.00000
  70
    32
  0
VERTEX
  8
3
  5
3989
 10
127.480
 20
138.728
 30
0.00000
  70
    32
  0
VERTEX
  8
3
  5
398A
 10
127.532
 20
138.760
 30
0.00000
  70
    32
  0
VERTEX
  8
3
  5
398B
 10
127.585
 20
138.791
 30
0.00000
  70
    32
  0
VERTEX
  8
3
  5
398C
 10
127.638
 20
138.820
 30
0.00000
  70
    32
  0
VERTEX
  8
3
  5
398D
 10
127.692
 20
138.847
 30
0.00000
  70
    32
  0
VERTEX
  8
3
  5
398E
 10
127.747
 20
138.873
 30
0.00000
  70
    32
  0
VERTEX
  8
3
  5
398F
 10
127.802
 20
138.897
 30
0.00000
  70
    32
  0
VERTEX
  8
3
  5
3990
 10
127.857
 20
138.919
 30
0.00000
  70
    32
  0
VERTEX
  8
3
  5
3991
 10
127.913
 20
138.940
 30
0.00000
  70
    32
  0
VERTEX
  8
3
  5
3992
 10
127.969
 20
138.959
 30
0.00000
  70
    32
  0
VERTEX
  8
3
  5
3993
 10
128.026
 20
138.976
 30
0.00000
  70
    32
  0
VERTEX
  8
3
  5
3994
 10
128.083
 20
138.991
 30
0.00000
  70
    32
  0
VERTEX
  8
3
  5
3995
 10
128.140
 20
139.004
 30
0.00000
  70
    32
  0
VERTEX
  8
3
  5
3996
 10
128.197
 20
139.016
 30
0.00000
  70
    32
  0
VERTEX
  8
3
  5
3997
 10
128.255
 20
139.026
 30
0.00000
  70
    32
  0
VERTEX
  8
3
  5
3998
 10
128.313
 20
139.034
 30
0.00000
  70
    32
  0
VERTEX
  8
3
  5
3999
 10
128.371
 20
139.040
 30
0.00000
  70
    32
  0
VERTEX
  8
3
  5
399A
 10
128.429
 20
139.045
 30
0.00000
  70
    32
  0
VERTEX
  8
3
  5
399B
 10
128.487
 20
139.048
 30
0.00000
  70
    32
  0
VERTEX
  8
3
  5
399C
 10
128.545
 20
139.048
 30
0.00000
  70
    32
  0
SEQEND
  8
3
  5
399D
  0
POLYLINE
  5
1F80
  8
3
 10
128.5449406241492056
 20
139.0484551536420952
 30
0.0
 66
     1
 70
     8
  0
VERTEX
  8
3
  5
399E
 10
128.545
 20
139.048
 30
0.00000
  70
    32
  0
VERTEX
  8
3
  5
399F
 10
128.614
 20
139.048
 30
0.00000
  70
    32
  0
VERTEX
  8
3
  5
39A0
 10
128.684
 20
139.045
 30
0.00000
  70
    32
  0
VERTEX
  8
3
  5
39A1
 10
128.753
 20
139.040
 30
0.00000
  70
    32
  0
VERTEX
  8
3
  5
39A2
 10
128.822
 20
139.034
 30
0.00000
  70
    32
  0
VERTEX
  8
3
  5
39A3
 10
128.891
 20
139.026
 30
0.00000
  70
    32
  0
VERTEX
  8
3
  5
39A4
 10
128.960
 20
139.016
 30
0.00000
  70
    32
  0
VERTEX
  8
3
  5
39A5
 10
129.028
 20
139.004
 30
0.00000
  70
    32
  0
VERTEX
  8
3
  5
39A6
 10
129.097
 20
138.991
 30
0.00000
  70
    32
  0
VERTEX
  8
3
  5
39A7
 10
129.164
 20
138.976
 30
0.00000
  70
    32
  0
VERTEX
  8
3
  5
39A8
 10
129.232
 20
138.959
 30
0.00000
  70
    32
  0
VERTEX
  8
3
  5
39A9
 10
129.299
 20
138.940
 30
0.00000
  70
    32
  0
VERTEX
  8
3
  5
39AA
 10
129.366
 20
138.919
 30
0.00000
  70
    32
  0
VERTEX
  8
3
  5
39AB
 10
129.432
 20
138.897
 30
0.00000
  70
    32
  0
VERTEX
  8
3
  5
39AC
 10
129.497
 20
138.873
 30
0.00000
  70
    32
  0
VERTEX
  8
3
  5
39AD
 10
129.562
 20
138.847
 30
0.00000
  70
    32
  0
VERTEX
  8
3
  5
39AE
 10
129.627
 20
138.820
 30
0.00000
  70
    32
  0
VERTEX
  8
3
  5
39AF
 10
129.691
 20
138.791
 30
0.00000
  70
    32
  0
VERTEX
  8
3
  5
39B0
 10
129.754
 20
138.760
 30
0.00000
  70
    32
  0
VERTEX
  8
3
  5
39B1
 10
129.816
 20
138.728
 30
0.00000
  70
    32
  0
VERTEX
  8
3
  5
39B2
 10
129.878
 20
138.694
 30
0.00000
  70
    32
  0
VERTEX
  8
3
  5
39B3
 10
129.939
 20
138.659
 30
0.00000
  70
    32
  0
VERTEX
  8
3
  5
39B4
 10
129.998
 20
138.622
 30
0.00000
  70
    32
  0
VERTEX
  8
3
  5
39B5
 10
130.058
 20
138.583
 30
0.00000
  70
    32
  0
VERTEX
  8
3
  5
39B6
 10
130.116
 20
138.543
 30
0.00000
  70
    32
  0
VERTEX
  8
3
  5
39B7
 10
130.173
 20
138.501
 30
0.00000
  70
    32
  0
VERTEX
  8
3
  5
39B8
 10
130.229
 20
138.458
 30
0.00000
  70
    32
  0
VERTEX
  8
3
  5
39B9
 10
130.284
 20
138.413
 30
0.00000
  70
    32
  0
VERTEX
  8
3
  5
39BA
 10
130.339
 20
138.367
 30
0.00000
  70
    32
  0
VERTEX
  8
3
  5
39BB
 10
130.392
 20
138.320
 30
0.00000
  70
    32
  0
VERTEX
  8
3
  5
39BC
 10
130.444
 20
138.271
 30
0.00000
  70
    32
  0
VERTEX
  8
3
  5
39BD
 10
130.494
 20
138.221
 30
0.00000
  70
    32
  0
VERTEX
  8
3
  5
39BE
 10
130.544
 20
138.170
 30
0.00000
  70
    32
  0
VERTEX
  8
3
  5
39BF
 10
130.593
 20
138.117
 30
0.00000
  70
    32
  0
VERTEX
  8
3
  5
39C0
 10
130.640
 20
138.063
 30
0.00000
  70
    32
  0
VERTEX
  8
3
  5
39C1
 10
130.686
 20
138.008
 30
0.00000
  70
    32
  0
VERTEX
  8
3
  5
39C2
 10
130.730
 20
137.952
 30
0.00000
  70
    32
  0
VERTEX
  8
3
  5
39C3
 10
130.774
 20
137.894
 30
0.00000
  70
    32
  0
VERTEX
  8
3
  5
39C4
 10
130.816
 20
137.836
 30
0.00000
  70
    32
  0
VERTEX
  8
3
  5
39C5
 10
130.857
 20
137.776
 30
0.00000
  70
    32
  0
VERTEX
  8
3
  5
39C6
 10
130.896
 20
137.715
 30
0.00000
  70
    32
  0
VERTEX
  8
3
  5
39C7
 10
130.934
 20
137.653
 30
0.00000
  70
    32
  0
VERTEX
  8
3
  5
39C8
 10
130.970
 20
137.591
 30
0.00000
  70
    32
  0
VERTEX
  8
3
  5
39C9
 10
131.005
 20
137.527
 30
0.00000
  70
    32
  0
VERTEX
  8
3
  5
39CA
 10
131.038
 20
137.463
 30
0.00000
  70
    32
  0
VERTEX
  8
3
  5
39CB
 10
131.070
 20
137.397
 30
0.00000
  70
    32
  0
VERTEX
  8
3
  5
39CC
 10
131.101
 20
137.331
 30
0.00000
  70
    32
  0
VERTEX
  8
3
  5
39CD
 10
131.130
 20
137.264
 30
0.00000
  70
    32
  0
VERTEX
  8
3
  5
39CE
 10
131.157
 20
137.197
 30
0.00000
  70
    32
  0
VERTEX
  8
3
  5
39CF
 10
131.183
 20
137.128
 30
0.00000
  70
    32
  0
VERTEX
  8
3
  5
39D0
 10
131.207
 20
137.059
 30
0.00000
  70
    32
  0
VERTEX
  8
3
  5
39D1
 10
131.230
 20
136.990
 30
0.00000
  70
    32
  0
VERTEX
  8
3
  5
39D2
 10
131.251
 20
136.919
 30
0.00000
  70
    32
  0
VERTEX
  8
3
  5
39D3
 10
131.270
 20
136.849
 30
0.00000
  70
    32
  0
VERTEX
  8
3
  5
39D4
 10
131.288
 20
136.777
 30
0.00000
  70
    32
  0
VERTEX
  8
3
  5
39D5
 10
131.304
 20
136.706
 30
0.00000
  70
    32
  0
VERTEX
  8
3
  5
39D6
 10
131.318
 20
136.634
 30
0.00000
  70
    32
  0
VERTEX
  8
3
  5
39D7
 10
131.331
 20
136.561
 30
0.00000
  70
    32
  0
VERTEX
  8
3
  5
39D8
 10
131.342
 20
136.489
 30
0.00000
  70
    32
  0
VERTEX
  8
3
  5
39D9
 10
131.351
 20
136.416
 30
0.00000
  70
    32
  0
VERTEX
  8
3
  5
39DA
 10
131.359
 20
136.343
 30
0.00000
  70
    32
  0
VERTEX
  8
3
  5
39DB
 10
131.365
 20
136.269
 30
0.00000
  70
    32
  0
VERTEX
  8
3
  5
39DC
 10
131.369
 20
136.196
 30
0.00000
  70
    32
  0
VERTEX
  8
3
  5
39DD
 10
131.371
 20
136.122
 30
0.00000
  70
    32
  0
VERTEX
  8
3
  5
39DE
 10
131.372
 20
136.048
 30
0.00000
  70
    32
  0
VERTEX
  8
3
  5
39DF
 10
131.371
 20
135.975
 30
0.00000
  70
    32
  0
VERTEX
  8
3
  5
39E0
 10
131.369
 20
135.901
 30
0.00000
  70
    32
  0
VERTEX
  8
3
  5
39E1
 10
131.365
 20
135.828
 30
0.00000
  70
    32
  0
VERTEX
  8
3
  5
39E2
 10
131.359
 20
135.754
 30
0.00000
  70
    32
  0
VERTEX
  8
3
  5
39E3
 10
131.351
 20
135.681
 30
0.00000
  70
    32
  0
VERTEX
  8
3
  5
39E4
 10
131.342
 20
135.608
 30
0.00000
  70
    32
  0
VERTEX
  8
3
  5
39E5
 10
131.331
 20
135.536
 30
0.00000
  70
    32
  0
VERTEX
  8
3
  5
39E6
 10
131.318
 20
135.463
 30
0.00000
  70
    32
  0
VERTEX
  8
3
  5
39E7
 10
131.304
 20
135.391
 30
0.00000
  70
    32
  0
VERTEX
  8
3
  5
39E8
 10
131.288
 20
135.320
 30
0.00000
  70
    32
  0
VERTEX
  8
3
  5
39E9
 10
131.270
 20
135.248
 30
0.00000
  70
    32
  0
VERTEX
  8
3
  5
39EA
 10
131.251
 20
135.178
 30
0.00000
  70
    32
  0
VERTEX
  8
3
  5
39EB
 10
131.230
 20
135.107
 30
0.00000
  70
    32
  0
VERTEX
  8
3
  5
39EC
 10
131.207
 20
135.038
 30
0.00000
  70
    32
  0
VERTEX
  8
3
  5
39ED
 10
131.183
 20
134.969
 30
0.00000
  70
    32
  0
VERTEX
  8
3
  5
39EE
 10
131.157
 20
134.900
 30
0.00000
  70
    32
  0
VERTEX
  8
3
  5
39EF
 10
131.130
 20
134.833
 30
0.00000
  70
    32
  0
VERTEX
  8
3
  5
39F0
 10
131.101
 20
134.766
 30
0.00000
  70
    32
  0
VERTEX
  8
3
  5
39F1
 10
131.070
 20
134.700
 30
0.00000
  70
    32
  0
VERTEX
  8
3
  5
39F2
 10
131.038
 20
134.634
 30
0.00000
  70
    32
  0
VERTEX
  8
3
  5
39F3
 10
131.005
 20
134.570
 30
0.00000
  70
    32
  0
VERTEX
  8
3
  5
39F4
 10
130.970
 20
134.506
 30
0.00000
  70
    32
  0
VERTEX
  8
3
  5
39F5
 10
130.934
 20
134.443
 30
0.00000
  70
    32
  0
VERTEX
  8
3
  5
39F6
 10
130.896
 20
134.382
 30
0.00000
  70
    32
  0
VERTEX
  8
3
  5
39F7
 10
130.857
 20
134.321
 30
0.00000
  70
    32
  0
VERTEX
  8
3
  5
39F8
 10
130.816
 20
134.261
 30
0.00000
  70
    32
  0
VERTEX
  8
3
  5
39F9
 10
130.774
 20
134.203
 30
0.00000
  70
    32
  0
VERTEX
  8
3
  5
39FA
 10
130.730
 20
134.145
 30
0.00000
  70
    32
  0
VERTEX
  8
3
  5
39FB
 10
130.686
 20
134.089
 30
0.00000
  70
    32
  0
VERTEX
  8
3
  5
39FC
 10
130.640
 20
134.034
 30
0.00000
  70
    32
  0
VERTEX
  8
3
  5
39FD
 10
130.593
 20
133.980
 30
0.00000
  70
    32
  0
VERTEX
  8
3
  5
39FE
 10
130.544
 20
133.927
 30
0.00000
  70
    32
  0
VERTEX
  8
3
  5
39FF
 10
130.494
 20
133.876
 30
0.00000
  70
    32
  0
VERTEX
  8
3
  5
3A00
 10
130.444
 20
133.826
 30
0.00000
  70
    32
  0
VERTEX
  8
3
  5
3A01
 10
130.392
 20
133.777
 30
0.00000
  70
    32
  0
VERTEX
  8
3
  5
3A02
 10
130.339
 20
133.729
 30
0.00000
  70
    32
  0
VERTEX
  8
3
  5
3A03
 10
130.284
 20
133.683
 30
0.00000
  70
    32
  0
VERTEX
  8
3
  5
3A04
 10
130.229
 20
133.639
 30
0.00000
  70
    32
  0
VERTEX
  8
3
  5
3A05
 10
130.173
 20
133.596
 30
0.00000
  70
    32
  0
VERTEX
  8
3
  5
3A06
 10
130.116
 20
133.554
 30
0.00000
  70
    32
  0
VERTEX
  8
3
  5
3A07
 10
130.058
 20
133.514
 30
0.00000
  70
    32
  0
VERTEX
  8
3
  5
3A08
 10
129.998
 20
133.475
 30
0.00000
  70
    32
  0
VERTEX
  8
3
  5
3A09
 10
129.939
 20
133.438
 30
0.00000
  70
    32
  0
VERTEX
  8
3
  5
3A0A
 10
129.878
 20
133.403
 30
0.00000
  70
    32
  0
VERTEX
  8
3
  5
3A0B
 10
129.816
 20
133.369
 30
0.00000
  70
    32
  0
VERTEX
  8
3
  5
3A0C
 10
129.754
 20
133.336
 30
0.00000
  70
    32
  0
VERTEX
  8
3
  5
3A0D
 10
129.691
 20
133.306
 30
0.00000
  70
    32
  0
VERTEX
  8
3
  5
3A0E
 10
129.627
 20
133.277
 30
0.00000
  70
    32
  0
VERTEX
  8
3
  5
3A0F
 10
129.562
 20
133.249
 30
0.00000
  70
    32
  0
VERTEX
  8
3
  5
3A10
 10
129.497
 20
133.224
 30
0.00000
  70
    32
  0
VERTEX
  8
3
  5
3A11
 10
129.432
 20
133.200
 30
0.00000
  70
    32
  0
VERTEX
  8
3
  5
3A12
 10
129.366
 20
133.178
 30
0.00000
  70
    32
  0
VERTEX
  8
3
  5
3A13
 10
129.299
 20
133.157
 30
0.00000
  70
    32
  0
VERTEX
  8
3
  5
3A14
 10
129.232
 20
133.138
 30
0.00000
  70
    32
  0
VERTEX
  8
3
  5
3A15
 10
129.164
 20
133.121
 30
0.00000
  70
    32
  0
VERTEX
  8
3
  5
3A16
 10
129.097
 20
133.106
 30
0.00000
  70
    32
  0
VERTEX
  8
3
  5
3A17
 10
129.028
 20
133.093
 30
0.00000
  70
    32
  0
VERTEX
  8
3
  5
3A18
 10
128.960
 20
133.081
 30
0.00000
  70
    32
  0
VERTEX
  8
3
  5
3A19
 10
128.891
 20
133.071
 30
0.00000
  70
    32
  0
VERTEX
  8
3
  5
3A1A
 10
128.822
 20
133.063
 30
0.00000
  70
    32
  0
VERTEX
  8
3
  5
3A1B
 10
128.753
 20
133.057
 30
0.00000
  70
    32
  0
VERTEX
  8
3
  5
3A1C
 10
128.684
 20
133.052
 30
0.00000
  70
    32
  0
VERTEX
  8
3
  5
3A1D
 10
128.614
 20
133.049
 30
0.00000
  70
    32
  0
VERTEX
  8
3
  5
3A1E
 10
128.545
 20
133.048
 30
0.00000
  70
    32
  0
SEQEND
  8
3
  5
3A1F
  0
POLYLINE
  5
1F81
  8
0
 66
     1
 10
0.0
 20
0.0
 30
0.0
  0
VERTEX
  5
1F82
  8
0
 10
128.0449407400714961
 20
130.8166822256555122
 30
0.0
 42
-0.1201908405713397
  0
VERTEX
  5
1F83
  8
0
 10
126.4960546174302038
 20
131.1944634420250964
 30
0.0
 42
-0.1049914411440629
  0
VERTEX
  5
1F84
  8
0
 10
125.0905298612369023
 20
132.3490330386347864
 30
0.0
 42
-0.0888399716442014
 70
     2
 50
128.6113591249610977
  0
VERTEX
  5
1F85
  8
0
 10
124.1972490546867931
 20
133.9971517657365041
 30
0.0
 42
-0.0800367364724194
  0
VERTEX
  5
1F86
  8
0
 10
123.8667728064013005
 20
136.0484551536426068
 30
0.0
 42
-0.0800367364724852
  0
VERTEX
  5
1F87
  8
0
 10
124.1972490546875036
 20
138.0997585415491073
 30
0.0
 42
-0.0888399716442105
  0
VERTEX
  5
1F88
  8
0
 10
125.0905298612373997
 20
139.7478772686500861
 30
0.0
 42
-0.1049914411440375
 70
     2
 50
51.3886408750339925
  0
VERTEX
  5
1F89
  8
0
 10
126.4960546174302038
 20
140.9024468652594066
 30
0.0
 42
-0.1201908405713797
  0
VERTEX
  5
1F8A
  8
0
 10
128.0449407400720077
 20
141.2802280816291898
 30
0.0
 42
-0.1201908405713928
  0
SEQEND
  5
1F8B
  8
0
  0
POLYLINE
  5
1F8C
  8
0
 66
     1
 10
0.0
 20
0.0
 30
0.0
  0
VERTEX
  5
1F8D
  8
0
 10
128.0449407400720077
 20
141.2802280816291898
 30
0.0
 42
-0.1041900695162349
  0
VERTEX
  5
1F8E
  8
0
 10
129.9107905520208988
 20
140.8871550058823914
 30
0.0
 42
-0.100672025544605
  0
VERTEX
  5
1F8F
  8
0
 10
131.5204347835681062
 20
139.7478772686498871
 30
0.0
 42
-0.0960659417530505
 70
     2
 50
313.2123874606464256
  0
VERTEX
  5
1F90
  8
0
 10
132.5813909147314007
 20
138.0655646721540109
 30
0.0
 42
-0.0930446819329358
  0
VERTEX
  5
1F91
  8
0
 10
132.960031552331202
 20
136.0484551536420952
 30
0.0
 42
-0.0930446819329564
  0
VERTEX
  5
1F92
  8
0
 10
132.5813909147314007
 20
134.0313456351306058
 30
0.0
 42
-0.0960659417531119
  0
VERTEX
  5
1F93
  8
0
 10
131.5204347835681062
 20
132.3490330386343032
 30
0.0
 42
-0.1006720255447201
 70
     2
 50
226.7876125393536881
  0
VERTEX
  5
1F94
  8
0
 10
129.9107905520203872
 20
131.2097553014019979
 30
0.0
 42
-0.1041900695163189
  0
VERTEX
  5
1F95
  8
0
 10
128.0449407400720077
 20
130.8166822256550006
 30
0.0
 42
-0.1041900695162816
  0
SEQEND
  5
1F96
  8
0
  0
LINE
  5
21D8
  8
1
 10
351.2439239023116784
 20
132.0484551536412141
 30
0.0
 11
351.2439239023120194
 21
109.0484542986872043
 31
0.0
  0
LINE
  5
220D
  8
1
 10
169.5449407400724056
 20
132.0484551536420952
 30
0.0
 11
169.5449407400722066
 21
109.0484542986880996
 31
0.0
  0
LINE
  5
22FB
  8
0
 10
251.5774482417155014
 20
129.548455153641612
 30
0.0
 11
290.5774482417156719
 21
129.548455153641612
 31
0.0
  0
LINE
  5
2772
  8
0
 10
135.0454930550095867
 20
121.6010029379298061
 30
0.0
 11
139.9330153632261897
 21
122.2881169643701043
 31
0.0
  0
ARC
  5
2773
  8
0
 10
137.5449407400724908
 20
121.5484551536419957
 30
0.0
 40
2.5000000000000009
 50
17.209397261990329
 51
178.7956047996507039
  0
LINE
  5
2774
  8
0
 10
135.1568661167007974
 20
120.8087933436182055
 30
0.0
 11
140.0443884251463089
 21
121.4959073698668988
 31
0.0
  0
ARC
  5
2775
  8
0
 10
137.5449407400724908
 20
121.5484551536419957
 30
0.0
 40
2.5000000000000222
 50
197.2093972450985859
 51
358.7956048114041891
  0
ARC
  5
2779
  8
0
 10
137.4082609781515885
 20
121.5484551536420952
 30
0.0
 40
2.9032191369786071
 50
272.698407823245816
 51
87.3015921767542551
  0
ARC
  5
277A
  8
0
 10
137.6736470764600142
 20
121.5484551536419957
 30
0.0
 40
2.902854684793311
 50
92.5412047601527519
 51
267.4587952398471771
  0
POLYLINE
  5
277B
  8
0
 66
     1
 10
0.0
 20
0.0
 30
0.0
 70
   128
  0
VERTEX
  5
3113
  8
0
 10
139.6449407400725136
 20
121.5484551536420952
 30
0.0
  0
VERTEX
  5
3114
  8
0
 10
139.5516436322234881
 20
122.1674410199049987
 30
0.0
  0
VERTEX
  5
3115
  8
0
 10
139.5307316056513969
 20
122.2315617618544934
 30
0.0
  0
SEQEND
  5
3116
  8
0
  0
POLYLINE
  5
277C
  8
0
 66
     1
 10
0.0
 20
0.0
 30
0.0
 70
   128
  0
VERTEX
  5
3117
  8
0
 10
135.4477768126565991
 20
121.6575581396007948
 30
0.0
  0
VERTEX
  5
3118
  8
0
 10
135.4683960049997893
 20
121.2354663946722013
 30
0.0
  0
VERTEX
  5
3119
  8
0
 10
135.5591498744936985
 20
120.865348545429498
 30
0.0
  0
SEQEND
  5
311A
  8
0
  0
LINE
  5
277D
  8
0
 10
139.6421046674884963
 20
121.4393521676831966
 30
0.0
 11
139.6449407400725136
 21
121.5484551536420952
 31
0.0
  0
TEXT
  5
2857
  8
0
 62
     3
 10
0.0
 20
0.0
 30
0.0
 40
10.0
  1
QLSW200L
  7
STANDARD1
  0
LINE
  5
2C0E
  8
0
 10
231.6799030828528032
 20
315.205756281552226
 30
0.0
 11
258.7991882876978025
 21
257.0482588272740827
 31
0.0
  0
LINE
  5
2C0F
  8
0
 10
267.8622668715743202
 20
261.2744417837878927
 30
0.0
 11
240.7429811734012901
 21
319.4319416629646753
 31
0.0
  0
LINE
  5
2C12
  8
0
 10
240.7429811734012901
 20
319.4319416629646753
 30
0.0
 11
240.07851790667101
 21
319.6737800585602827
 31
0.0
  0
LINE
  5
2C13
  8
0
 10
231.9217489290288938
 20
315.8702214109276838
 30
0.0
 11
231.6799030828528032
 21
315.205756281552226
 31
0.0
  0
LINE
  5
2C23
  8
0
 10
245.3258295732788099
 20
290.6743732141828218
 30
0.0
 11
248.7067763882926954
 21
283.4239114868020124
 31
0.0
  0
LINE
  5
2C25
  8
0
 10
254.1446217525057136
 20
285.9596197354172773
 30
0.0
 11
250.7636768001370058
 21
293.2100851880883283
 31
0.0
  0
POLYLINE
  5
2C28
  8
0
 66
     1
 10
0.0
 20
0.0
 30
0.0
 70
   128
  0
VERTEX
  5
311F
  8
0
 10
240.7429811734012901
 20
319.4319416629646753
 30
0.0
  0
VERTEX
  5
3120
  8
0
 10
240.6842985379747972
 20
319.4045756804321741
 30
0.0
  0
VERTEX
  5
3121
  8
0
 10
240.5097705501370058
 20
319.3231929885719751
 30
0.0
  0
VERTEX
  5
3122
  8
0
 10
240.2239197123101917
 20
319.1898946511125246
 30
0.0
  0
VERTEX
  5
3123
  8
0
 10
239.8341481763175977
 20
319.0081451880311079
 30
0.0
  0
VERTEX
  5
3124
  8
0
 10
239.3505477535775867
 20
318.7826384651040144
 30
0.0
  0
VERTEX
  5
3125
  8
0
 10
238.7856484580092058
 20
318.5192157375191755
 30
0.0
  0
VERTEX
  5
3126
  8
0
 10
238.1540776419691099
 20
318.2247166382646242
 30
0.0
  0
VERTEX
  5
3127
  8
0
 10
237.4721967804483995
 20
317.9067482101295923
 30
0.0
  0
VERTEX
  5
3128
  8
0
 10
236.7576600241712868
 20
317.5735507952546186
 30
0.0
  0
VERTEX
  5
3129
  8
0
 10
236.0289746153405872
 20
317.2337596165513105
 30
0.0
  0
VERTEX
  5
312A
  8
0
 10
235.3050165998986927
 20
316.8961738097046918
 30
0.0
  0
VERTEX
  5
312B
  8
0
 10
234.6045353639177904
 20
316.5695329057550111
 30
0.0
  0
VERTEX
  5
312C
  8
0
 10
233.9456730711511909
 20
316.2623007642602033
 30
0.0
  0
VERTEX
  5
312D
  8
0
 10
233.345491551165992
 20
315.9824346052980104
 30
0.0
  0
VERTEX
  5
312E
  8
0
 10
232.8195364403775898
 20
315.737176393208415
 30
0.0
  0
VERTEX
  5
312F
  8
0
 10
232.3814311254076017
 20
315.5328814732408205
 30
0.0
  0
VERTEX
  5
3130
  8
0
 10
232.0425191152147875
 20
315.3748472081994123
 30
0.0
  0
VERTEX
  5
3131
  8
0
 10
231.8115809190325081
 20
315.2671565162514753
 30
0.0
  0
VERTEX
  5
3132
  8
0
 10
231.6945956277899086
 20
315.2126108157013959
 30
0.0
  0
VERTEX
  5
3133
  8
0
 10
231.6799030828528032
 20
315.205756281552226
 30
0.0
  0
SEQEND
  5
3134
  8
0
  0
LINE
  5
2C29
  8
0
 10
250.7636768001370058
 20
293.2100851880883283
 30
0.0
 11
245.3258295732788099
 21
290.6743732141828218
 31
0.0
  0
LINE
  5
2C2A
  8
0
 10
248.7067763882926954
 20
283.4239114868020124
 30
0.0
 11
254.1446217525057136
 21
285.9596197354172773
 31
0.0
  0
ARC
  5
2C2F
  8
0
 10
271.0774482417156719
 20
242.548454259571912
 30
0.0
 40
19.5000000000000391
 50
337.4999999999997158
 51
100.1428344550803047
  0
ARC
  5
2C30
  8
0
 10
271.0774482417156719
 20
242.548454259571912
 30
0.0
 40
19.5000000000000213
 50
129.8571655449212017
 51
202.5000000000032969
  0
LINE
  5
2C31
  8
0
 10
253.0617972093872083
 20
235.086127356675803
 30
0.0
 11
252.5998574870876894
 21
234.894785736737191
 31
0.0
  0
ARC
  5
2C32
  8
0
 10
271.0774482417156719
 20
242.548454259571912
 30
0.0
 40
20.0000000000000284
 50
129.4775121859321985
 51
202.5000000000032969
  0
ARC
  5
2C33
  8
0
 10
271.0774482417156719
 20
242.548454259571912
 30
0.0
 40
20.0000000000000213
 50
337.4999999999997158
 51
100.5224878140712974
  0
LINE
  5
2C34
  8
0
 10
289.0930992740445049
 20
235.086127356675803
 30
0.0
 11
289.5550389963440239
 21
234.894785736737191
 31
0.0
  0
LINE
  5
2C35
  8
0
 10
276.4398387822561176
 20
204.5384530770157028
 30
0.0
 11
289.0930992740445049
 21
235.086127356675803
 31
0.0
  0
LINE
  5
2C36
  8
0
 10
265.7150577011756241
 20
204.5384530770157028
 30
0.0
 11
276.4398387822561176
 21
204.5384530770157028
 31
0.0
  0
LINE
  5
2C37
  8
0
 10
253.0617972093872083
 20
235.086127356675803
 30
0.0
 11
265.7150577011756241
 21
204.5384530770157028
 31
0.0
  0
LINE
  5
2C39
  8
0
 10
289.5550389963440239
 20
234.894785736737191
 30
0.0
 11
276.7739279384962856
 21
204.0384557890270969
 31
0.0
  0
LINE
  5
2C3A
  8
0
 10
276.7739279384962856
 20
204.0384557890270969
 30
0.0
 11
276.4398387822561176
 21
204.5384530770157028
 31
0.0
  0
LINE
  5
2C3B
  8
0
 10
265.7150577011756241
 20
204.5384530770157028
 30
0.0
 11
265.3809685449353992
 21
204.0384557890270969
 31
0.0
  0
LINE
  5
2C3C
  8
0
 10
265.3809685449353992
 20
204.0384557890270969
 30
0.0
 11
252.5998574870876894
 21
234.894785736737191
 31
0.0
  0
LINE
  5
2C3E
  8
0
 10
276.7739279384962856
 20
204.0384557890270969
 30
0.0
 11
276.152607724373695
 21
202.5384527491902134
 31
0.0
  0
LINE
  5
2C3F
  8
0
 10
276.152607724373695
 20
202.5384527491902134
 30
0.0
 11
266.0022887590578762
 21
202.5384527491902134
 31
0.0
  0
LINE
  5
2C40
  8
0
 10
266.0022887590578762
 20
202.5384527491902134
 30
0.0
 11
265.3809685449353992
 21
204.0384557890270969
 31
0.0
  0
LINE
  5
2CC3
  8
0
 10
117.5449407400722066
 20
118.5871304022650037
 30
0.0
 11
117.5449407400722066
 21
114.0484564947466026
 31
0.0
  0
LINE
  5
2CC4
  8
0
 10
117.5449407400722066
 20
129.0484570907931072
 30
0.0
 11
117.5449407400722066
 21
124.5316841649393069
 31
0.0
  0
LINE
  5
2CC5
  8
0
 10
118.0449398907060043
 20
129.5484581040720116
 30
0.0
 11
117.5449407400722066
 21
129.0484570907931072
 31
0.0
  0
LINE
  5
2CC6
  8
0
 10
117.5449407400722066
 20
114.0484564947466026
 30
0.0
 11
118.0449398907060043
 21
113.5484554814676983
 31
0.0
  0
LINE
  5
2CDD
  8
0
 10
117.744940400325703
 20
113.5484554814676983
 30
0.0
 11
148.1795525850886861
 21
113.5484554814676983
 31
0.0
  0
ARC
  5
2CEA
  8
0
 10
93.8493796999071037
 20
121.6426549637429986
 30
0.0
 40
23.8967220013268182
 50
352.6538358396579156
 51
354.8645289426168006
  0
POLYLINE
  5
2CEB
  8
0
 66
     1
 10
0.0
 20
0.0
 30
0.0
 70
   128
  0
VERTEX
  5
3135
  8
0
 10
117.5470883699291988
 20
124.5316841649393069
 30
0.0
  0
VERTEX
  5
3136
  8
0
 10
117.5452238621349039
 20
124.5462835776189934
 30
0.0
  0
VERTEX
  5
3137
  8
0
 10
117.5681064577932062
 20
124.3654505359510978
 30
0.0
  0
VERTEX
  5
3138
  8
0
 10
117.6187815817230984
 20
123.9178978847841961
 30
0.0
  0
VERTEX
  5
3139
  8
0
 10
117.6804854275817007
 20
123.222266976771806
 30
0.0
  0
VERTEX
  5
313A
  8
0
 10
117.7293724121684022
 20
122.3127298998217043
 30
0.0
  0
VERTEX
  5
313B
  8
0
 10
117.7406488659019033
 20
121.2764323698858959
 30
0.0
  0
VERTEX
  5
313C
  8
0
 10
117.7050034256809994
 20
120.249109064278997
 30
0.0
  0
VERTEX
  5
313D
  8
0
 10
117.6501764657134004
 20
119.5036374973634992
 30
0.0
  0
SEQEND
  5
313E
  8
0
  0
LINE
  5
2CEC
  8
0
 10
145.1986088158720918
 20
129.0484570907931072
 30
0.0
 11
117.5449407400722066
 21
129.0484570907931072
 31
0.0
  0
LINE
  5
2CED
  8
0
 10
145.1986088158720918
 20
114.0484564947466026
 30
0.0
 11
145.1986088158720918
 21
129.0484570907931072
 31
0.0
  0
LINE
  5
2CEE
  8
0
 10
117.5449407400722066
 20
114.0484564947466026
 30
0.0
 11
145.1986088158720918
 21
114.0484564947466026
 31
0.0
  0
LINE
  5
2CF1
  8
0
 10
118.0449398907060043
 20
129.5484581040720116
 30
0.0
 11
145.0072671959335082
 21
129.5484581040720116
 31
0.0
  0
LINE
  5
2CF2
  8
0
 10
145.0072671959335082
 20
129.5484581040720116
 30
0.0
 11
145.1986088158720918
 21
129.0484570907931072
 31
0.0
  0
LINE
  5
2CF3
  8
0
 10
145.1986088158720918
 20
114.0484564947466026
 30
0.0
 11
145.0072671959335082
 21
113.5484554814676983
 31
0.0
  0
LINE
  5
2CF6
  8
0
 10
176.0549387635821859
 20
129.0484570907931072
 30
0.0
 11
145.1986088158720918
 21
129.0484570907931072
 31
0.0
  0
LINE
  5
2CF7
  8
0
 10
177.5549418034190126
 20
127.5484577762464937
 30
0.0
 11
176.0549387635821859
 21
129.0484570907931072
 31
0.0
  0
LINE
  5
2CF8
  8
0
 10
177.5549418034190126
 20
112.048456166921099
 30
0.0
 11
177.5549418034190126
 21
127.5484577762464937
 31
0.0
  0
LINE
  5
2CF9
  8
0
 10
161.5449405016535991
 20
112.048456166921099
 30
0.0
 11
177.5549418034190126
 21
112.048456166921099
 31
0.0
  0
LINE
  5
2CFA
  8
0
 10
161.5449405016535991
 20
114.0484564947466026
 30
0.0
 11
161.5449405016535991
 21
112.048456166921099
 31
0.0
  0
LINE
  5
2CFB
  8
0
 10
145.1986088158720918
 20
114.0484564947466026
 30
0.0
 11
161.5449405016535991
 21
114.0484564947466026
 31
0.0
  0
ARC
  5
2CFC
  8
0
 10
161.1449402930373935
 20
113.1484569542879939
 30
0.0
 40
0.4000000000000057
 50
0.0
 51
90.0
  0
LINE
  5
2CFD
  8
0
 10
161.1449411811464927
 20
113.5484554814676983
 30
0.0
 11
148.1795525850886861
 21
113.5484554814676983
 31
0.0
  0
LINE
  5
2CFE
  8
0
 10
175.5549414755934947
 20
129.5484581040720116
 30
0.0
 11
176.0549387635821859
 21
129.0484570907931072
 31
0.0
  0
LINE
  5
2CFF
  8
0
 10
145.0072671959335082
 20
129.5484581040720116
 30
0.0
 11
175.5549414755934947
 21
129.5484581040720116
 31
0.0
  0
LINE
  5
2D00
  8
0
 10
177.0549407901401082
 20
111.5484551536420952
 30
0.0
 11
177.5549418034190126
 21
112.048456166921099
 31
0.0
  0
LINE
  5
2D01
  8
0
 10
177.0549407901401082
 20
111.5484551536420952
 30
0.0
 11
162.044939652287411
 21
111.5484551536420952
 31
0.0
  0
LINE
  5
2D02
  8
0
 10
161.5449405016535991
 20
112.048456166921099
 30
0.0
 11
162.044939652287411
 21
111.5484551536420952
 31
0.0
  0
LINE
  5
2DBE
  8
0
 10
291.0774477946807792
 20
129.048454140362594
 30
0.0
 11
290.5774486440470241
 21
129.548455153641612
 31
0.0
  0
LINE
  5
2DBF
  8
0
 10
251.5774478393842912
 20
129.548455153641612
 30
0.0
 11
251.0774486887505077
 21
129.048454140362594
 31
0.0
  0
LINE
  5
2DC0
  8
0
 10
251.0774486887505077
 20
118.6484531807277989
 30
0.0
 11
251.0774486887505077
 21
114.0484535443162031
 31
0.0
  0
LINE
  5
2DC1
  8
0
 10
251.0774486887505077
 20
129.048454140362594
 30
0.0
 11
251.0774486887505077
 21
124.4484545039509982
 31
0.0
  0
LINE
  5
2DC2
  8
0
 10
291.0774477946807792
 20
114.0484535443162031
 30
0.0
 11
291.0774477946807792
 21
129.048454140362594
 31
0.0
  0
LINE
  5
2DC3
  8
0
 10
251.0774486887505077
 20
114.0484535443162031
 30
0.0
 11
251.5774478393842912
 21
113.5484525310371993
 31
0.0
  0
LINE
  5
2DC4
  8
0
 10
290.5774486440470241
 20
113.5484525310371993
 30
0.0
 11
291.0774477946807792
 21
114.0484535443162031
 31
0.0
  0
LINE
  5
2DE0
  8
0
 10
265.3809685449351718
 20
129.048454140362594
 30
0.0
 11
252.5998574870874052
 21
129.048454140362594
 31
0.0
  0
LINE
  5
2DE1
  8
0
 10
266.0022887590577056
 20
127.5484548258159947
 30
0.0
 11
265.3809685449351718
 21
129.048454140362594
 31
0.0
  0
LINE
  5
2DE2
  8
0
 10
266.0022887590577056
 20
112.0484532164906
 30
0.0
 11
266.0022887590577056
 21
127.5484548258159947
 31
0.0
  0
LINE
  5
2DE3
  8
0
 10
259.3707299980570724
 20
112.0484532164906
 30
0.0
 11
266.0022887590577056
 21
112.0484532164906
 31
0.0
  0
LINE
  5
2DE4
  8
0
 10
259.3707299980570724
 20
114.0484535443162031
 30
0.0
 11
259.3707299980570724
 21
112.0484532164906
 31
0.0
  0
LINE
  5
2DE5
  8
0
 10
252.5998574870874052
 20
114.0484535443162031
 30
0.0
 11
259.3707299980570724
 21
114.0484535443162031
 31
0.0
  0
LINE
  5
2DE6
  8
0
 10
252.5998574870874052
 20
114.0484535443162031
 30
0.0
 11
252.5998574870874052
 21
129.048454140362594
 31
0.0
  0
LINE
  5
2DE7
  8
0
 10
266.3363783809592178
 20
111.5484522032116956
 30
0.0
 11
266.0022887590577056
 21
112.0484532164906
 31
0.0
  0
LINE
  5
2DE8
  8
0
 10
266.3363783809592178
 20
111.5484522032116956
 30
0.0
 11
260.1190327855994155
 21
111.5484522032116956
 31
0.0
  0
LINE
  5
2DE9
  8
0
 10
259.3707299980570724
 20
112.0484532164906
 30
0.0
 11
260.1190327855994155
 21
111.5484522032116956
 31
0.0
  0
LINE
  5
2DEA
  8
0
 10
276.7739279384961151
 20
129.048454140362594
 30
0.0
 11
276.4398387822557766
 21
129.548455153641612
 31
0.0
  0
LINE
  5
2DEB
  8
0
 10
276.7739279384961151
 20
129.048454140362594
 30
0.0
 11
276.1526077243735244
 21
127.5484548258159947
 31
0.0
  0
LINE
  5
2DEC
  8
0
 10
276.1526077243735244
 20
127.5484548258159947
 30
0.0
 11
266.0022887590577056
 21
127.5484548258159947
 31
0.0
  0
LINE
  5
2DED
  8
0
 10
265.7150577011753967
 20
129.548455153641612
 30
0.0
 11
265.3809685449351718
 21
129.048454140362594
 31
0.0
  0
LINE
  5
2DEF
  8
0
 10
276.1526077243735244
 20
112.0484532164906
 30
0.0
 11
276.1526077243735244
 21
127.5484548258159947
 31
0.0
  0
LINE
  5
2DF0
  8
0
 10
266.0022887590577056
 20
112.0484532164906
 30
0.0
 11
276.1526077243735244
 21
112.0484532164906
 31
0.0
  0
LINE
  5
2DF1
  8
0
 10
275.8185181024720123
 20
111.5484522032116956
 30
0.0
 11
266.3363783809592178
 21
111.5484522032116956
 31
0.0
  0
LINE
  5
2DF2
  8
0
 10
275.8185181024720123
 20
111.5484522032116956
 30
0.0
 11
276.1526077243735244
 21
112.0484532164906
 31
0.0
  0
LINE
  5
2DF3
  8
0
 10
276.1526077243735244
 20
112.0484532164906
 30
0.0
 11
282.7841664853742145
 21
112.0484532164906
 31
0.0
  0
LINE
  5
2DF4
  8
0
 10
282.7841664853742145
 20
112.0484532164906
 30
0.0
 11
282.0358636978318145
 21
111.5484522032116956
 31
0.0
  0
LINE
  5
2DF5
  8
0
 10
282.0358636978318145
 20
111.5484522032116956
 30
0.0
 11
275.8185181024720123
 21
111.5484522032116956
 31
0.0
  0
LINE
  5
2DF6
  8
0
 10
289.5550389963437965
 20
129.048454140362594
 30
0.0
 11
276.7739279384961151
 21
129.048454140362594
 31
0.0
  0
LINE
  5
2DF7
  8
0
 10
289.5550389963437965
 20
114.0484535443162031
 30
0.0
 11
289.5550389963437965
 21
129.048454140362594
 31
0.0
  0
LINE
  5
2DF8
  8
0
 10
282.7841664853742145
 20
114.0484535443162031
 30
0.0
 11
289.5550389963437965
 21
114.0484535443162031
 31
0.0
  0
LINE
  5
2DF9
  8
0
 10
282.7841664853742145
 20
112.0484532164906
 30
0.0
 11
282.7841664853742145
 21
114.0484535443162031
 31
0.0
  0
LINE
  5
2DFB
  8
0
 10
253.0617972093870094
 20
129.548455153641612
 30
0.0
 11
252.5998574870874052
 21
129.048454140362594
 31
0.0
  0
LINE
  5
2DFD
  8
0
 10
289.0930992740442207
 20
129.548455153641612
 30
0.0
 11
289.5550389963437965
 21
129.048454140362594
 31
0.0
  0
LINE
  5
2DFF
  8
0
 10
252.5998574870874052
 20
114.0484535443162031
 30
0.0
 11
253.0617972093870094
 21
113.5484525310371993
 31
0.0
  0
LINE
  5
2E00
  8
0
 10
289.5550389963437965
 20
114.0484535443162031
 30
0.0
 11
289.0930992740442207
 21
113.5484525310371993
 31
0.0
  0
LINE
  5
2E02
  8
0
 10
252.5998574870874052
 20
129.048454140362594
 30
0.0
 11
251.0774486887505077
 21
129.048454140362594
 31
0.0
  0
LINE
  5
2E03
  8
0
 10
291.0774477946807792
 20
129.048454140362594
 30
0.0
 11
289.5550389963437965
 21
129.048454140362594
 31
0.0
  0
LINE
  5
2E06
  8
0
 10
289.5550389963437965
 20
114.0484535443162031
 30
0.0
 11
291.0774477946807792
 21
114.0484535443162031
 31
0.0
  0
LINE
  5
2E07
  8
0
 10
251.0774486887505077
 20
114.0484535443162031
 30
0.0
 11
252.5998574870874052
 21
114.0484535443162031
 31
0.0
  0
ARC
  5
2E08
  8
0
 10
228.327146026081806
 20
121.5484538423393985
 30
0.0
 40
22.9343906629406007
 50
352.7356344112602073
 51
7.2643655887397616
  0
LINE
  5
2E86
  8
0
 10
403.2439239023119057
 20
124.5316856094440965
 30
0.0
 11
403.2439239023119057
 21
129.0484585352978115
 31
0.0
  0
LINE
  5
2E87
  8
0
 10
403.2439239023119057
 20
114.0484579392514064
 30
0.0
 11
403.2439239023119057
 21
118.5871318467697932
 31
0.0
  0
LINE
  5
2E88
  8
0
 10
403.2439239023119057
 20
129.0484585352978115
 30
0.0
 11
402.7439247516780938
 21
129.5484595485768011
 31
0.0
  0
LINE
  5
2E89
  8
0
 10
402.7439247516780938
 20
113.5484569259724026
 30
0.0
 11
403.2439239023119057
 21
114.0484579392514064
 31
0.0
  0
LINE
  5
2E9E
  8
0
 10
372.6093120572954831
 20
113.5484569259724026
 30
0.0
 11
403.043924242058381
 21
113.5484569259724026
 31
0.0
  0
POLYLINE
  5
2EAB
  8
0
 66
     1
 10
0.0
 20
0.0
 30
0.0
 70
   128
  0
VERTEX
  5
313F
  8
0
 10
403.2389133868604745
 20
118.5871318467697932
 30
0.0
  0
VERTEX
  5
3140
  8
0
 10
403.2399415669829068
 20
118.5791410990796066
 30
0.0
  0
VERTEX
  5
3141
  8
0
 10
403.2063562122971234
 20
118.8512921818336991
 30
0.0
  0
VERTEX
  5
3142
  8
0
 10
403.1498379705340085
 20
119.3828762062630062
 30
0.0
  0
VERTEX
  5
3143
  8
0
 10
403.0894305256991856
 20
120.1552443691333991
 30
0.0
  0
VERTEX
  5
3144
  8
0
 10
403.0506502536923108
 20
121.119424004181397
 30
0.0
  0
VERTEX
  5
3145
  8
0
 10
403.0550963876635251
 20
122.1691251286110997
 30
0.0
  0
VERTEX
  5
3146
  8
0
 10
403.1039200423151101
 20
123.1605925150952032
 30
0.0
  0
VERTEX
  5
3147
  8
0
 10
403.1733128873497094
 20
123.9488415905079961
 30
0.0
  0
VERTEX
  5
3148
  8
0
 10
403.2276406584172719
 20
124.4209997840961961
 30
0.0
  0
VERTEX
  5
3149
  8
0
 10
403.2417762724547856
 20
124.5316856094440965
 30
0.0
  0
SEQEND
  5
314A
  8
0
  0
LINE
  5
2EAC
  8
0
 10
403.2439239023119057
 20
129.0484585352978115
 30
0.0
 11
375.5902558265120206
 21
129.0484585352978115
 31
0.0
  0
LINE
  5
2EAD
  8
0
 10
375.5902558265120206
 20
114.0484579392514064
 30
0.0
 11
403.2439239023119057
 21
114.0484579392514064
 31
0.0
  0
LINE
  5
2EAE
  8
0
 10
375.5902558265120206
 20
114.0484579392514064
 30
0.0
 11
375.5902558265120206
 21
129.0484585352978115
 31
0.0
  0
LINE
  5
2EAF
  8
0
 10
375.7815974464505757
 20
129.5484595485768011
 30
0.0
 11
402.7439247516780938
 21
129.5484595485768011
 31
0.0
  0
LINE
  5
2EB0
  8
0
 10
375.7815974464505757
 20
129.5484595485768011
 30
0.0
 11
375.5902558265120206
 21
129.0484585352978115
 31
0.0
  0
LINE
  5
2EB1
  8
0
 10
375.5902558265120206
 20
114.0484579392514064
 30
0.0
 11
375.7815974464505757
 21
113.5484569259724026
 31
0.0
  0
LINE
  5
2EB2
  8
0
 10
343.2339228389650998
 20
112.0484576114259028
 30
0.0
 11
359.2439241407304849
 21
112.0484576114259028
 31
0.0
  0
LINE
  5
2EB3
  8
0
 10
343.2339228389650998
 20
112.0484576114259028
 30
0.0
 11
343.2339228389650998
 21
127.5484592207512975
 31
0.0
  0
LINE
  5
2EB4
  8
0
 10
344.7339258788019833
 20
129.0484585352978115
 30
0.0
 11
343.2339228389650998
 21
127.5484592207512975
 31
0.0
  0
LINE
  5
2EB5
  8
0
 10
375.5902558265120206
 20
129.0484585352978115
 30
0.0
 11
344.7339258788019833
 21
129.0484585352978115
 31
0.0
  0
LINE
  5
2EB6
  8
0
 10
359.2439241407304849
 20
114.0484579392514064
 30
0.0
 11
375.5902558265120206
 21
114.0484579392514064
 31
0.0
  0
LINE
  5
2EB7
  8
0
 10
359.2439241407304849
 20
112.0484576114259028
 30
0.0
 11
359.2439241407304849
 21
114.0484579392514064
 31
0.0
  0
LINE
  5
2EB8
  8
0
 10
344.7339258788019833
 20
129.0484585352978115
 30
0.0
 11
345.2339231667905892
 21
129.5484595485768011
 31
0.0
  0
LINE
  5
2EB9
  8
0
 10
345.2339231667905892
 20
129.5484595485768011
 30
0.0
 11
375.7815974464505757
 21
129.5484595485768011
 31
0.0
  0
ARC
  5
2EBA
  8
0
 10
359.6439243493467188
 20
113.1484583987927977
 30
0.0
 40
0.4000000000000341
 50
90.0
 51
180.0
  0
LINE
  5
2EBB
  8
0
 10
372.6093120572954831
 20
113.5484569259724026
 30
0.0
 11
359.6439234612375913
 21
113.5484569259724026
 31
0.0
  0
LINE
  5
2EBC
  8
0
 10
358.7439249900966729
 20
111.548456598146899
 30
0.0
 11
343.7339238522441178
 21
111.548456598146899
 31
0.0
  0
LINE
  5
2EBD
  8
0
 10
343.7339238522441178
 20
111.548456598146899
 30
0.0
 11
343.2339228389650998
 21
112.0484576114259028
 31
0.0
  0
LINE
  5
2EBE
  8
0
 10
359.2439241407304849
 20
112.0484576114259028
 30
0.0
 11
358.7439249900966729
 21
111.548456598146899
 31
0.0
  0
LINE
  5
2F2D
  8
0
 10
525.5636606260394501
 20
114.0484535443162031
 30
0.0
 11
526.0636597766732621
 21
113.5484525310371993
 31
0.0
  0
LINE
  5
2F2E
  8
0
 10
565.0636605813359665
 20
113.5484525310371993
 30
0.0
 11
565.5636597319697785
 21
114.0484535443162031
 31
0.0
  0
LINE
  5
2F2F
  8
0
 10
525.5636606260394501
 20
129.048454140362594
 30
0.0
 11
525.5636606260394501
 21
114.0484535443162031
 31
0.0
  0
LINE
  5
2F30
  8
0
 10
565.5636597319697785
 20
124.4484545039509982
 30
0.0
 11
565.5636597319697785
 21
129.048454140362594
 31
0.0
  0
LINE
  5
2F31
  8
0
 10
565.5636597319697785
 20
114.0484535443162031
 30
0.0
 11
565.5636597319697785
 21
118.6484531807277989
 31
0.0
  0
LINE
  5
2F32
  8
0
 10
565.5636597319697785
 20
129.048454140362594
 30
0.0
 11
565.0636605813359665
 21
129.548455153641612
 31
0.0
  0
LINE
  5
2F33
  8
0
 10
526.0636597766732621
 20
129.548455153641612
 30
0.0
 11
525.5636606260394501
 21
129.048454140362594
 31
0.0
  0
LINE
  5
2F4A
  8
0
 10
525.7636602862929749
 20
113.5484525310371993
 30
0.0
 11
565.3636600717162537
 21
113.5484525310371993
 31
0.0
  0
LINE
  5
2F63
  8
0
 10
525.5636606260394501
 20
114.0484535443162031
 30
0.0
 11
565.5636597319697785
 21
114.0484535443162031
 31
0.0
  0
LINE
  5
2F65
  8
0
 10
565.5636597319697785
 20
129.048454140362594
 30
0.0
 11
525.5636606260394501
 21
129.048454140362594
 31
0.0
  0
ARC
  5
2F66
  8
0
 10
588.3232836377731019
 20
121.5484538423393985
 30
0.0
 40
22.943637117313191
 50
172.7385777828592097
 51
187.2614222171438882
  0
LINE
  5
2F67
  8
0
 10
526.0636597766732621
 20
129.548455153641612
 30
0.0
 11
565.0636605813359665
 21
129.548455153641612
 31
0.0
  0
POLYLINE
  5
2FE9
  8
0
 66
     1
 10
0.0
 20
0.0
 30
0.0
 70
   128
  0
VERTEX
  5
314B
  8
0
 10
131.5760302433903917
 20
136.0484514283517967
 30
0.0
  0
VERTEX
  5
314C
  8
0
 10
131.5405072720880923
 20
136.5827251123766075
 30
0.0
  0
VERTEX
  5
314D
  8
0
 10
131.4347704949016986
 20
137.1044743704179893
 30
0.0
  0
VERTEX
  5
314E
  8
0
 10
131.2612986268634927
 20
137.6014727997163902
 30
0.0
  0
VERTEX
  5
314F
  8
0
 10
131.0241578223343879
 20
138.0620676922181929
 30
0.0
  0
VERTEX
  5
3150
  8
0
 10
130.7289062144394904
 20
138.4754631566385115
 30
0.0
  0
VERTEX
  5
3151
  8
0
 10
130.3824644612307964
 20
138.8319734382012882
 30
0.0
  0
VERTEX
  5
3152
  8
0
 10
129.9929527642364917
 20
139.1232464360575136
 30
0.0
  0
VERTEX
  5
3153
  8
0
 10
129.5695008786555036
 20
139.3424425172190126
 30
0.0
  0
VERTEX
  5
3154
  8
0
 10
129.1220339091655092
 20
139.48442823165459
 30
0.0
  0
VERTEX
  5
3155
  8
0
 10
128.6610404106016858
 20
139.5458806204179893
 30
0.0
  0
VERTEX
  5
3156
  8
0
 10
128.1973255874748929
 20
139.5253617214540895
 30
0.0
  0
VERTEX
  5
3157
  8
0
 10
127.7417589055533966
 20
139.4233409213404116
 30
0.0
  0
VERTEX
  5
3158
  8
0
 10
127.305017978155206
 20
139.2422173070291933
 30
0.0
  0
VERTEX
  5
3159
  8
0
 10
126.8973399030204945
 20
138.9862302588801128
 30
0.0
  0
VERTEX
  5
315A
  8
0
 10
126.5282800497647031
 20
138.6613849448542055
 30
0.0
  0
VERTEX
  5
315B
  8
0
 10
126.2064894737836056
 20
138.2753033089022097
 30
0.0
  0
VERTEX
  5
315C
  8
0
 10
125.939509093963693
 20
137.8370154547075117
 30
0.0
  0
VERTEX
  5
315D
  8
0
 10
125.733599260651701
 20
137.3568106340746056
 30
0.0
  0
VERTEX
  5
315E
  8
0
 10
125.5935842247839958
 20
136.8459392237047041
 30
0.0
  0
VERTEX
  5
315F
  8
0
 10
125.5227459671135932
 20
136.316374306617206
 30
0.0
  0
VERTEX
  5
3160
  8
0
 10
125.5227459671135932
 20
135.7805285500863874
 30
0.0
  0
VERTEX
  5
3161
  8
0
 10
125.5935842247839958
 20
135.2509636329988894
 30
0.0
  0
VERTEX
  5
3162
  8
0
 10
125.733599260651701
 20
134.7400922226289879
 30
0.0
  0
VERTEX
  5
3163
  8
0
 10
125.939509093963693
 20
134.2598874019961102
 30
0.0
  0
VERTEX
  5
3164
  8
0
 10
126.2064894737836056
 20
133.8216069983820091
 30
0.0
  0
VERTEX
  5
3165
  8
0
 10
126.5282800497647031
 20
133.4355179118493879
 30
0.0
  0
VERTEX
  5
3166
  8
0
 10
126.8973399030204945
 20
133.110672597823509
 30
0.0
  0
VERTEX
  5
3167
  8
0
 10
127.305017978155206
 20
132.8546930002549971
 30
0.0
  0
VERTEX
  5
3168
  8
0
 10
127.7417589055533966
 20
132.6735619353632103
 30
0.0
  0
VERTEX
  5
3169
  8
0
 10
128.1973255874748929
 20
132.5715411352495039
 30
0.0
  0
VERTEX
  5
316A
  8
0
 10
128.6610404106016858
 20
132.5510222362856041
 30
0.0
  0
VERTEX
  5
316B
  8
0
 10
129.1220339091655092
 20
132.6124746250490034
 30
0.0
  0
VERTEX
  5
316C
  8
0
 10
129.5695008786555036
 20
132.7544603394846092
 30
0.0
  0
VERTEX
  5
316D
  8
0
 10
129.9929527642364917
 20
132.9736564206461082
 30
0.0
  0
VERTEX
  5
316E
  8
0
 10
130.3824644612307964
 20
133.2649294185021915
 30
0.0
  0
VERTEX
  5
316F
  8
0
 10
130.7289062144394904
 20
133.6214397000651104
 30
0.0
  0
VERTEX
  5
3170
  8
0
 10
131.0241578223343879
 20
134.0348351644854006
 30
0.0
  0
VERTEX
  5
3171
  8
0
 10
131.2612986268634927
 20
134.4954300569872032
 30
0.0
  0
VERTEX
  5
3172
  8
0
 10
131.4347704949016986
 20
134.9924284862856041
 30
0.0
  0
VERTEX
  5
3173
  8
0
 10
131.5405072720880923
 20
135.5141777443269859
 30
0.0
  0
VERTEX
  5
3174
  8
0
 10
131.5760302433903917
 20
136.0484514283517967
 30
0.0
  0
SEQEND
  5
3175
  8
0
  0
LINE
  5
3008
  8
3
 10
250.7636768001370058
 20
293.2100851880883283
 30
0.0
 11
248.7067763882926954
 21
283.4239114868020124
 31
0.0
  0
LINE
  5
3009
  8
3
 10
245.3258295732788099
 20
290.6743732141828218
 30
0.0
 11
254.1446217525057136
 21
285.9596197354172773
 31
0.0
  0
LINE
  5
3043
  8
0
 10
543.0642124939420228
 20
121.6010029379290955
 30
0.0
 11
547.9517348021586258
 21
122.2881169643694932
 31
0.0
  0
ARC
  5
3044
  8
0
 10
545.5636601790049554
 20
121.5484551536413989
 30
0.0
 40
2.5000000000000009
 50
17.2093972619907092
 51
178.7956047996507039
  0
LINE
  5
3045
  8
0
 10
543.1755855556332335
 20
120.8087933436175945
 30
0.0
 11
548.0631078640785745
 21
121.4959073698663019
 31
0.0
  0
ARC
  5
3046
  8
0
 10
545.5636601790049554
 20
121.5484551536413989
 30
0.0
 40
2.5000000000000222
 50
197.2093972450985007
 51
358.7956048114041891
  0
ARC
  5
3047
  8
0
 10
545.4269804170839961
 20
121.5484551536414983
 30
0.0
 40
2.9032191369786071
 50
272.698407823245816
 51
87.3015921767542551
  0
ARC
  5
3048
  8
0
 10
545.6923665153924503
 20
121.5484551536413989
 30
0.0
 40
2.902854684793311
 50
92.5412047601527519
 51
267.4587952398471771
  0
POLYLINE
  5
3049
  8
0
 66
     1
 10
0.0
 20
0.0
 30
0.0
 70
   128
  0
VERTEX
  5
3176
  8
0
 10
547.6636601790047507
 20
121.5484551536414983
 30
0.0
  0
VERTEX
  5
3177
  8
0
 10
547.5703630711559526
 20
122.1674410199043024
 30
0.0
  0
VERTEX
  5
3178
  8
0
 10
547.5494510445837477
 20
122.2315617618538965
 30
0.0
  0
SEQEND
  5
3179
  8
0
  0
POLYLINE
  5
304A
  8
0
 66
     1
 10
0.0
 20
0.0
 30
0.0
 70
   128
  0
VERTEX
  5
317A
  8
0
 10
543.4664962515888647
 20
121.6575581396001979
 30
0.0
  0
VERTEX
  5
317B
  8
0
 10
543.4871154439322254
 20
121.2354663946716045
 30
0.0
  0
VERTEX
  5
317C
  8
0
 10
543.5778693134260493
 20
120.8653485454289012
 30
0.0
  0
SEQEND
  5
317D
  8
0
  0
LINE
  5
304B
  8
0
 10
547.6608241064209324
 20
121.4393521676825998
 30
0.0
 11
547.6636601790047507
 21
121.5484551536414983
 31
0.0
  0
ENDSEC
  0
EOF
