  0
SECTION
  2
HEADER
  9
$ACADVER
  1
AC1009
  9
$INSBASE
 10
0.0
 20
0.0
 30
0.0
  9
$EXTMIN
 10
0.0
 20
-2.960436562073669
 30
0.0
  9
$EXTMAX
 10
145.7881252355894
 20
93.962263985702634
 30
0.0
  9
$LIMMIN
 10
0.0
 20
0.0
  9
$LIMMAX
 10
187.5
 20
135.0
  9
$ORTHOMODE
 70
     1
  9
$REGENMODE
 70
     1
  9
$FILLMODE
 70
     1
  9
$QTEXTMODE
 70
     0
  9
$MIRRTEXT
 70
     0
  9
$DRAGMODE
 70
     2
  9
$LTSCALE
 40
5.0
  9
$OSMODE
 70
    55
  9
$ATTMODE
 70
     1
  9
$TEXTSIZE
 40
2.5
  9
$TRACEWID
 40
0.05
  9
$TEXTSTYLE
  7
STANDARD
  9
$CLAYER
  8
0
  9
$CELTYPE
  6
BYLAYER
  9
$CECOLOR
 62
   256
  9
$DIMSCALE
 40
0.5
  9
$DIMASZ
 40
3.0
  9
$DIMEXO
 40
2.0
  9
$DIMDLI
 40
10.0
  9
$DIMRND
 40
0.0
  9
$DIMDLE
 40
0.0
  9
$DIMEXE
 40
2.0
  9
$DIMTP
 40
0.0
  9
$DIMTM
 40
0.0
  9
$DIMTXT
 40
3.0
  9
$DIMCEN
 40
0.09
  9
$DIMTSZ
 40
0.0
  9
$DIMTOL
 70
     0
  9
$DIMLIM
 70
     0
  9
$DIMTIH
 70
     0
  9
$DIMTOH
 70
     0
  9
$DIMSE1
 70
     0
  9
$DIMSE2
 70
     0
  9
$DIMTAD
 70
     1
  9
$DIMZIN
 70
     0
  9
$DIMBLK
  1

  9
$DIMASO
 70
     0
  9
$DIMSHO
 70
     0
  9
$DIMPOST
  1

  9
$DIMAPOST
  1

  9
$DIMALT
 70
     0
  9
$DIMALTD
 70
     2
  9
$DIMALTF
 40
25.399999999999999
  9
$DIMLFAC
 40
1.0
  9
$DIMTOFL
 70
     1
  9
$DIMTVP
 40
1.6000000000000001
  9
$DIMTIX
 70
     1
  9
$DIMSOXD
 70
     0
  9
$DIMSAH
 70
     0
  9
$DIMBLK1
  1

  9
$DIMBLK2
  1

  9
$DIMSTYLE
  2
STANDARD
  9
$DIMCLRD
 70
     0
  9
$DIMCLRE
 70
     0
  9
$DIMCLRT
 70
     0
  9
$DIMTFAC
 40
1.0
  9
$DIMGAP
 40
0.09
  9
$LUNITS
 70
     2
  9
$LUPREC
 70
     4
  9
$SKETCHINC
 40
0.1
  9
$FILLETRAD
 40
0.0
  9
$AUNITS
 70
     0
  9
$AUPREC
 70
     0
  9
$MENU
  1
E:\r13\win\SUPPORT\ACAD
  9
$ELEVATION
 40
0.0
  9
$PELEVATION
 40
0.0
  9
$THICKNESS
 40
0.0
  9
$LIMCHECK
 70
     0
  9
$BLIPMODE
 70
     0
  9
$CHAMFERA
 40
3.2000000000000002
  9
$CHAMFERB
 40
3.2000000000000002
  9
$SKPOLY
 70
     0
  9
$TDCREATE
 40
2449840.5944097228
  9
$TDUPDATE
 40
2456598.5859377552
  9
$TDINDWG
 40
0.2775910532
  9
$TDUSRTIMER
 40
0.2775910532
  9
$USRTIMER
 70
     1
  9
$ANGBASE
 50
0.0
  9
$ANGDIR
 70
     0
  9
$PDMODE
 70
     0
  9
$PDSIZE
 40
0.0
  9
$PLINEWID
 40
0.0
  9
$COORDS
 70
     1
  9
$SPLFRAME
 70
     0
  9
$SPLINETYPE
 70
     6
  9
$SPLINESEGS
 70
     8
  9
$ATTDIA
 70
     0
  9
$ATTREQ
 70
     1
  9
$HANDLING
 70
     1
  9
$HANDSEED
  5
3C7A
  9
$SURFTAB1
 70
     6
  9
$SURFTAB2
 70
     6
  9
$SURFTYPE
 70
     6
  9
$SURFU
 70
     6
  9
$SURFV
 70
     6
  9
$UCSNAME
  2

  9
$UCSORG
 10
0.0
 20
0.0
 30
0.0
  9
$UCSXDIR
 10
1.0
 20
0.0
 30
0.0
  9
$UCSYDIR
 10
0.0
 20
1.0
 30
0.0
  9
$PUCSNAME
  2

  9
$PUCSORG
 10
0.0
 20
0.0
 30
0.0
  9
$PUCSXDIR
 10
1.0
 20
0.0
 30
0.0
  9
$PUCSYDIR
 10
0.0
 20
1.0
 30
0.0
  9
$USERI1
 70
     0
  9
$USERI2
 70
     1
  9
$USERI3
 70
     1
  9
$USERI4
 70
     0
  9
$USERI5
 70
     0
  9
$USERR1
 40
0.0
  9
$USERR2
 40
0.0
  9
$USERR3
 40
0.0
  9
$USERR4
 40
0.0
  9
$USERR5
 40
0.0
  9
$WORLDVIEW
 70
     1
  9
$SHADEDGE
 70
     3
  9
$SHADEDIF
 70
    70
  9
$TILEMODE
 70
     1
  9
$MAXACTVP
 70
    16
  9
$PLIMCHECK
 70
     0
  9
$PEXTMIN
 10
1.0000000000000000E+020
 20
1.0000000000000000E+020
 30
1.0000000000000000E+020
  9
$PEXTMAX
 10
-1.0000000000000000E+020
 20
-1.0000000000000000E+020
 30
-1.0000000000000000E+020
  9
$PLIMMIN
 10
0.0
 20
0.0
  9
$PLIMMAX
 10
12.0
 20
9.0
  9
$UNITMODE
 70
     0
  9
$VISRETAIN
 70
     0
  9
$PLINEGEN
 70
     0
  9
$PSLTSCALE
 70
     0
  0
ENDSEC
  0
SECTION
  2
TABLES
  0
TABLE
  2
VPORT
 70
     1
  0
VPORT
  2
*ACTIVE
 70
     0
 10
0.0
 20
0.0
 11
1.0
 21
1.0
 12
93.747139195326156
 22
96.983959220318994
 13
0.0
 23
0.0
 14
5.0
 24
5.0
 15
5.0
 25
5.0
 16
0.0
 26
0.0
 36
1.0
 17
0.0
 27
0.0
 37
0.0
 40
201.84293963319561
 41
1.7807262569832401
 42
50.0
 43
0.0
 44
0.0
 50
0.0
 51
0.0
 71
     0
 72
   100
 73
     1
 74
     0
 75
     0
 76
     0
 77
     0
 78
     0
  0
ENDTAB
  0
TABLE
  2
LTYPE
 70
     4
  0
LTYPE
  2
CONTINUOUS
 70
     0
  3
Solid Line
 72
    65
 73
     0
 40
0.0
  0
LTYPE
  2
CENTER
 70
     0
  3
____ _ ____ _ ____ _ ____ _ ____ _ ____ _ ____
 72
    65
 73
     4
 40
2.0
 49
1.25
 49
-0.25
 49
0.25
 49
-0.25
  0
LTYPE
  2
HIDDEN
 70
     0
  3
_ _ _ _ _ _ _ _ _ _ _ _ _ _ _ _ _ _ _ _ _ _ _
 72
    65
 73
     2
 40
0.375
 49
0.25
 49
-0.125
  0
LTYPE
  2
PHANTOM2
 70
     0
  3
___ _ _ ___ _ _ ___ _ _ ___ _ _
 72
    65
 73
     6
 40
1.25
 49
0.625
 49
-0.125
 49
0.125
 49
-0.125
 49
0.125
 49
-0.125
  0
ENDTAB
  0
TABLE
  2
LAYER
 70
     3
  0
LAYER
  2
0
 70
     0
 62
     7
  6
CONTINUOUS
  0
LAYER
  2
1
 70
     0
 62
     1
  6
CENTER
  0
LAYER
  2
2
 70
     0
 62
     2
  6
HIDDEN
  0
ENDTAB
  0
TABLE
  2
STYLE
 70
     2
  0
STYLE
  2
STANDARD
 70
     0
 40
0.0
 41
1.0
 50
0.0
 71
     0
 42
2.5
  3
TXT
  4
BIGFONT
  0
STYLE
  2
STANDARD1
 70
     0
 40
0.0
 41
1.0
 50
0.0
 71
     0
 42
3.0
  3
txt
  4

  0
ENDTAB
  0
TABLE
  2
VIEW
 70
     1
  0
VIEW
  2
ALL
 70
     0
 40
135.0
 10
110.49579799999999
 20
67.5
 41
0.0
 11
0.0
 21
0.0
 31
1.0
 12
0.0
 22
0.0
 32
0.0
 42
0.0
 43
0.0
 44
0.0
 50
0.0
 71
     0
  0
ENDTAB
  0
TABLE
  2
UCS
 70
     0
  0
ENDTAB
  0
TABLE
  2
APPID
 70
     4
  0
APPID
  2
ACAD
 70
     0
  0
APPID
  2
DCO15
 70
     0
  0
APPID
  2
ACAD_MLEADERVER
 70
     0
  0
APPID
  2
ACAD_NAV_VCDISPLAY
 70
     0
  0
ENDTAB
  0
TABLE
  2
DIMSTYLE
 70
     1
  0
DIMSTYLE
  2
STANDARD
 70
     0
  3

  4

  5

  6

  7

 40
1.0
 41
0.18
 42
0.0625
 43
0.38
 44
0.18
 45
0.0
 46
0.0
 47
0.0
 48
0.0
140
0.18
141
0.09
142
0.0
143
25.399999999999999
144
1.0
145
0.0
146
1.0
147
0.09
 71
     0
 72
     0
 73
     1
 74
     1
 75
     0
 76
     0
 77
     0
 78
     0
170
     0
171
     2
172
     0
173
     0
174
     0
175
     0
176
     0
177
     0
178
     0
  0
ENDTAB
  0
ENDSEC
  0
SECTION
  2
BLOCKS
  0
BLOCK
  8
0
  2
$MODEL_SPACE
 70
     0
 10
0.0
 20
0.0
 30
0.0
  3
$MODEL_SPACE
  1

  0
ENDBLK
  5
15D
  8
0
  0
BLOCK
 67
     1
  8
0
  2
$PAPER_SPACE
 70
     0
 10
0.0
 20
0.0
 30
0.0
  3
$PAPER_SPACE
  1

  0
ENDBLK
  5
15B
 67
     1
  8
0
  0
BLOCK
  8
0
  2
STDGX5
 70
     0
 10
0.0
 20
0.0
 30
0.0
  3
STDGX5
  1

  0
ENDBLK
  5
41
  8
0
  0
ENDSEC
  0
SECTION
  2
ENTITIES
  0
INSERT
  5
CA
  8
0
  2
STDGX5
 10
0.0
 20
0.0
 30
0.0
  0
INSERT
  5
69A
  8
0
  2
STDGX5
 10
194.3272563481562
 20
13.52129245667936
 30
0.0
  0
CIRCLE
  5
3AE6
  8
0
 10
56.788125235590307
 20
68.962263985702634
 30
0.0
 40
4.0
  0
LINE
  5
3AE7
  8
2
 10
67.594590374627884
 20
65.029032337457693
 30
0.0
 11
67.124744064234847
 21
65.200042409120442
 31
0.0
  0
LINE
  5
3AE8
  8
2
 10
67.124744064235074
 20
72.724485562284954
 30
0.0
 11
67.594590374628126
 21
72.895495633947846
 31
0.0
  0
LINE
  5
3AE9
  8
0
 10
63.71109626511975
 20
63.153201548173563
 30
0.0
 11
64.688040907199479
 21
62.333447659323717
 31
0.0
  0
LINE
  5
3AEA
  8
0
 10
65.280406393425196
 20
65.871326423230983
 30
0.0
 11
67.124744064234847
 21
65.200042409120442
 31
0.0
  0
CIRCLE
  5
3AEB
  8
0
 10
64.495750503366253
 20
64.512262555190887
 30
0.0
 40
1.0
  0
ARC
  5
3AEC
  8
0
 10
64.557162425839124
 20
64.476808272568462
 30
0.0
 40
1.570911426267553
 50
62.587228308858109
 51
237.4127716911444
  0
ARC
  5
3AED
  8
0
 10
64.557162425839124
 20
73.447719698836934
 30
0.0
 40
1.570911426267553
 50
122.5872283088556
 51
297.41277169114193
  0
CIRCLE
  5
3AEE
  8
0
 10
64.495750503366253
 20
73.412265416214524
 30
0.0
 40
1.0
  0
LINE
  5
3AEF
  8
0
 10
65.280406393425196
 20
72.053201548174286
 30
0.0
 11
67.124744064235074
 21
72.724485562284954
 31
0.0
  0
LINE
  5
3AF0
  8
0
 10
63.71109626511975
 20
74.771326423231841
 30
0.0
 11
64.688040907199479
 21
75.591080312081544
 31
0.0
  0
ARC
  5
3AF1
  8
0
 10
57.538125235589341
 20
68.962263985702634
 30
0.0
 40
9.75
 50
42.834156958489331
 51
317.16584304151081
  0
CIRCLE
  5
3AF2
  8
0
 10
56.788125235590307
 20
68.962263985702634
 30
0.0
 40
11.0
  0
CIRCLE
  5
3AF3
  8
2
 10
56.788125235590307
 20
68.962263985702634
 30
0.0
 40
11.5
  0
CIRCLE
  5
3AF4
  8
0
 10
56.788125235590307
 20
68.962263985702634
 30
0.0
 40
20.0
  0
CIRCLE
  5
3AF5
  8
2
 10
56.788125235590307
 20
68.962263985702634
 30
0.0
 40
15.0
  0
LINE
  5
3AF6
  8
1
 10
56.788125235590307
 20
93.962263985702634
 30
0.0
 11
56.788125235590307
 21
43.962263985702627
 31
0.0
  0
LINE
  5
3AF7
  8
1
 10
81.788125235590314
 20
68.962263985702634
 30
0.0
 11
31.788125235590311
 21
68.962263985702634
 31
0.0
  0
LINE
  5
3AF8
  8
2
 10
137.2881252355894
 20
77.962263985702634
 30
0.0
 11
140.7881252355894
 21
77.962263985702634
 31
0.0
1001
ACAD
1000
ASC_BOUNDS
1002
{
1070
    19
1002
}
  0
LINE
  5
3AF9
  8
2
 10
130.2881252355894
 20
75.36226398570227
 30
0.0
 11
132.11779592674091
 21
75.36226398570227
 31
0.0
  0
LINE
  5
3AFA
  8
2
 10
130.2881252355894
 20
77.562263985702089
 30
0.0
 11
132.1177959267427
 21
77.562263985702089
 31
0.0
  0
CIRCLE
  5
3AFB
  8
2
 10
133.78812523559029
 20
76.462263985702634
 30
0.0
 40
2.0
  0
LINE
  5
3AFC
  8
2
 10
135.4584545444379
 20
77.562263985702089
 30
0.0
 11
137.2881252355894
 21
77.562263985702089
 31
0.0
  0
LINE
  5
3AFD
  8
2
 10
135.4584545444379
 20
75.36226398570227
 30
0.0
 11
137.2881252355894
 21
75.36226398570227
 31
0.0
  0
ARC
  5
3AFE
  8
2
 10
130.5881252355905
 20
73.262263985701907
 30
0.0
 40
0.3
 50
180.0
 51
270.0
  0
ARC
  5
3AFF
  8
2
 10
136.9881252355901
 20
73.262263985702361
 30
0.0
 40
0.3
 50
270.0
 51
0.0
  0
LINE
  5
3B00
  8
2
 10
130.5881252355905
 20
72.962263985702634
 30
0.0
 11
136.9881252355901
 21
72.962263985702634
 31
0.0
  0
LINE
  5
3B01
  8
2
 10
129.28812523559029
 20
78.683375033314519
 30
0.0
 11
130.2881252355894
 21
78.683375033314519
 31
0.0
  0
LINE
  5
3B02
  8
2
 10
128.93812523558989
 20
80.462263985702634
 30
0.0
 11
130.2881252355894
 21
80.462263985702634
 31
0.0
1001
ACAD
1000
ASC_BOUNDS
1002
{
1070
    19
1002
}
  0
LINE
  5
3B03
  8
2
 10
130.2881252355894
 20
79.962263985702634
 30
0.0
 11
137.0881252355905
 21
79.962263985702634
 31
0.0
1001
ACAD
1000
ASC_BOUNDS
1002
{
1070
    19
1002
}
  0
ARC
  5
3B04
  8
2
 10
137.0881252355905
 20
79.762263985702816
 30
0.0
 40
0.2
 50
0.0
 51
90.0
1001
ACAD
1000
ASC_BOUNDS
1002
{
1070
    19
1002
}
  0
ARC
  5
3B05
  8
2
 10
137.0881252355905
 20
79.762263985702816
 30
0.0
 40
0.2
 50
0.0
 51
90.0
  0
ARC
  5
3B06
  8
2
 10
136.9881252355901
 20
79.662263985702452
 30
0.0
 40
0.3
 50
0.0
 51
90.0
  0
ARC
  5
3B07
  8
2
 10
130.58812523558959
 20
79.662263985702452
 30
0.0
 40
0.3
 50
90.0
 51
180.0
  0
LINE
  5
3B08
  8
2
 10
137.2881252355894
 20
59.962263985702627
 30
0.0
 11
140.7881252355894
 21
59.962263985702627
 31
0.0
1001
ACAD
1000
ASC_BOUNDS
1002
{
1070
    19
1002
}
  0
LINE
  5
3B09
  8
2
 10
135.4584545444379
 20
62.562263985702089
 30
0.0
 11
137.2881252355894
 21
62.562263985702089
 31
0.0
  0
LINE
  5
3B0A
  8
2
 10
135.4584545444379
 20
60.36226398570227
 30
0.0
 11
137.2881252355894
 21
60.36226398570227
 31
0.0
  0
LINE
  5
3B0B
  8
2
 10
130.2881252355894
 20
60.36226398570227
 30
0.0
 11
132.1177959267427
 21
60.36226398570227
 31
0.0
  0
LINE
  5
3B0C
  8
2
 10
130.2881252355894
 20
62.562263985702089
 30
0.0
 11
132.11779592674091
 21
62.562263985702089
 31
0.0
  0
ARC
  5
3B0D
  8
2
 10
136.9881252355901
 20
64.662263985702452
 30
0.0
 40
0.3
 50
0.0
 51
90.0
  0
ARC
  5
3B0E
  8
2
 10
130.5881252355905
 20
64.662263985702452
 30
0.0
 40
0.3
 50
90.0
 51
180.0
  0
LINE
  5
3B0F
  8
2
 10
130.5881252355905
 20
64.962263985702634
 30
0.0
 11
136.9881252355901
 21
64.962263985702634
 31
0.0
  0
LINE
  5
3B10
  8
2
 10
127.7881252355903
 20
79.962263985702634
 30
0.0
 11
126.7881252355903
 21
80.539614254891717
 31
0.0
  0
LINE
  5
3B11
  8
1
 10
121.7881252355903
 20
68.962263985702634
 30
0.0
 11
145.7881252355894
 21
68.962263985702634
 31
0.0
  0
LINE
  5
3B12
  8
2
 10
127.7881252355903
 20
79.962263985702634
 30
0.0
 11
128.93812523558989
 21
79.962263985702634
 31
0.0
1001
ACAD
1000
ASC_BOUNDS
1002
{
1070
    19
1002
}
  0
LINE
  5
3B13
  8
2
 10
128.93812523558989
 20
57.462263985702627
 30
0.0
 11
130.2881252355894
 21
57.462263985702627
 31
0.0
1001
ACAD
1000
ASC_BOUNDS
1002
{
1070
    19
1002
}
  0
LINE
  5
3B14
  8
2
 10
130.2881252355894
 20
57.962263985702627
 30
0.0
 11
137.0881252355905
 21
57.962263985702627
 31
0.0
1001
ACAD
1000
ASC_BOUNDS
1002
{
1070
    19
1002
}
  0
ARC
  5
3B15
  8
2
 10
137.0881252355905
 20
58.162263985702452
 30
0.0
 40
0.2
 50
270.0
 51
0.0
1001
ACAD
1000
ASC_BOUNDS
1002
{
1070
    19
1002
}
  0
ARC
  5
3B16
  8
2
 10
136.9881252355901
 20
58.262263985702361
 30
0.0
 40
0.3
 50
270.0
 51
0.0
  0
ARC
  5
3B17
  8
2
 10
130.5881252355905
 20
58.262263985702361
 30
0.0
 40
0.3
 50
180.0
 51
270.0
  0
LINE
  5
3B18
  8
2
 10
129.28812523559029
 20
59.24115293809075
 30
0.0
 11
130.2881252355894
 21
59.24115293809075
 31
0.0
  0
LINE
  5
3B19
  8
2
 10
127.7881252355903
 20
57.962263985702627
 30
0.0
 11
126.7881252355903
 21
57.384913716512642
 31
0.0
1001
ACAD
1000
ASC_BOUNDS
1002
{
1070
    19
1002
}
  0
LINE
  5
3B1A
  8
2
 10
127.7881252355903
 20
57.962263985702627
 30
0.0
 11
128.93812523558989
 21
57.962263985702627
 31
0.0
1001
ACAD
1000
ASC_BOUNDS
1002
{
1070
    19
1002
}
  0
CIRCLE
  5
3B1B
  8
2
 10
133.78812523559029
 20
61.462263985702627
 30
0.0
 40
2.0
  0
LINE
  5
3B1C
  8
0
 10
140.7881252355894
 20
48.962263985702627
 30
0.0
 11
140.7881252355894
 21
88.962263985702634
 31
0.0
1001
ACAD
1000
ASC_BOUNDS
1002
{
1070
    19
1002
}
  0
LINE
  5
3B1D
  8
2
 10
137.2881252355894
 20
79.762263985702816
 30
0.0
 11
137.2881252355894
 21
58.162263985702452
 31
0.0
1001
ACAD
1000
ASC_BOUNDS
1002
{
1070
    19
1002
}
  0
LINE
  5
3B1E
  8
2
 10
130.2881252355894
 20
80.462263985702634
 30
0.0
 11
130.2881252355894
 21
57.462263985702627
 31
0.0
1001
ACAD
1000
ASC_BOUNDS
1002
{
1070
    19
1002
}
  0
LINE
  5
3B1F
  8
2
 10
128.93812523558989
 20
80.462263985702634
 30
0.0
 11
128.93812523558989
 21
57.462263985702627
 31
0.0
1001
ACAD
1000
ASC_BOUNDS
1002
{
1070
    19
1002
}
  0
LINE
  5
3B20
  8
2
 10
127.7881252355903
 20
79.962263985702634
 30
0.0
 11
127.7881252355903
 21
57.962263985702627
 31
0.0
  0
LINE
  5
3B21
  8
2
 10
129.28812523559029
 20
57.462263985702627
 30
0.0
 11
129.28812523559029
 21
80.462263985702634
 31
0.0
  0
LINE
  5
3B22
  8
0
 10
126.7881252355894
 20
48.962263985702627
 30
0.0
 11
126.7881252355903
 21
88.962263985702634
 31
0.0
1001
ACAD
1000
ASC_BOUNDS
1002
{
1070
    19
1002
}
  0
LINE
  5
3B23
  8
0
 10
137.25222685072799
 20
48.962263985702627
 30
0.0
 11
140.7881252355894
 21
48.962263985702627
 31
0.0
1001
ACAD
1000
ASC_BOUNDS
1002
{
1070
    19
1002
}
  0
LINE
  5
3B24
  8
0
 10
135.95318874505139
 20
51.212263985702627
 30
0.0
 11
137.25222685072799
 21
48.962263985702627
 31
0.0
  0
ARC
  5
3B25
  8
0
 10
133.78812523559029
 20
49.962263985702627
 30
0.0
 40
2.5
 50
30.000000000000341
 51
149.9999999999996
  0
LINE
  5
3B26
  8
0
 10
131.62306172612921
 20
51.212263985702627
 30
0.0
 11
130.32402362045249
 21
48.962263985702627
 31
0.0
  0
LINE
  5
3B27
  8
0
 10
126.7881252355903
 20
48.962263985702627
 30
0.0
 11
130.32402362045249
 21
48.962263985702627
 31
0.0
1001
ACAD
1000
ASC_BOUNDS
1002
{
1070
    19
1002
}
  0
LINE
  5
3B28
  8
1
 10
130.78812523559029
 20
49.962263985702627
 30
0.0
 11
136.78812523559029
 21
49.962263985702627
 31
0.0
  0
LINE
  5
3B29
  8
1
 10
133.78812523559029
 20
46.962263985702627
 30
0.0
 11
133.78812523559029
 21
52.962263985702627
 31
0.0
  0
LINE
  5
3B2A
  8
0
 10
131.62306172612921
 20
86.712263985702634
 30
0.0
 11
130.32402362045249
 21
88.962263985702634
 31
0.0
  0
LINE
  5
3B2B
  8
0
 10
135.95318874505139
 20
86.712263985702634
 30
0.0
 11
137.25222685072799
 21
88.962263985702634
 31
0.0
  0
ARC
  5
3B2C
  8
0
 10
133.78812523559029
 20
87.962263985702634
 30
0.0
 40
2.5
 50
210.00000000000031
 51
329.99999999999972
  0
LINE
  5
3B2D
  8
1
 10
133.78812523559029
 20
90.962263985702634
 30
0.0
 11
133.78812523559029
 21
84.962263985702634
 31
0.0
  0
LINE
  5
3B2E
  8
1
 10
130.78812523559029
 20
87.962263985702634
 30
0.0
 11
136.78812523559029
 21
87.962263985702634
 31
0.0
  0
LINE
  5
3B2F
  8
0
 10
126.7881252355903
 20
88.962263985702634
 30
0.0
 11
130.32402362045249
 21
88.962263985702634
 31
0.0
1001
ACAD
1000
ASC_BOUNDS
1002
{
1070
    19
1002
}
  0
LINE
  5
3B30
  8
0
 10
137.25222685072799
 20
88.962263985702634
 30
0.0
 11
140.7881252355894
 21
88.962263985702634
 31
0.0
1001
ACAD
1000
ASC_BOUNDS
1002
{
1070
    19
1002
}
  0
LINE
  5
3B31
  8
0
 10
130.32402362045249
 20
88.962263985702634
 30
0.0
 11
130.32402362045249
 21
48.962263985702627
 31
0.0
  0
LINE
  5
3B32
  8
0
 10
137.25222685072799
 20
48.962263985702627
 30
0.0
 11
137.25222685072799
 21
88.962263985702634
 31
0.0
  0
TEXT
  5
3BE3
  8
0
 62
     3
 10
0.0
 20
0.0
 30
0.0
 40
10.0
  1
RABS0540-R
  7
STANDARD1
  0
ENDSEC
  0
EOF
