  0
SECTION
  2
HEADER
  9
$ACADVER
  1
AC1009
  9
$INSBASE
 10
0.0
 20
0.0
 30
0.0
  9
$EXTMIN
 10
0.0
 20
-2.960436562073669
 30
0.0
  9
$EXTMAX
 10
160.18614176711921
 20
103.6792452524312
 30
0.0
  9
$LIMMIN
 10
0.0
 20
0.0
  9
$LIMMAX
 10
187.5
 20
135.0
  9
$ORTHOMODE
 70
     1
  9
$REGENMODE
 70
     1
  9
$FILLMODE
 70
     1
  9
$QTEXTMODE
 70
     0
  9
$MIRRTEXT
 70
     0
  9
$DRAGMODE
 70
     2
  9
$LTSCALE
 40
5.0
  9
$OSMODE
 70
    55
  9
$ATTMODE
 70
     1
  9
$TEXTSIZE
 40
2.5
  9
$TRACEWID
 40
0.05
  9
$TEXTSTYLE
  7
STANDARD
  9
$CLAYER
  8
0
  9
$CELTYPE
  6
BYLAYER
  9
$CECOLOR
 62
   256
  9
$DIMSCALE
 40
0.5
  9
$DIMASZ
 40
3.0
  9
$DIMEXO
 40
2.0
  9
$DIMDLI
 40
10.0
  9
$DIMRND
 40
0.0
  9
$DIMDLE
 40
0.0
  9
$DIMEXE
 40
2.0
  9
$DIMTP
 40
0.0
  9
$DIMTM
 40
0.0
  9
$DIMTXT
 40
3.0
  9
$DIMCEN
 40
0.09
  9
$DIMTSZ
 40
0.0
  9
$DIMTOL
 70
     0
  9
$DIMLIM
 70
     0
  9
$DIMTIH
 70
     0
  9
$DIMTOH
 70
     0
  9
$DIMSE1
 70
     0
  9
$DIMSE2
 70
     0
  9
$DIMTAD
 70
     1
  9
$DIMZIN
 70
     0
  9
$DIMBLK
  1

  9
$DIMASO
 70
     0
  9
$DIMSHO
 70
     0
  9
$DIMPOST
  1

  9
$DIMAPOST
  1

  9
$DIMALT
 70
     0
  9
$DIMALTD
 70
     2
  9
$DIMALTF
 40
25.399999999999999
  9
$DIMLFAC
 40
1.0
  9
$DIMTOFL
 70
     1
  9
$DIMTVP
 40
1.6000000000000001
  9
$DIMTIX
 70
     1
  9
$DIMSOXD
 70
     0
  9
$DIMSAH
 70
     0
  9
$DIMBLK1
  1

  9
$DIMBLK2
  1

  9
$DIMSTYLE
  2
STANDARD
  9
$DIMCLRD
 70
     0
  9
$DIMCLRE
 70
     0
  9
$DIMCLRT
 70
     0
  9
$DIMTFAC
 40
1.0
  9
$DIMGAP
 40
0.09
  9
$LUNITS
 70
     2
  9
$LUPREC
 70
     4
  9
$SKETCHINC
 40
0.1
  9
$FILLETRAD
 40
0.0
  9
$AUNITS
 70
     0
  9
$AUPREC
 70
     0
  9
$MENU
  1
E:\r13\win\SUPPORT\ACAD
  9
$ELEVATION
 40
0.0
  9
$PELEVATION
 40
0.0
  9
$THICKNESS
 40
0.0
  9
$LIMCHECK
 70
     0
  9
$BLIPMODE
 70
     0
  9
$CHAMFERA
 40
3.2000000000000002
  9
$CHAMFERB
 40
3.2000000000000002
  9
$SKPOLY
 70
     0
  9
$TDCREATE
 40
2449840.5944097228
  9
$TDUPDATE
 40
2456598.5860412158
  9
$TDINDWG
 40
0.2795765625
  9
$TDUSRTIMER
 40
0.2795765625
  9
$USRTIMER
 70
     1
  9
$ANGBASE
 50
0.0
  9
$ANGDIR
 70
     0
  9
$PDMODE
 70
     0
  9
$PDSIZE
 40
0.0
  9
$PLINEWID
 40
0.0
  9
$COORDS
 70
     1
  9
$SPLFRAME
 70
     0
  9
$SPLINETYPE
 70
     6
  9
$SPLINESEGS
 70
     8
  9
$ATTDIA
 70
     0
  9
$ATTREQ
 70
     1
  9
$HANDLING
 70
     1
  9
$HANDSEED
  5
3D7D
  9
$SURFTAB1
 70
     6
  9
$SURFTAB2
 70
     6
  9
$SURFTYPE
 70
     6
  9
$SURFU
 70
     6
  9
$SURFV
 70
     6
  9
$UCSNAME
  2

  9
$UCSORG
 10
0.0
 20
0.0
 30
0.0
  9
$UCSXDIR
 10
1.0
 20
0.0
 30
0.0
  9
$UCSYDIR
 10
0.0
 20
1.0
 30
0.0
  9
$PUCSNAME
  2

  9
$PUCSORG
 10
0.0
 20
0.0
 30
0.0
  9
$PUCSXDIR
 10
1.0
 20
0.0
 30
0.0
  9
$PUCSYDIR
 10
0.0
 20
1.0
 30
0.0
  9
$USERI1
 70
     0
  9
$USERI2
 70
     1
  9
$USERI3
 70
     1
  9
$USERI4
 70
     0
  9
$USERI5
 70
     0
  9
$USERR1
 40
0.0
  9
$USERR2
 40
0.0
  9
$USERR3
 40
0.0
  9
$USERR4
 40
0.0
  9
$USERR5
 40
0.0
  9
$WORLDVIEW
 70
     1
  9
$SHADEDGE
 70
     3
  9
$SHADEDIF
 70
    70
  9
$TILEMODE
 70
     1
  9
$MAXACTVP
 70
    16
  9
$PLIMCHECK
 70
     0
  9
$PEXTMIN
 10
1.0000000000000000E+020
 20
1.0000000000000000E+020
 30
1.0000000000000000E+020
  9
$PEXTMAX
 10
-1.0000000000000000E+020
 20
-1.0000000000000000E+020
 30
-1.0000000000000000E+020
  9
$PLIMMIN
 10
0.0
 20
0.0
  9
$PLIMMAX
 10
12.0
 20
9.0
  9
$UNITMODE
 70
     0
  9
$VISRETAIN
 70
     0
  9
$PLINEGEN
 70
     0
  9
$PSLTSCALE
 70
     0
  0
ENDSEC
  0
SECTION
  2
TABLES
  0
TABLE
  2
VPORT
 70
     1
  0
VPORT
  2
*ACTIVE
 70
     0
 10
0.0
 20
0.0
 11
1.0
 21
1.0
 12
93.747139195326156
 22
96.983959220318994
 13
0.0
 23
0.0
 14
5.0
 24
5.0
 15
5.0
 25
5.0
 16
0.0
 26
0.0
 36
1.0
 17
0.0
 27
0.0
 37
0.0
 40
201.84293963319561
 41
1.7807262569832401
 42
50.0
 43
0.0
 44
0.0
 50
0.0
 51
0.0
 71
     0
 72
   100
 73
     1
 74
     0
 75
     0
 76
     0
 77
     0
 78
     0
  0
ENDTAB
  0
TABLE
  2
LTYPE
 70
     4
  0
LTYPE
  2
CONTINUOUS
 70
     0
  3
Solid Line
 72
    65
 73
     0
 40
0.0
  0
LTYPE
  2
CENTER
 70
     0
  3
____ _ ____ _ ____ _ ____ _ ____ _ ____ _ ____
 72
    65
 73
     4
 40
2.0
 49
1.25
 49
-0.25
 49
0.25
 49
-0.25
  0
LTYPE
  2
HIDDEN
 70
     0
  3
_ _ _ _ _ _ _ _ _ _ _ _ _ _ _ _ _ _ _ _ _ _ _
 72
    65
 73
     2
 40
0.375
 49
0.25
 49
-0.125
  0
LTYPE
  2
PHANTOM2
 70
     0
  3
___ _ _ ___ _ _ ___ _ _ ___ _ _
 72
    65
 73
     6
 40
1.25
 49
0.625
 49
-0.125
 49
0.125
 49
-0.125
 49
0.125
 49
-0.125
  0
ENDTAB
  0
TABLE
  2
LAYER
 70
     3
  0
LAYER
  2
0
 70
     0
 62
     7
  6
CONTINUOUS
  0
LAYER
  2
1
 70
     0
 62
     1
  6
CENTER
  0
LAYER
  2
2
 70
     0
 62
     2
  6
HIDDEN
  0
ENDTAB
  0
TABLE
  2
STYLE
 70
     2
  0
STYLE
  2
STANDARD
 70
     0
 40
0.0
 41
1.0
 50
0.0
 71
     0
 42
2.5
  3
TXT
  4
BIGFONT
  0
STYLE
  2
STANDARD1
 70
     0
 40
0.0
 41
1.0
 50
0.0
 71
     0
 42
3.0
  3
txt
  4

  0
ENDTAB
  0
TABLE
  2
VIEW
 70
     1
  0
VIEW
  2
ALL
 70
     0
 40
135.0
 10
110.49579799999999
 20
67.5
 41
0.0
 11
0.0
 21
0.0
 31
1.0
 12
0.0
 22
0.0
 32
0.0
 42
0.0
 43
0.0
 44
0.0
 50
0.0
 71
     0
  0
ENDTAB
  0
TABLE
  2
UCS
 70
     0
  0
ENDTAB
  0
TABLE
  2
APPID
 70
     4
  0
APPID
  2
ACAD
 70
     0
  0
APPID
  2
DCO15
 70
     0
  0
APPID
  2
ACAD_MLEADERVER
 70
     0
  0
APPID
  2
ACAD_NAV_VCDISPLAY
 70
     0
  0
ENDTAB
  0
TABLE
  2
DIMSTYLE
 70
     1
  0
DIMSTYLE
  2
STANDARD
 70
     0
  3

  4

  5

  6

  7

 40
1.0
 41
0.18
 42
0.0625
 43
0.38
 44
0.18
 45
0.0
 46
0.0
 47
0.0
 48
0.0
140
0.18
141
0.09
142
0.0
143
25.399999999999999
144
1.0
145
0.0
146
1.0
147
0.09
 71
     0
 72
     0
 73
     1
 74
     1
 75
     0
 76
     0
 77
     0
 78
     0
170
     0
171
     2
172
     0
173
     0
174
     0
175
     0
176
     0
177
     0
178
     0
  0
ENDTAB
  0
ENDSEC
  0
SECTION
  2
BLOCKS
  0
BLOCK
  8
0
  2
$MODEL_SPACE
 70
     0
 10
0.0
 20
0.0
 30
0.0
  3
$MODEL_SPACE
  1

  0
ENDBLK
  5
15D
  8
0
  0
BLOCK
 67
     1
  8
0
  2
$PAPER_SPACE
 70
     0
 10
0.0
 20
0.0
 30
0.0
  3
$PAPER_SPACE
  1

  0
ENDBLK
  5
15B
 67
     1
  8
0
  0
BLOCK
  8
0
  2
STDGX5
 70
     0
 10
0.0
 20
0.0
 30
0.0
  3
STDGX5
  1

  0
ENDBLK
  5
41
  8
0
  0
ENDSEC
  0
SECTION
  2
ENTITIES
  0
INSERT
  5
CA
  8
0
  2
STDGX5
 10
0.0
 20
0.0
 30
0.0
  0
INSERT
  5
69A
  8
0
  2
STDGX5
 10
194.3272563481562
 20
13.52129245667936
 30
0.0
  0
LINE
  5
3BE8
  8
0
 10
140.18614176711941
 20
98.679245252431045
 30
0.0
 11
140.18614176712029
 21
48.679245252431038
 31
0.0
  0
LINE
  5
3BE9
  8
0
 10
155.18614176711961
 20
48.679245252431471
 30
0.0
 11
155.18614176711901
 21
98.679245252431045
 31
0.0
1001
ACAD
1000
ASC_BOUNDS
1002
{
1070
    19
1005
0
1005
0
1005
0
1002
}
  0
LINE
  5
3BEA
  8
1
 10
135.1861417671189
 20
73.679245252431201
 30
0.0
 11
160.18614176711921
 21
73.679245252431485
 31
0.0
  0
LINE
  5
3BEB
  8
2
 10
142.48614176711939
 20
87.279245252431352
 30
0.0
 11
142.48614176711939
 21
60.07924525243137
 31
0.0
  0
LINE
  5
3BEC
  8
2
 10
143.68614176711941
 20
87.279245252431352
 30
0.0
 11
143.68614176711941
 21
60.07924525243137
 31
0.0
1001
ACAD
1000
ASC_BOUNDS
1002
{
1070
    19
1005
0
1005
0
1002
}
  0
LINE
  5
3BED
  8
2
 10
142.3361417671195
 20
87.279245252431352
 30
0.0
 11
142.3361417671195
 21
60.07924525243137
 31
0.0
1001
ACAD
1000
ASC_BOUNDS
1002
{
1070
    19
1005
0
1005
0
1002
}
  0
LINE
  5
3BEE
  8
2
 10
141.1861417671191
 20
60.679245252431393
 30
0.0
 11
141.1861417671191
 21
86.679245252431329
 31
0.0
  0
LINE
  5
3BEF
  8
2
 10
151.68614176711961
 20
86.479245252431369
 30
0.0
 11
151.68614176711961
 21
60.879245252431353
 31
0.0
1001
ACAD
1000
ASC_BOUNDS
1002
{
1070
    19
1005
0
1005
0
1005
0
1002
}
  0
ARC
  5
3BF0
  8
2
 10
151.38614176711951
 20
78.979245252431369
 30
0.0
 40
0.3
 50
270.0
 51
0.0
  0
ARC
  5
3BF1
  8
2
 10
151.38614176711951
 20
68.379245252431346
 30
0.0
 40
0.3
 50
0.0
 51
90.0
  0
ARC
  5
3BF2
  8
2
 10
151.38614176711951
 20
60.979245252431397
 30
0.0
 40
0.3
 50
270.0
 51
0.0
  0
LINE
  5
3BF3
  8
2
 10
155.1861417671191
 20
84.679245252431301
 30
0.0
 11
151.68614176711961
 21
84.679245252431301
 31
0.0
1001
ACAD
1000
ASC_BOUNDS
1002
{
1070
    19
1005
0
1002
}
  0
LINE
  5
3BF4
  8
2
 10
155.1861417671193
 20
62.679245252431421
 30
0.0
 11
151.68614176711961
 21
62.679245252431421
 31
0.0
1001
ACAD
1000
ASC_BOUNDS
1002
{
1070
    19
1005
0
1002
}
  0
LINE
  5
3BF5
  8
2
 10
141.1861417671191
 20
60.679245252431393
 30
0.0
 11
142.3361417671195
 21
60.679245252431393
 31
0.0
1001
ACAD
1000
ASC_BOUNDS
1002
{
1070
    19
1005
0
1002
}
  0
LINE
  5
3BF6
  8
2
 10
141.1861417671191
 20
60.679245252431393
 30
0.0
 11
140.1861417671189
 21
60.10189498324177
 31
0.0
1001
ACAD
1000
ASC_BOUNDS
1002
{
1070
    19
1005
0
1002
}
  0
CIRCLE
  5
3BF7
  8
2
 10
147.68614176711941
 20
64.679245252431301
 30
0.0
 40
2.0
  0
LINE
  5
3BF8
  8
2
 10
143.68614176711941
 20
60.679245252431393
 30
0.0
 11
151.48614176711939
 21
60.679245252431393
 31
0.0
1001
ACAD
1000
ASC_BOUNDS
1002
{
1070
    19
1005
0
1002
}
  0
ARC
  5
3BF9
  8
2
 10
143.98614176711939
 20
60.979245252431397
 30
0.0
 40
0.3
 50
180.0
 51
270.0
  0
LINE
  5
3BFA
  8
2
 10
143.68614176711941
 20
60.07924525243137
 30
0.0
 11
142.3361417671195
 21
60.07924525243137
 31
0.0
1001
ACAD
1000
ASC_BOUNDS
1002
{
1070
    19
1005
0
1002
}
  0
LINE
  5
3BFB
  8
2
 10
142.48614176711939
 20
62.307350071767857
 30
0.0
 11
143.68614176711941
 21
62.307350071767857
 31
0.0
  0
LINE
  5
3BFC
  8
2
 10
143.68614176711941
 20
63.679245252431357
 30
0.0
 11
145.95409095955051
 21
63.679245252431357
 31
0.0
  0
ARC
  5
3BFD
  8
2
 10
151.48614176711939
 20
60.879245252431353
 30
0.0
 40
0.2
 50
270.0
 51
360.0
1001
ACAD
1000
ASC_BOUNDS
1002
{
1070
    19
1005
0
1002
}
  0
LINE
  5
3BFE
  8
2
 10
149.4181925746885
 20
63.679245252431357
 30
0.0
 11
151.68614176711961
 21
63.679245252431357
 31
0.0
  0
LINE
  5
3BFF
  8
2
 10
143.98614176711939
 20
68.679245252431357
 30
0.0
 11
151.38614176711951
 21
68.679245252431357
 31
0.0
  0
ARC
  5
3C00
  8
2
 10
143.98614176711939
 20
68.379245252431346
 30
0.0
 40
0.3
 50
90.0
 51
180.0
  0
LINE
  5
3C01
  8
2
 10
143.68614176711941
 20
65.679245252431386
 30
0.0
 11
145.95409095955051
 21
65.679245252431386
 31
0.0
  0
LINE
  5
3C02
  8
2
 10
149.4181925746885
 20
65.679245252431386
 30
0.0
 11
151.68614176711961
 21
65.679245252431386
 31
0.0
  0
LINE
  5
3C03
  8
2
 10
143.98614176711939
 20
78.679245252431357
 30
0.0
 11
151.38614176711951
 21
78.679245252431357
 31
0.0
  0
ARC
  5
3C04
  8
2
 10
143.98614176711939
 20
78.979245252431369
 30
0.0
 40
0.3
 50
180.0
 51
270.0
  0
CIRCLE
  5
3C05
  8
2
 10
147.68614176711941
 20
82.679245252431414
 30
0.0
 40
2.0
  0
LINE
  5
3C06
  8
2
 10
143.68614176711941
 20
81.679245252431329
 30
0.0
 11
145.95409095955051
 21
81.679245252431329
 31
0.0
  0
LINE
  5
3C07
  8
2
 10
142.48614176711939
 20
85.051140433094858
 30
0.0
 11
143.68614176711941
 21
85.051140433094858
 31
0.0
  0
LINE
  5
3C08
  8
2
 10
143.68614176711941
 20
83.679245252431357
 30
0.0
 11
145.95409095955051
 21
83.679245252431357
 31
0.0
  0
LINE
  5
3C09
  8
2
 10
149.4181925746885
 20
81.679245252431329
 30
0.0
 11
151.68614176711961
 21
81.679245252431329
 31
0.0
  0
LINE
  5
3C0A
  8
2
 10
149.4181925746885
 20
83.679245252431357
 30
0.0
 11
151.68614176711961
 21
83.679245252431357
 31
0.0
  0
ARC
  5
3C0B
  8
2
 10
151.38614176711951
 20
86.379245252431318
 30
0.0
 40
0.3
 50
0.0
 51
90.0
  0
LINE
  5
3C0C
  8
2
 10
141.1861417671191
 20
86.679245252431329
 30
0.0
 11
142.3361417671195
 21
86.679245252431329
 31
0.0
1001
ACAD
1000
ASC_BOUNDS
1002
{
1070
    19
1005
0
1002
}
  0
LINE
  5
3C0D
  8
2
 10
141.1861417671191
 20
86.679245252431329
 30
0.0
 11
140.1861417671189
 21
87.056595521620849
 31
0.0
  0
LINE
  5
3C0E
  8
2
 10
143.68614176711941
 20
86.679245252431329
 30
0.0
 11
151.48614176711939
 21
86.679245252431329
 31
0.0
1001
ACAD
1000
ASC_BOUNDS
1002
{
1070
    19
1005
0
1002
}
  0
ARC
  5
3C0F
  8
2
 10
143.98614176711939
 20
86.379245252431318
 30
0.0
 40
0.3
 50
90.0
 51
180.0
  0
LINE
  5
3C10
  8
2
 10
143.68614176711941
 20
87.279245252431352
 30
0.0
 11
142.3361417671195
 21
87.279245252431352
 31
0.0
1001
ACAD
1000
ASC_BOUNDS
1002
{
1070
    19
1005
0
1002
}
  0
ARC
  5
3C11
  8
2
 10
151.48614176711939
 20
86.479245252431369
 30
0.0
 40
0.2
 50
360.0
 51
90.0
1001
ACAD
1000
ASC_BOUNDS
1002
{
1070
    19
1005
0
1002
}
  0
LINE
  5
3C12
  8
2
 10
77.743177508875874
 20
77.043892838764037
 30
0.0
 11
78.322733004649365
 21
77.199184265825608
 31
0.0
  0
LINE
  5
3C13
  8
2
 10
77.743177508875874
 20
70.314597666098507
 30
0.0
 11
78.322733004649294
 21
70.159306239037079
 31
0.0
  0
CIRCLE
  5
3C14
  8
0
 10
65.186141767117988
 20
73.679245252431201
 30
0.0
 40
13.0
  0
LINE
  5
3C15
  8
0
 10
74.086281766100626
 20
67.447300134021845
 30
0.0
 11
75.053715353484563
 21
66.76989584341834
 31
0.0
  0
LINE
  5
3C16
  8
0
 10
75.680988410719635
 20
70.867159569589774
 30
0.0
 11
77.743177508875874
 21
70.314597666098507
 31
0.0
  0
CIRCLE
  5
3C17
  8
0
 10
74.883635088410074
 20
69.157229851805738
 30
0.0
 40
1.25
  0
ARC
  5
3C18
  8
0
 10
75.062132929622393
 20
69.073994941484443
 30
0.0
 40
1.8969505765761081
 50
70.959464385027275
 51
239.04053561497159
  0
ARC
  5
3C19
  8
0
 10
75.062132929622393
 20
78.284495563378101
 30
0.0
 40
1.8969505765761081
 50
120.9594643850284
 51
289.04053561497273
  0
CIRCLE
  5
3C1A
  8
0
 10
74.883635088410074
 20
78.201260653056806
 30
0.0
 40
1.25
  0
LINE
  5
3C1B
  8
0
 10
75.680988410719635
 20
76.491330935272771
 30
0.0
 11
77.743177508875874
 21
77.043892838764037
 31
0.0
  0
LINE
  5
3C1C
  8
0
 10
74.086281766100626
 20
79.9111903708407
 30
0.0
 11
75.053715353484563
 21
80.588594661444205
 31
0.0
  0
ARC
  5
3C1D
  8
0
 10
65.986141767117942
 20
73.679245252431201
 30
0.0
 40
11.4
 50
37.306834345821557
 51
322.6931656541787
  0
CIRCLE
  5
3C1E
  8
2
 10
65.186141767117988
 20
73.679245252431201
 30
0.0
 40
13.6
  0
CIRCLE
  5
3C1F
  8
0
 10
65.186141767118883
 20
73.679245252431201
 30
0.0
 40
5.0
  0
CIRCLE
  5
3C20
  8
0
 10
65.186141767118883
 20
73.679245252431201
 30
0.0
 40
25.0
  0
LINE
  5
3C21
  8
1
 10
65.186141767118883
 20
103.6792452524312
 30
0.0
 11
65.186141767118883
 21
43.679245252431201
 31
0.0
  0
LINE
  5
3C22
  8
1
 10
95.186141767118897
 20
73.679245252431201
 30
0.0
 11
35.186141767118897
 21
73.679245252431201
 31
0.0
  0
CIRCLE
  5
3C23
  8
2
 10
65.186141767118883
 20
73.679245252431201
 30
0.0
 40
19.0
  0
LINE
  5
3C24
  8
0
 10
151.7275936514464
 20
48.679245252431471
 30
0.0
 11
155.18614176711901
 21
48.679245252431471
 31
0.0
  0
LINE
  5
3C25
  8
0
 10
143.6446898827914
 20
48.679245252431471
 30
0.0
 11
140.1861417671189
 21
48.679245252431471
 31
0.0
  0
LINE
  5
3C26
  8
1
 10
150.98614176711891
 20
49.679245252431592
 30
0.0
 11
144.38614176711889
 21
49.679245252431592
 31
0.0
  0
LINE
  5
3C27
  8
1
 10
147.6861417671189
 20
46.379245252431573
 30
0.0
 11
147.6861417671189
 21
52.979245252431603
 31
0.0
  0
LINE
  5
3C28
  8
0
 10
145.08806555576561
 20
51.17924525243167
 30
0.0
 11
143.6446898827914
 21
48.679245252431471
 31
0.0
  0
ARC
  5
3C29
  8
0
 10
147.6861417671189
 20
49.67924525243167
 30
0.0
 40
3.0
 50
30.000000000000341
 51
149.9999999999996
  0
LINE
  5
3C2A
  8
0
 10
150.28421797847221
 20
51.17924525243167
 30
0.0
 11
151.7275936514464
 21
48.679245252431471
 31
0.0
  0
LINE
  5
3C2B
  8
0
 10
145.08806555576561
 20
96.179245252430704
 30
0.0
 11
143.6446898827916
 21
98.679245252430789
 31
0.0
  0
LINE
  5
3C2C
  8
0
 10
150.28421797847221
 20
96.179245252430704
 30
0.0
 11
151.72759365144631
 21
98.679245252430789
 31
0.0
  0
ARC
  5
3C2D
  8
0
 10
147.6861417671189
 20
97.679245252430704
 30
0.0
 40
3.0
 50
210.00000000000031
 51
329.99999999999972
  0
LINE
  5
3C2E
  8
0
 10
143.6446898827916
 20
98.679245252430789
 30
0.0
 11
140.1861417671189
 21
98.679245252430789
 31
0.0
  0
LINE
  5
3C2F
  8
1
 10
147.6861417671189
 20
100.9792452524307
 30
0.0
 11
147.6861417671189
 21
94.379245252430692
 31
0.0
  0
LINE
  5
3C30
  8
0
 10
151.72759365144631
 20
98.679245252430789
 30
0.0
 11
155.18614176711901
 21
98.679245252430789
 31
0.0
  0
LINE
  5
3C31
  8
1
 10
150.98614176711891
 20
97.679245252430704
 30
0.0
 11
144.38614176711889
 21
97.679245252430704
 31
0.0
  0
LINE
  5
3C32
  8
0
 10
143.6446898827916
 20
98.679245252430789
 30
0.0
 11
143.6446898827914
 21
48.679245252431471
 31
0.0
  0
LINE
  5
3C33
  8
0
 10
151.72759365144631
 20
98.679245252430789
 30
0.0
 11
151.7275936514464
 21
48.679245252431471
 31
0.0
  0
TEXT
  5
3CE6
  8
0
 62
     3
 10
0.0
 20
0.0
 30
0.0
 40
10.0
  1
RABS0650-R
  7
STANDARD1
  0
ENDSEC
  0
EOF
