  0
SECTION
  2
HEADER
  9
$ACADVER
  1
AC1009
  9
$INSBASE
 10
0.0
 20
0.0
 30
0.0
  9
$EXTMIN
 10
0.0
 20
-2.960436562073669
 30
0.0
  9
$EXTMAX
 10
143.9871337548708
 20
93.292452706894665
 30
0.0
  9
$LIMMIN
 10
0.0
 20
0.0
  9
$LIMMAX
 10
187.5
 20
135.0
  9
$ORTHOMODE
 70
     1
  9
$REGENMODE
 70
     1
  9
$FILLMODE
 70
     1
  9
$QTEXTMODE
 70
     0
  9
$MIRRTEXT
 70
     0
  9
$DRAGMODE
 70
     2
  9
$LTSCALE
 40
10.0
  9
$OSMODE
 70
    55
  9
$ATTMODE
 70
     1
  9
$TEXTSIZE
 40
2.5
  9
$TRACEWID
 40
0.05
  9
$TEXTSTYLE
  7
STANDARD
  9
$CLAYER
  8
0
  9
$CELTYPE
  6
BYLAYER
  9
$CECOLOR
 62
   256
  9
$DIMSCALE
 40
0.5
  9
$DIMASZ
 40
3.0
  9
$DIMEXO
 40
2.0
  9
$DIMDLI
 40
10.0
  9
$DIMRND
 40
0.0
  9
$DIMDLE
 40
0.0
  9
$DIMEXE
 40
2.0
  9
$DIMTP
 40
0.0
  9
$DIMTM
 40
0.0
  9
$DIMTXT
 40
3.0
  9
$DIMCEN
 40
0.09
  9
$DIMTSZ
 40
0.0
  9
$DIMTOL
 70
     0
  9
$DIMLIM
 70
     0
  9
$DIMTIH
 70
     0
  9
$DIMTOH
 70
     0
  9
$DIMSE1
 70
     0
  9
$DIMSE2
 70
     0
  9
$DIMTAD
 70
     1
  9
$DIMZIN
 70
     0
  9
$DIMBLK
  1

  9
$DIMASO
 70
     0
  9
$DIMSHO
 70
     0
  9
$DIMPOST
  1

  9
$DIMAPOST
  1

  9
$DIMALT
 70
     0
  9
$DIMALTD
 70
     2
  9
$DIMALTF
 40
25.399999999999999
  9
$DIMLFAC
 40
1.0
  9
$DIMTOFL
 70
     1
  9
$DIMTVP
 40
1.6000000000000001
  9
$DIMTIX
 70
     1
  9
$DIMSOXD
 70
     0
  9
$DIMSAH
 70
     0
  9
$DIMBLK1
  1

  9
$DIMBLK2
  1

  9
$DIMSTYLE
  2
STANDARD
  9
$DIMCLRD
 70
     0
  9
$DIMCLRE
 70
     0
  9
$DIMCLRT
 70
     0
  9
$DIMTFAC
 40
1.0
  9
$DIMGAP
 40
0.09
  9
$LUNITS
 70
     2
  9
$LUPREC
 70
     4
  9
$SKETCHINC
 40
0.1
  9
$FILLETRAD
 40
0.0
  9
$AUNITS
 70
     0
  9
$AUPREC
 70
     0
  9
$MENU
  1
E:\r13\win\SUPPORT\ACAD
  9
$ELEVATION
 40
0.0
  9
$PELEVATION
 40
0.0
  9
$THICKNESS
 40
0.0
  9
$LIMCHECK
 70
     0
  9
$BLIPMODE
 70
     0
  9
$CHAMFERA
 40
3.2000000000000002
  9
$CHAMFERB
 40
3.2000000000000002
  9
$SKPOLY
 70
     0
  9
$TDCREATE
 40
2449840.5944097228
  9
$TDUPDATE
 40
2456598.5862076851
  9
$TDINDWG
 40
0.2775997569
  9
$TDUSRTIMER
 40
0.2775997569
  9
$USRTIMER
 70
     1
  9
$ANGBASE
 50
0.0
  9
$ANGDIR
 70
     0
  9
$PDMODE
 70
     0
  9
$PDSIZE
 40
0.0
  9
$PLINEWID
 40
0.0
  9
$COORDS
 70
     1
  9
$SPLFRAME
 70
     0
  9
$SPLINETYPE
 70
     6
  9
$SPLINESEGS
 70
     8
  9
$ATTDIA
 70
     0
  9
$ATTREQ
 70
     1
  9
$HANDLING
 70
     1
  9
$HANDSEED
  5
3A77
  9
$SURFTAB1
 70
     6
  9
$SURFTAB2
 70
     6
  9
$SURFTYPE
 70
     6
  9
$SURFU
 70
     6
  9
$SURFV
 70
     6
  9
$UCSNAME
  2

  9
$UCSORG
 10
0.0
 20
0.0
 30
0.0
  9
$UCSXDIR
 10
1.0
 20
0.0
 30
0.0
  9
$UCSYDIR
 10
0.0
 20
1.0
 30
0.0
  9
$PUCSNAME
  2

  9
$PUCSORG
 10
0.0
 20
0.0
 30
0.0
  9
$PUCSXDIR
 10
1.0
 20
0.0
 30
0.0
  9
$PUCSYDIR
 10
0.0
 20
1.0
 30
0.0
  9
$USERI1
 70
     0
  9
$USERI2
 70
     1
  9
$USERI3
 70
     1
  9
$USERI4
 70
     0
  9
$USERI5
 70
     0
  9
$USERR1
 40
0.0
  9
$USERR2
 40
0.0
  9
$USERR3
 40
0.0
  9
$USERR4
 40
0.0
  9
$USERR5
 40
0.0
  9
$WORLDVIEW
 70
     1
  9
$SHADEDGE
 70
     3
  9
$SHADEDIF
 70
    70
  9
$TILEMODE
 70
     1
  9
$MAXACTVP
 70
    16
  9
$PLIMCHECK
 70
     0
  9
$PEXTMIN
 10
1.0000000000000000E+020
 20
1.0000000000000000E+020
 30
1.0000000000000000E+020
  9
$PEXTMAX
 10
-1.0000000000000000E+020
 20
-1.0000000000000000E+020
 30
-1.0000000000000000E+020
  9
$PLIMMIN
 10
0.0
 20
0.0
  9
$PLIMMAX
 10
12.0
 20
9.0
  9
$UNITMODE
 70
     0
  9
$VISRETAIN
 70
     0
  9
$PLINEGEN
 70
     0
  9
$PSLTSCALE
 70
     0
  0
ENDSEC
  0
SECTION
  2
TABLES
  0
TABLE
  2
VPORT
 70
     1
  0
VPORT
  2
*ACTIVE
 70
     0
 10
0.0
 20
0.0
 11
1.0
 21
1.0
 12
93.747139195326156
 22
96.983959220318994
 13
0.0
 23
0.0
 14
5.0
 24
5.0
 15
5.0
 25
5.0
 16
0.0
 26
0.0
 36
1.0
 17
0.0
 27
0.0
 37
0.0
 40
201.84293963319561
 41
1.7807262569832401
 42
50.0
 43
0.0
 44
0.0
 50
0.0
 51
0.0
 71
     0
 72
   100
 73
     1
 74
     0
 75
     0
 76
     0
 77
     0
 78
     0
  0
ENDTAB
  0
TABLE
  2
LTYPE
 70
     4
  0
LTYPE
  2
CONTINUOUS
 70
     0
  3
Solid Line
 72
    65
 73
     0
 40
0.0
  0
LTYPE
  2
CENTER
 70
     0
  3
____ _ ____ _ ____ _ ____ _ ____ _ ____ _ ____
 72
    65
 73
     4
 40
2.0
 49
1.25
 49
-0.25
 49
0.25
 49
-0.25
  0
LTYPE
  2
HIDDEN
 70
     0
  3
_ _ _ _ _ _ _ _ _ _ _ _ _ _ _ _ _ _ _ _ _ _ _
 72
    65
 73
     2
 40
0.375
 49
0.25
 49
-0.125
  0
LTYPE
  2
PHANTOM2
 70
     0
  3
___ _ _ ___ _ _ ___ _ _ ___ _ _
 72
    65
 73
     6
 40
1.25
 49
0.625
 49
-0.125
 49
0.125
 49
-0.125
 49
0.125
 49
-0.125
  0
ENDTAB
  0
TABLE
  2
LAYER
 70
     3
  0
LAYER
  2
0
 70
     0
 62
     7
  6
CONTINUOUS
  0
LAYER
  2
1
 70
     0
 62
     1
  6
CENTER
  0
LAYER
  2
2
 70
     0
 62
     2
  6
HIDDEN
  0
ENDTAB
  0
TABLE
  2
STYLE
 70
     2
  0
STYLE
  2
STANDARD
 70
     0
 40
0.0
 41
1.0
 50
0.0
 71
     0
 42
2.5
  3
TXT
  4
BIGFONT
  0
STYLE
  2
STANDARD1
 70
     0
 40
0.0
 41
1.0
 50
0.0
 71
     0
 42
3.0
  3
txt
  4

  0
ENDTAB
  0
TABLE
  2
VIEW
 70
     1
  0
VIEW
  2
ALL
 70
     0
 40
135.0
 10
110.49579799999999
 20
67.5
 41
0.0
 11
0.0
 21
0.0
 31
1.0
 12
0.0
 22
0.0
 32
0.0
 42
0.0
 43
0.0
 44
0.0
 50
0.0
 71
     0
  0
ENDTAB
  0
TABLE
  2
UCS
 70
     0
  0
ENDTAB
  0
TABLE
  2
APPID
 70
     4
  0
APPID
  2
ACAD
 70
     0
  0
APPID
  2
DCO15
 70
     0
  0
APPID
  2
ACAD_MLEADERVER
 70
     0
  0
APPID
  2
ACAD_NAV_VCDISPLAY
 70
     0
  0
ENDTAB
  0
TABLE
  2
DIMSTYLE
 70
     1
  0
DIMSTYLE
  2
STANDARD
 70
     0
  3

  4

  5

  6

  7

 40
1.0
 41
0.18
 42
0.0625
 43
0.38
 44
0.18
 45
0.0
 46
0.0
 47
0.0
 48
0.0
140
0.18
141
0.09
142
0.0
143
25.399999999999999
144
1.0
145
0.0
146
1.0
147
0.09
 71
     0
 72
     0
 73
     1
 74
     1
 75
     0
 76
     0
 77
     0
 78
     0
170
     0
171
     2
172
     0
173
     0
174
     0
175
     0
176
     0
177
     0
178
     0
  0
ENDTAB
  0
ENDSEC
  0
SECTION
  2
BLOCKS
  0
BLOCK
  8
0
  2
$MODEL_SPACE
 70
     0
 10
0.0
 20
0.0
 30
0.0
  3
$MODEL_SPACE
  1

  0
ENDBLK
  5
15D
  8
0
  0
BLOCK
 67
     1
  8
0
  2
$PAPER_SPACE
 70
     0
 10
0.0
 20
0.0
 30
0.0
  3
$PAPER_SPACE
  1

  0
ENDBLK
  5
15B
 67
     1
  8
0
  0
BLOCK
  8
0
  2
STDGX5
 70
     0
 10
0.0
 20
0.0
 30
0.0
  3
STDGX5
  1

  0
ENDBLK
  5
41
  8
0
  0
ENDSEC
  0
SECTION
  2
ENTITIES
  0
INSERT
  5
CA
  8
0
  2
STDGX5
 10
0.0
 20
0.0
 30
0.0
  0
INSERT
  5
69A
  8
0
  2
STDGX5
 10
194.3272563481562
 20
13.52129245667936
 30
0.0
  0
LINE
  5
38EC
  8
2
 10
124.9871337548708
 20
60.292452706894608
 30
0.0
 11
124.9871337548708
 21
83.292452706894721
 31
0.0
  0
LINE
  5
38ED
  8
2
 10
120.98713375487129
 20
82.792452706894608
 30
0.0
 11
120.98713375487129
 21
60.792452706894721
 31
0.0
  0
LINE
  5
38EE
  8
2
 10
124.6371337548709
 20
83.292452706894721
 30
0.0
 11
124.6371337548709
 21
60.292452706894608
 31
0.0
1001
ACAD
1000
ASC_BOUNDS
1002
{
1070
    19
1005
0
1005
0
1002
}
  0
LINE
  5
38EF
  8
2
 10
125.9871337548708
 20
83.292452706894721
 30
0.0
 11
125.9871337548708
 21
60.292452706894608
 31
0.0
1001
ACAD
1000
ASC_BOUNDS
1002
{
1070
    19
1005
0
1005
0
1002
}
  0
LINE
  5
38F0
  8
2
 10
132.9871337548708
 20
82.59245270689479
 30
0.0
 11
132.9871337548708
 21
60.992452706894539
 31
0.0
1001
ACAD
1000
ASC_BOUNDS
1002
{
1070
    19
1005
0
1005
0
1002
}
  0
ARC
  5
38F1
  8
2
 10
126.2871337548705
 20
82.492452706894454
 30
0.0
 40
0.3
 50
90.0
 51
180.0000000000002
  0
ARC
  5
38F2
  8
2
 10
132.68713375487059
 20
82.492452706894454
 30
0.0
 40
0.3
 50
0.0
 51
90.0
  0
ARC
  5
38F3
  8
2
 10
132.78713375487101
 20
82.59245270689479
 30
0.0
 40
0.2
 50
359.99999999999977
 51
90.0
  0
ARC
  5
38F4
  8
2
 10
132.78713375487101
 20
82.59245270689479
 30
0.0
 40
0.2
 50
359.99999999999977
 51
90.0
1001
ACAD
1000
ASC_BOUNDS
1002
{
1070
    19
1005
0
1002
}
  0
LINE
  5
38F5
  8
2
 10
120.98713375487129
 20
82.792452706894608
 30
0.0
 11
119.98713375487119
 21
83.369802976084088
 31
0.0
  0
LINE
  5
38F6
  8
2
 10
125.9871337548708
 20
82.792452706894608
 30
0.0
 11
132.78713375487101
 21
82.792452706894608
 31
0.0
1001
ACAD
1000
ASC_BOUNDS
1002
{
1070
    19
1005
0
1002
}
  0
LINE
  5
38F7
  8
2
 10
124.6371337548709
 20
83.292452706894721
 30
0.0
 11
125.9871337548708
 21
83.292452706894721
 31
0.0
1001
ACAD
1000
ASC_BOUNDS
1002
{
1070
    19
1005
0
1002
}
  0
LINE
  5
38F8
  8
2
 10
120.98713375487129
 20
82.792452706894608
 30
0.0
 11
124.6371337548709
 21
82.792452706894608
 31
0.0
1001
ACAD
1000
ASC_BOUNDS
1002
{
1070
    19
1005
0
1002
}
  0
LINE
  5
38F9
  8
2
 10
132.9871337548708
 20
80.792452706894721
 30
0.0
 11
138.9871337548708
 21
80.792452706894721
 31
0.0
1001
ACAD
1000
ASC_BOUNDS
1002
{
1070
    19
1005
0
1002
}
  0
LINE
  5
38FA
  8
2
 10
132.9871337548708
 20
62.792452706894608
 30
0.0
 11
138.9871337548708
 21
62.792452706894608
 31
0.0
1001
ACAD
1000
ASC_BOUNDS
1002
{
1070
    19
1005
0
1002
}
  0
LINE
  5
38FB
  8
2
 10
124.9871337548708
 20
62.071341659282837
 30
0.0
 11
125.9871337548708
 21
62.071341659282837
 31
0.0
  0
LINE
  5
38FC
  8
2
 10
124.9871337548708
 20
81.513563754506492
 30
0.0
 11
125.9871337548708
 21
81.513563754506492
 31
0.0
  0
LINE
  5
38FD
  8
2
 10
126.28713375487089
 20
67.792452706894608
 30
0.0
 11
132.68713375487059
 21
67.792452706894608
 31
0.0
  0
LINE
  5
38FE
  8
2
 10
126.28713375487089
 20
75.792452706894721
 30
0.0
 11
132.68713375487059
 21
75.792452706894721
 31
0.0
  0
LINE
  5
38FF
  8
2
 10
125.9871337548708
 20
65.392452706894517
 30
0.0
 11
127.8168044460223
 21
65.392452706894517
 31
0.0
  0
LINE
  5
3900
  8
2
 10
125.9871337548708
 20
63.192452706894812
 30
0.0
 11
127.8168044460231
 21
63.192452706894812
 31
0.0
  0
CIRCLE
  5
3901
  8
2
 10
129.4871337548708
 20
64.292452706894665
 30
0.0
 40
2.0
  0
LINE
  5
3902
  8
2
 10
131.15746306371841
 20
63.192452706894812
 30
0.0
 11
132.9871337548708
 21
63.192452706894812
 31
0.0
  0
LINE
  5
3903
  8
2
 10
131.15746306371929
 20
65.392452706894517
 30
0.0
 11
132.9871337548708
 21
65.392452706894517
 31
0.0
  0
ARC
  5
3904
  8
2
 10
126.28713375487089
 20
61.092452706894733
 30
0.0
 40
0.3
 50
180.0
 51
270.0
  0
ARC
  5
3905
  8
2
 10
132.68713375487059
 20
61.092452706894733
 30
0.0
 40
0.3
 50
270.0
 51
0.0
  0
ARC
  5
3906
  8
2
 10
126.28713375487089
 20
67.492452706894454
 30
0.0
 40
0.3
 50
90.0
 51
180.00000000000011
  0
ARC
  5
3907
  8
2
 10
132.68713375487059
 20
67.492452706894454
 30
0.0
 40
0.3
 50
0.0
 51
90.0
  0
ARC
  5
3908
  8
2
 10
132.68713375487059
 20
76.092452706894733
 30
0.0
 40
0.3
 50
270.0
 51
0.0
  0
ARC
  5
3909
  8
2
 10
126.28713375487089
 20
76.092452706894449
 30
0.0
 40
0.3
 50
180.0
 51
270.0
  0
LINE
  5
390A
  8
2
 10
131.15746306371929
 20
78.192452706894812
 30
0.0
 11
132.9871337548708
 21
78.192452706894812
 31
0.0
  0
LINE
  5
390B
  8
2
 10
131.15746306371841
 20
80.392452706894517
 30
0.0
 11
132.9871337548708
 21
80.392452706894517
 31
0.0
  0
CIRCLE
  5
390C
  8
2
 10
129.4871337548708
 20
79.292452706894665
 30
0.0
 40
2.0
  0
LINE
  5
390D
  8
2
 10
125.9871337548708
 20
80.392452706894517
 30
0.0
 11
127.8168044460231
 21
80.392452706894517
 31
0.0
  0
LINE
  5
390E
  8
2
 10
125.9871337548708
 20
78.192452706894812
 30
0.0
 11
127.8168044460223
 21
78.192452706894812
 31
0.0
  0
ARC
  5
390F
  8
2
 10
132.78713375487101
 20
60.992452706894539
 30
0.0
 40
0.2
 50
270.0
 51
359.99999999999989
1001
ACAD
1000
ASC_BOUNDS
1002
{
1070
    19
1005
0
1002
}
  0
LINE
  5
3910
  8
2
 10
120.98713375487129
 20
60.792452706894721
 30
0.0
 11
119.98713375487119
 21
60.215102437705099
 31
0.0
1001
ACAD
1000
ASC_BOUNDS
1002
{
1070
    19
1005
0
1002
}
  0
LINE
  5
3911
  8
2
 10
125.9871337548708
 20
60.792452706894721
 30
0.0
 11
132.78713375487101
 21
60.792452706894721
 31
0.0
1001
ACAD
1000
ASC_BOUNDS
1002
{
1070
    19
1005
0
1002
}
  0
LINE
  5
3912
  8
2
 10
124.6371337548709
 20
60.292452706894608
 30
0.0
 11
125.9871337548708
 21
60.292452706894608
 31
0.0
1001
ACAD
1000
ASC_BOUNDS
1002
{
1070
    19
1005
0
1005
0
1002
}
  0
LINE
  5
3913
  8
2
 10
120.98713375487129
 20
60.792452706894721
 30
0.0
 11
124.6371337548709
 21
60.792452706894721
 31
0.0
1001
ACAD
1000
ASC_BOUNDS
1002
{
1070
    19
1005
0
1002
}
  0
LINE
  5
3914
  8
0
 10
119.9871337548708
 20
55.292452706893812
 30
0.0
 11
121.4871337548708
 21
55.292452706894089
 31
0.0
1001
ACAD
1000
ASC_BOUNDS
1002
{
1070
    19
1005
0
1002
}
  0
LINE
  5
3915
  8
0
 10
119.98713375487119
 20
88.292452706894665
 30
0.0
 11
121.4871337548704
 21
88.292452706894665
 31
0.0
1001
ACAD
1000
ASC_BOUNDS
1002
{
1070
    19
1005
0
1002
}
  0
LINE
  5
3916
  8
0
 10
138.9871337548708
 20
55.292452706894657
 30
0.0
 11
138.9871337548708
 21
88.292452706894665
 31
0.0
1001
ACAD
1000
ASC_BOUNDS
1002
{
1070
    19
1005
0
1005
0
1002
}
  0
LINE
  5
3917
  8
0
 10
119.9871337548708
 20
55.292452706894657
 30
0.0
 11
119.98713375487119
 21
88.292452706894665
 31
0.0
1001
ACAD
1000
ASC_BOUNDS
1002
{
1070
    19
1005
0
1005
0
1005
0
1002
}
  0
LINE
  5
3918
  8
0
 10
121.4871337548708
 20
56.792452706894181
 30
0.0
 11
137.48713375487031
 21
56.792452706895169
 31
0.0
1001
ACAD
1000
ASC_BOUNDS
1002
{
1070
    19
1005
0
1002
}
  0
LINE
  5
3919
  8
0
 10
121.4871337548704
 20
86.792452706894721
 30
0.0
 11
137.48713375487071
 21
86.792452706895574
 31
0.0
1001
ACAD
1000
ASC_BOUNDS
1002
{
1070
    19
1005
0
1002
}
  0
LINE
  5
391A
  8
0
 10
137.48713375487071
 20
55.292452706895091
 30
0.0
 11
137.48713375487071
 21
88.292452706894665
 31
0.0
  0
LINE
  5
391B
  8
0
 10
121.4871337548708
 20
55.292452706894089
 30
0.0
 11
121.4871337548709
 21
88.29245270689465
 31
0.0
  0
LINE
  5
391C
  8
0
 10
137.48713375487031
 20
55.292452706895091
 30
0.0
 11
138.9871337548708
 21
55.292452706895091
 31
0.0
1001
ACAD
1000
ASC_BOUNDS
1002
{
1070
    19
1005
0
1002
}
  0
LINE
  5
391D
  8
0
 10
137.48713375487071
 20
88.292452706894665
 30
0.0
 11
138.9871337548708
 21
88.292452706895105
 31
0.0
1001
ACAD
1000
ASC_BOUNDS
1002
{
1070
    19
1005
0
1002
}
  0
LINE
  5
391E
  8
1
 10
114.987133754871
 20
71.792452706894665
 30
0.0
 11
143.9871337548708
 21
71.792452706894665
 31
0.0
  0
CIRCLE
  5
391F
  8
0
 10
63.487133754871017
 20
71.792452706894665
 30
0.0
 40
4.0
  0
LINE
  5
3920
  8
2
 10
74.293598893908609
 20
67.859221058649723
 30
0.0
 11
73.823752583515557
 21
68.030231130312472
 31
0.0
  0
LINE
  5
3921
  8
2
 10
73.823752583515784
 20
75.554674283476999
 30
0.0
 11
74.293598893908836
 21
75.72568435513989
 31
0.0
  0
LINE
  5
3922
  8
0
 10
70.41010478440046
 20
65.9833902693656
 30
0.0
 11
71.387049426480175
 21
65.163636380515754
 31
0.0
  0
LINE
  5
3923
  8
0
 10
71.97941491270592
 20
68.701515144423013
 30
0.0
 11
73.823752583515557
 21
68.030231130312472
 31
0.0
  0
CIRCLE
  5
3924
  8
0
 10
71.194759022646963
 20
67.342451276382917
 30
0.0
 40
1.0
  0
ARC
  5
3925
  8
0
 10
71.256170945119834
 20
67.306996993760492
 30
0.0
 40
1.570911426267553
 50
62.587228308858109
 51
237.4127716911444
  0
ARC
  5
3926
  8
0
 10
71.256170945119834
 20
76.277908420028979
 30
0.0
 40
1.570911426267553
 50
122.5872283088556
 51
297.41277169114193
  0
CIRCLE
  5
3927
  8
0
 10
71.194759022646963
 20
76.242454137406554
 30
0.0
 40
1.0
  0
LINE
  5
3928
  8
0
 10
71.97941491270592
 20
74.883390269366316
 30
0.0
 11
73.823752583515784
 21
75.554674283476999
 31
0.0
  0
LINE
  5
3929
  8
0
 10
70.41010478440046
 20
77.601515144423871
 30
0.0
 11
71.387049426480175
 21
78.421269033273575
 31
0.0
  0
ARC
  5
392A
  8
0
 10
64.237133754870058
 20
71.792452706894665
 30
0.0
 40
9.75
 50
42.834156958489331
 51
317.16584304151081
  0
CIRCLE
  5
392B
  8
0
 10
63.487133754871017
 20
71.792452706894665
 30
0.0
 40
11.0
  0
CIRCLE
  5
392C
  8
2
 10
63.487133754871017
 20
71.792452706894665
 30
0.0
 40
11.5
  0
CIRCLE
  5
392D
  8
0
 10
63.487133754871017
 20
71.792452706894665
 30
0.0
 40
16.5
  0
CIRCLE
  5
392E
  8
2
 10
63.487133754871017
 20
71.792452706894665
 30
0.0
 40
15.0
  0
LINE
  5
392F
  8
1
 10
63.487133754871017
 20
93.292452706894665
 30
0.0
 11
63.487133754871017
 21
50.292452706894657
 31
0.0
  0
LINE
  5
3930
  8
1
 10
84.987133754871024
 20
71.792452706894665
 30
0.0
 11
41.987133754871017
 21
71.792452706894665
 31
0.0
  0
TEXT
  5
39E0
  8
0
 62
     3
 10
0.0
 20
0.0
 30
0.0
 40
10.0
  1
RABS1530
  7
STANDARD1
  0
ENDSEC
  0
EOF
