  0
SECTION
  2
HEADER
  9
$ACADVER
  1
AC1009
  9
$INSBASE
 10
0.0
 20
0.0
 30
0.0
  9
$EXTMIN
 10
0.0
 20
-2.960436562073669
 30
0.0
  9
$EXTMAX
 10
152.10198260440799
 20
97.537735407076639
 30
0.0
  9
$LIMMIN
 10
0.0
 20
0.0
  9
$LIMMAX
 10
187.5
 20
135.0
  9
$ORTHOMODE
 70
     1
  9
$REGENMODE
 70
     1
  9
$FILLMODE
 70
     1
  9
$QTEXTMODE
 70
     0
  9
$MIRRTEXT
 70
     0
  9
$DRAGMODE
 70
     2
  9
$LTSCALE
 40
10.0
  9
$OSMODE
 70
    55
  9
$ATTMODE
 70
     1
  9
$TEXTSIZE
 40
2.5
  9
$TRACEWID
 40
0.05
  9
$TEXTSTYLE
  7
STANDARD
  9
$CLAYER
  8
0
  9
$CELTYPE
  6
BYLAYER
  9
$CECOLOR
 62
   256
  9
$DIMSCALE
 40
0.5
  9
$DIMASZ
 40
3.0
  9
$DIMEXO
 40
2.0
  9
$DIMDLI
 40
10.0
  9
$DIMRND
 40
0.0
  9
$DIMDLE
 40
0.0
  9
$DIMEXE
 40
2.0
  9
$DIMTP
 40
0.0
  9
$DIMTM
 40
0.0
  9
$DIMTXT
 40
3.0
  9
$DIMCEN
 40
0.09
  9
$DIMTSZ
 40
0.0
  9
$DIMTOL
 70
     0
  9
$DIMLIM
 70
     0
  9
$DIMTIH
 70
     0
  9
$DIMTOH
 70
     0
  9
$DIMSE1
 70
     0
  9
$DIMSE2
 70
     0
  9
$DIMTAD
 70
     1
  9
$DIMZIN
 70
     0
  9
$DIMBLK
  1

  9
$DIMASO
 70
     0
  9
$DIMSHO
 70
     0
  9
$DIMPOST
  1

  9
$DIMAPOST
  1

  9
$DIMALT
 70
     0
  9
$DIMALTD
 70
     2
  9
$DIMALTF
 40
25.399999999999999
  9
$DIMLFAC
 40
1.0
  9
$DIMTOFL
 70
     1
  9
$DIMTVP
 40
1.6000000000000001
  9
$DIMTIX
 70
     1
  9
$DIMSOXD
 70
     0
  9
$DIMSAH
 70
     0
  9
$DIMBLK1
  1

  9
$DIMBLK2
  1

  9
$DIMSTYLE
  2
STANDARD
  9
$DIMCLRD
 70
     0
  9
$DIMCLRE
 70
     0
  9
$DIMCLRT
 70
     0
  9
$DIMTFAC
 40
1.0
  9
$DIMGAP
 40
0.09
  9
$LUNITS
 70
     2
  9
$LUPREC
 70
     4
  9
$SKETCHINC
 40
0.1
  9
$FILLETRAD
 40
0.0
  9
$AUNITS
 70
     0
  9
$AUPREC
 70
     0
  9
$MENU
  1
E:\r13\win\SUPPORT\ACAD
  9
$ELEVATION
 40
0.0
  9
$PELEVATION
 40
0.0
  9
$THICKNESS
 40
0.0
  9
$LIMCHECK
 70
     0
  9
$BLIPMODE
 70
     0
  9
$CHAMFERA
 40
3.2000000000000002
  9
$CHAMFERB
 40
3.2000000000000002
  9
$SKPOLY
 70
     0
  9
$TDCREATE
 40
2449840.5944097228
  9
$TDUPDATE
 40
2456598.5863039242
  9
$TDINDWG
 40
0.2799516435
  9
$TDUSRTIMER
 40
0.2799516435
  9
$USRTIMER
 70
     1
  9
$ANGBASE
 50
0.0
  9
$ANGDIR
 70
     0
  9
$PDMODE
 70
     0
  9
$PDSIZE
 40
0.0
  9
$PLINEWID
 40
0.0
  9
$COORDS
 70
     1
  9
$SPLFRAME
 70
     0
  9
$SPLINETYPE
 70
     6
  9
$SPLINESEGS
 70
     8
  9
$ATTDIA
 70
     0
  9
$ATTREQ
 70
     1
  9
$HANDLING
 70
     1
  9
$HANDSEED
  5
3B7A
  9
$SURFTAB1
 70
     6
  9
$SURFTAB2
 70
     6
  9
$SURFTYPE
 70
     6
  9
$SURFU
 70
     6
  9
$SURFV
 70
     6
  9
$UCSNAME
  2

  9
$UCSORG
 10
0.0
 20
0.0
 30
0.0
  9
$UCSXDIR
 10
1.0
 20
0.0
 30
0.0
  9
$UCSYDIR
 10
0.0
 20
1.0
 30
0.0
  9
$PUCSNAME
  2

  9
$PUCSORG
 10
0.0
 20
0.0
 30
0.0
  9
$PUCSXDIR
 10
1.0
 20
0.0
 30
0.0
  9
$PUCSYDIR
 10
0.0
 20
1.0
 30
0.0
  9
$USERI1
 70
     0
  9
$USERI2
 70
     1
  9
$USERI3
 70
     1
  9
$USERI4
 70
     0
  9
$USERI5
 70
     0
  9
$USERR1
 40
0.0
  9
$USERR2
 40
0.0
  9
$USERR3
 40
0.0
  9
$USERR4
 40
0.0
  9
$USERR5
 40
0.0
  9
$WORLDVIEW
 70
     1
  9
$SHADEDGE
 70
     3
  9
$SHADEDIF
 70
    70
  9
$TILEMODE
 70
     1
  9
$MAXACTVP
 70
    16
  9
$PLIMCHECK
 70
     0
  9
$PEXTMIN
 10
1.0000000000000000E+020
 20
1.0000000000000000E+020
 30
1.0000000000000000E+020
  9
$PEXTMAX
 10
-1.0000000000000000E+020
 20
-1.0000000000000000E+020
 30
-1.0000000000000000E+020
  9
$PLIMMIN
 10
0.0
 20
0.0
  9
$PLIMMAX
 10
12.0
 20
9.0
  9
$UNITMODE
 70
     0
  9
$VISRETAIN
 70
     0
  9
$PLINEGEN
 70
     0
  9
$PSLTSCALE
 70
     0
  0
ENDSEC
  0
SECTION
  2
TABLES
  0
TABLE
  2
VPORT
 70
     1
  0
VPORT
  2
*ACTIVE
 70
     0
 10
0.0
 20
0.0
 11
1.0
 21
1.0
 12
93.747139195326156
 22
96.983959220318994
 13
0.0
 23
0.0
 14
5.0
 24
5.0
 15
5.0
 25
5.0
 16
0.0
 26
0.0
 36
1.0
 17
0.0
 27
0.0
 37
0.0
 40
201.84293963319561
 41
1.7807262569832401
 42
50.0
 43
0.0
 44
0.0
 50
0.0
 51
0.0
 71
     0
 72
   100
 73
     1
 74
     0
 75
     0
 76
     0
 77
     0
 78
     0
  0
ENDTAB
  0
TABLE
  2
LTYPE
 70
     4
  0
LTYPE
  2
CONTINUOUS
 70
     0
  3
Solid Line
 72
    65
 73
     0
 40
0.0
  0
LTYPE
  2
CENTER
 70
     0
  3
____ _ ____ _ ____ _ ____ _ ____ _ ____ _ ____
 72
    65
 73
     4
 40
2.0
 49
1.25
 49
-0.25
 49
0.25
 49
-0.25
  0
LTYPE
  2
HIDDEN
 70
     0
  3
_ _ _ _ _ _ _ _ _ _ _ _ _ _ _ _ _ _ _ _ _ _ _
 72
    65
 73
     2
 40
0.375
 49
0.25
 49
-0.125
  0
LTYPE
  2
PHANTOM2
 70
     0
  3
___ _ _ ___ _ _ ___ _ _ ___ _ _
 72
    65
 73
     6
 40
1.25
 49
0.625
 49
-0.125
 49
0.125
 49
-0.125
 49
0.125
 49
-0.125
  0
ENDTAB
  0
TABLE
  2
LAYER
 70
     3
  0
LAYER
  2
0
 70
     0
 62
     7
  6
CONTINUOUS
  0
LAYER
  2
1
 70
     0
 62
     1
  6
CENTER
  0
LAYER
  2
2
 70
     0
 62
     2
  6
HIDDEN
  0
ENDTAB
  0
TABLE
  2
STYLE
 70
     2
  0
STYLE
  2
STANDARD
 70
     0
 40
0.0
 41
1.0
 50
0.0
 71
     0
 42
2.5
  3
TXT
  4
BIGFONT
  0
STYLE
  2
STANDARD1
 70
     0
 40
0.0
 41
1.0
 50
0.0
 71
     0
 42
3.0
  3
txt
  4

  0
ENDTAB
  0
TABLE
  2
VIEW
 70
     1
  0
VIEW
  2
ALL
 70
     0
 40
135.0
 10
110.49579799999999
 20
67.5
 41
0.0
 11
0.0
 21
0.0
 31
1.0
 12
0.0
 22
0.0
 32
0.0
 42
0.0
 43
0.0
 44
0.0
 50
0.0
 71
     0
  0
ENDTAB
  0
TABLE
  2
UCS
 70
     0
  0
ENDTAB
  0
TABLE
  2
APPID
 70
     4
  0
APPID
  2
ACAD
 70
     0
  0
APPID
  2
DCO15
 70
     0
  0
APPID
  2
ACAD_MLEADERVER
 70
     0
  0
APPID
  2
ACAD_NAV_VCDISPLAY
 70
     0
  0
ENDTAB
  0
TABLE
  2
DIMSTYLE
 70
     1
  0
DIMSTYLE
  2
STANDARD
 70
     0
  3

  4

  5

  6

  7

 40
1.0
 41
0.18
 42
0.0625
 43
0.38
 44
0.18
 45
0.0
 46
0.0
 47
0.0
 48
0.0
140
0.18
141
0.09
142
0.0
143
25.399999999999999
144
1.0
145
0.0
146
1.0
147
0.09
 71
     0
 72
     0
 73
     1
 74
     1
 75
     0
 76
     0
 77
     0
 78
     0
170
     0
171
     2
172
     0
173
     0
174
     0
175
     0
176
     0
177
     0
178
     0
  0
ENDTAB
  0
ENDSEC
  0
SECTION
  2
BLOCKS
  0
BLOCK
  8
0
  2
$MODEL_SPACE
 70
     0
 10
0.0
 20
0.0
 30
0.0
  3
$MODEL_SPACE
  1

  0
ENDBLK
  5
15D
  8
0
  0
BLOCK
 67
     1
  8
0
  2
$PAPER_SPACE
 70
     0
 10
0.0
 20
0.0
 30
0.0
  3
$PAPER_SPACE
  1

  0
ENDBLK
  5
15B
 67
     1
  8
0
  0
BLOCK
  8
0
  2
STDGX5
 70
     0
 10
0.0
 20
0.0
 30
0.0
  3
STDGX5
  1

  0
ENDBLK
  5
41
  8
0
  0
ENDSEC
  0
SECTION
  2
ENTITIES
  0
INSERT
  5
CA
  8
0
  2
STDGX5
 10
0.0
 20
0.0
 30
0.0
  0
INSERT
  5
69A
  8
0
  2
STDGX5
 10
194.3272563481562
 20
13.52129245667936
 30
0.0
  0
LINE
  5
39D9
  8
2
 10
127.10198260440809
 20
64.537735407076582
 30
0.0
 11
127.10198260440809
 21
87.537735407076696
 31
0.0
  0
LINE
  5
39DA
  8
2
 10
124.10198260440851
 20
87.037735407076582
 30
0.0
 11
124.10198260440851
 21
65.037735407076696
 31
0.0
  0
LINE
  5
39DB
  8
2
 10
126.7519826044081
 20
87.537735407076696
 30
0.0
 11
126.7519826044081
 21
64.537735407076582
 31
0.0
1001
ACAD
1000
ASC_BOUNDS
1002
{
1070
    19
1005
0
1005
0
1002
}
  0
LINE
  5
39DC
  8
2
 10
128.10198260440799
 20
87.537735407076696
 30
0.0
 11
128.10198260440799
 21
64.537735407076582
 31
0.0
1001
ACAD
1000
ASC_BOUNDS
1002
{
1070
    19
1005
0
1005
0
1002
}
  0
LINE
  5
39DD
  8
2
 10
142.10198260440799
 20
86.837735407076764
 30
0.0
 11
142.10198260440799
 21
65.237735407076514
 31
0.0
1001
ACAD
1000
ASC_BOUNDS
1002
{
1070
    19
1005
0
1005
0
1002
}
  0
ARC
  5
39DE
  8
2
 10
135.40198260440769
 20
86.737735407076414
 30
0.0
 40
0.3
 50
90.0
 51
180.0000000000002
  0
ARC
  5
39DF
  8
2
 10
141.8019826044079
 20
86.737735407076414
 30
0.0
 40
0.3
 50
0.0
 51
90.0
  0
ARC
  5
39E0
  8
2
 10
141.9019826044082
 20
86.837735407076764
 30
0.0
 40
0.2
 50
359.99999999999977
 51
90.0
  0
ARC
  5
39E1
  8
2
 10
141.9019826044082
 20
86.837735407076764
 30
0.0
 40
0.2
 50
359.99999999999977
 51
90.0
1001
ACAD
1000
ASC_BOUNDS
1002
{
1070
    19
1005
0
1002
}
  0
LINE
  5
39E2
  8
2
 10
124.10198260440851
 20
87.037735407076582
 30
0.0
 11
123.10198260440841
 21
87.615085676266062
 31
0.0
  0
LINE
  5
39E3
  8
2
 10
128.10198260440799
 20
87.037735407076596
 30
0.0
 11
141.9019826044082
 21
87.037735407076582
 31
0.0
1001
ACAD
1000
ASC_BOUNDS
1002
{
1070
    19
1005
0
1002
}
  0
LINE
  5
39E4
  8
2
 10
126.7519826044081
 20
87.537735407076696
 30
0.0
 11
128.10198260440799
 21
87.537735407076696
 31
0.0
1001
ACAD
1000
ASC_BOUNDS
1002
{
1070
    19
1005
0
1002
}
  0
LINE
  5
39E5
  8
2
 10
124.10198260440851
 20
87.037735407076582
 30
0.0
 11
126.7519826044081
 21
87.037735407076582
 31
0.0
1001
ACAD
1000
ASC_BOUNDS
1002
{
1070
    19
1005
0
1002
}
  0
LINE
  5
39E6
  8
2
 10
142.10198260440799
 20
85.037735407076696
 30
0.0
 11
147.10198260440799
 21
85.037735407076696
 31
0.0
1001
ACAD
1000
ASC_BOUNDS
1002
{
1070
    19
1005
0
1002
}
  0
LINE
  5
39E7
  8
2
 10
142.10198260440799
 20
67.037735407076582
 30
0.0
 11
147.10198260440799
 21
67.037735407076582
 31
0.0
1001
ACAD
1000
ASC_BOUNDS
1002
{
1070
    19
1005
0
1002
}
  0
LINE
  5
39E8
  8
2
 10
127.10198260440809
 20
66.316624359464811
 30
0.0
 11
128.10198260440799
 21
66.316624359464811
 31
0.0
  0
LINE
  5
39E9
  8
2
 10
127.10198260440809
 20
85.758846454688467
 30
0.0
 11
128.10198260440799
 21
85.758846454688467
 31
0.0
  0
LINE
  5
39EA
  8
2
 10
135.40198260440809
 20
72.037735407076582
 30
0.0
 11
141.8019826044079
 21
72.037735407076582
 31
0.0
  0
LINE
  5
39EB
  8
2
 10
135.40198260440809
 20
80.037735407076696
 30
0.0
 11
141.8019826044079
 21
80.037735407076696
 31
0.0
  0
LINE
  5
39EC
  8
2
 10
135.10198260440799
 20
69.637735407076491
 30
0.0
 11
136.9316532955595
 21
69.637735407076491
 31
0.0
  0
LINE
  5
39ED
  8
2
 10
135.10198260440799
 20
67.437735407076786
 30
0.0
 11
136.9316532955603
 21
67.437735407076786
 31
0.0
  0
CIRCLE
  5
39EE
  8
2
 10
138.60198260440811
 20
68.537735407076624
 30
0.0
 40
2.0
  0
LINE
  5
39EF
  8
2
 10
140.27231191325569
 20
67.437735407076786
 30
0.0
 11
142.10198260440799
 21
67.437735407076786
 31
0.0
  0
LINE
  5
39F0
  8
2
 10
140.27231191325649
 20
69.637735407076491
 30
0.0
 11
142.10198260440799
 21
69.637735407076491
 31
0.0
  0
ARC
  5
39F1
  8
2
 10
135.40198260440809
 20
65.337735407076707
 30
0.0
 40
0.3
 50
180.0
 51
270.0
  0
ARC
  5
39F2
  8
2
 10
141.8019826044079
 20
65.337735407076707
 30
0.0
 40
0.3
 50
270.0
 51
0.0
  0
ARC
  5
39F3
  8
2
 10
135.40198260440809
 20
71.737735407076414
 30
0.0
 40
0.3
 50
90.0
 51
180.00000000000011
  0
ARC
  5
39F4
  8
2
 10
141.8019826044079
 20
71.737735407076414
 30
0.0
 40
0.3
 50
0.0
 51
90.0
  0
ARC
  5
39F5
  8
2
 10
141.8019826044079
 20
80.337735407076707
 30
0.0
 40
0.3
 50
270.0
 51
0.0
  0
ARC
  5
39F6
  8
2
 10
135.40198260440809
 20
80.337735407076423
 30
0.0
 40
0.3
 50
180.0
 51
270.0
  0
LINE
  5
39F7
  8
2
 10
140.27231191325649
 20
82.437735407076786
 30
0.0
 11
142.10198260440799
 21
82.437735407076786
 31
0.0
  0
LINE
  5
39F8
  8
2
 10
140.27231191325569
 20
84.637735407076491
 30
0.0
 11
142.10198260440799
 21
84.637735407076491
 31
0.0
  0
CIRCLE
  5
39F9
  8
2
 10
138.60198260440811
 20
83.537735407076624
 30
0.0
 40
2.0
  0
LINE
  5
39FA
  8
2
 10
135.10198260440799
 20
84.637735407076491
 30
0.0
 11
136.9316532955603
 21
84.637735407076491
 31
0.0
  0
LINE
  5
39FB
  8
2
 10
135.10198260440799
 20
82.437735407076786
 30
0.0
 11
136.9316532955595
 21
82.437735407076786
 31
0.0
  0
ARC
  5
39FC
  8
2
 10
141.9019826044082
 20
65.237735407076514
 30
0.0
 40
0.2
 50
270.0
 51
359.99999999999989
1001
ACAD
1000
ASC_BOUNDS
1002
{
1070
    19
1005
0
1002
}
  0
LINE
  5
39FD
  8
2
 10
124.10198260440851
 20
65.037735407076696
 30
0.0
 11
123.10198260440841
 21
64.460385137887073
 31
0.0
1001
ACAD
1000
ASC_BOUNDS
1002
{
1070
    19
1005
0
1002
}
  0
LINE
  5
39FE
  8
2
 10
128.10198260440799
 20
65.037735407076696
 30
0.0
 11
141.9019826044082
 21
65.037735407076696
 31
0.0
1001
ACAD
1000
ASC_BOUNDS
1002
{
1070
    19
1005
0
1002
}
  0
LINE
  5
39FF
  8
2
 10
126.7519826044081
 20
64.537735407076582
 30
0.0
 11
128.10198260440799
 21
64.537735407076582
 31
0.0
1001
ACAD
1000
ASC_BOUNDS
1002
{
1070
    19
1005
0
1005
0
1002
}
  0
LINE
  5
3A00
  8
2
 10
124.10198260440851
 20
65.037735407076696
 30
0.0
 11
126.7519826044081
 21
65.037735407076696
 31
0.0
1001
ACAD
1000
ASC_BOUNDS
1002
{
1070
    19
1005
0
1002
}
  0
LINE
  5
3A01
  8
0
 10
123.10198260440799
 20
59.537735407075793
 30
0.0
 11
124.60198260440809
 21
59.53773540707607
 31
0.0
1001
ACAD
1000
ASC_BOUNDS
1002
{
1070
    19
1005
0
1002
}
  0
LINE
  5
3A02
  8
0
 10
123.10198260440841
 20
92.537735407076639
 30
0.0
 11
124.6019826044076
 21
92.537735407076639
 31
0.0
1001
ACAD
1000
ASC_BOUNDS
1002
{
1070
    19
1005
0
1002
}
  0
LINE
  5
3A03
  8
0
 10
147.10198260440799
 20
59.537735407076639
 30
0.0
 11
147.10198260440799
 21
92.537735407076639
 31
0.0
1001
ACAD
1000
ASC_BOUNDS
1002
{
1070
    19
1005
0
1005
0
1002
}
  0
LINE
  5
3A04
  8
0
 10
123.10198260440799
 20
59.537735407076639
 30
0.0
 11
123.10198260440841
 21
92.537735407076639
 31
0.0
1001
ACAD
1000
ASC_BOUNDS
1002
{
1070
    19
1005
0
1005
0
1005
0
1002
}
  0
LINE
  5
3A05
  8
0
 10
124.60198260440809
 20
61.037735407076148
 30
0.0
 11
145.6019826044076
 21
61.03773540707715
 31
0.0
1001
ACAD
1000
ASC_BOUNDS
1002
{
1070
    19
1005
0
1002
}
  0
LINE
  5
3A06
  8
0
 10
124.6019826044076
 20
91.037735407076696
 30
0.0
 11
145.60198260440791
 21
91.037735407077534
 31
0.0
1001
ACAD
1000
ASC_BOUNDS
1002
{
1070
    19
1005
0
1002
}
  0
LINE
  5
3A07
  8
0
 10
145.60198260440791
 20
59.537735407077072
 30
0.0
 11
145.60198260440791
 21
92.537735407076639
 31
0.0
  0
LINE
  5
3A08
  8
0
 10
124.60198260440809
 20
59.53773540707607
 30
0.0
 11
124.60198260440809
 21
92.537735407076653
 31
0.0
  0
LINE
  5
3A09
  8
0
 10
145.6019826044076
 20
59.537735407077072
 30
0.0
 11
147.10198260440799
 21
59.537735407077072
 31
0.0
1001
ACAD
1000
ASC_BOUNDS
1002
{
1070
    19
1005
0
1002
}
  0
LINE
  5
3A0A
  8
0
 10
145.60198260440791
 20
92.537735407076639
 30
0.0
 11
147.10198260440799
 21
92.537735407077065
 31
0.0
1001
ACAD
1000
ASC_BOUNDS
1002
{
1070
    19
1005
0
1002
}
  0
LINE
  5
3A0B
  8
1
 10
118.10198260440821
 20
76.037735407076624
 30
0.0
 11
152.10198260440799
 21
76.037735407076624
 31
0.0
  0
CIRCLE
  5
3A0C
  8
0
 10
66.601982604408249
 20
76.037735407076624
 30
0.0
 40
4.0
  0
LINE
  5
3A0D
  8
2
 10
77.408447743445834
 20
72.104503758831683
 30
0.0
 11
76.938601433052781
 21
72.275513830494447
 31
0.0
  0
LINE
  5
3A0E
  8
2
 10
76.938601433052995
 20
79.799956983658973
 30
0.0
 11
77.408447743446061
 21
79.970967055321864
 31
0.0
  0
LINE
  5
3A0F
  8
0
 10
73.524953633937685
 20
70.228672969547574
 30
0.0
 11
74.501898276017414
 21
69.408919080697714
 31
0.0
  0
LINE
  5
3A10
  8
0
 10
75.094263762243145
 20
72.946797844604987
 30
0.0
 11
76.938601433052781
 21
72.275513830494447
 31
0.0
  0
CIRCLE
  5
3A11
  8
0
 10
74.309607872184188
 20
71.587733976564891
 30
0.0
 40
1.0
  0
ARC
  5
3A12
  8
0
 10
74.371019794657059
 20
71.552279693942467
 30
0.0
 40
1.570911426267553
 50
62.587228308858109
 51
237.4127716911444
  0
ARC
  5
3A13
  8
0
 10
74.371019794657059
 20
80.523191120210953
 30
0.0
 40
1.570911426267553
 50
122.5872283088556
 51
297.41277169114193
  0
CIRCLE
  5
3A14
  8
0
 10
74.309607872184188
 20
80.487736837588514
 30
0.0
 40
1.0
  0
LINE
  5
3A15
  8
0
 10
75.094263762243145
 20
79.12867296954829
 30
0.0
 11
76.938601433052995
 21
79.799956983658973
 31
0.0
  0
LINE
  5
3A16
  8
0
 10
73.524953633937685
 20
81.846797844605845
 30
0.0
 11
74.501898276017414
 21
82.666551733455535
 31
0.0
  0
ARC
  5
3A17
  8
0
 10
67.351982604407283
 20
76.037735407076624
 30
0.0
 40
9.75
 50
42.834156958489331
 51
317.16584304151081
  0
CIRCLE
  5
3A18
  8
0
 10
66.601982604408249
 20
76.037735407076624
 30
0.0
 40
11.0
  0
CIRCLE
  5
3A19
  8
2
 10
66.601982604408249
 20
76.037735407076624
 30
0.0
 40
11.5
  0
CIRCLE
  5
3A1A
  8
0
 10
66.601982604408249
 20
76.037735407076624
 30
0.0
 40
16.5
  0
CIRCLE
  5
3A1B
  8
2
 10
66.601982604408249
 20
76.037735407076624
 30
0.0
 40
15.0
  0
LINE
  5
3A1C
  8
1
 10
66.601982604408249
 20
97.537735407076639
 30
0.0
 11
66.601982604408249
 21
54.537735407076639
 31
0.0
  0
LINE
  5
3A1D
  8
1
 10
88.101982604408249
 20
76.037735407076624
 30
0.0
 11
45.101982604408249
 21
76.037735407076624
 31
0.0
  0
LINE
  5
3A1E
  8
2
 10
135.10198260440799
 20
86.837735407076764
 30
0.0
 11
135.10198260440799
 21
65.237735407076514
 31
0.0
1001
ACAD
1000
ASC_BOUNDS
1002
{
1070
    19
1002
}
  0
LINE
  5
3A1F
  8
2
 10
133.27231191325569
 20
84.637735407076491
 30
0.0
 11
135.10198260440799
 21
84.637735407076491
 31
0.0
  0
LINE
  5
3A20
  8
2
 10
133.27231191325649
 20
82.437735407076786
 30
0.0
 11
135.10198260440799
 21
82.437735407076786
 31
0.0
  0
ARC
  5
3A21
  8
2
 10
128.40198260440809
 20
71.737735407076414
 30
0.0
 40
0.3
 50
90.0
 51
180.00000000000011
  0
LINE
  5
3A22
  8
2
 10
133.27231191325649
 20
69.637735407076491
 30
0.0
 11
135.10198260440799
 21
69.637735407076491
 31
0.0
  0
LINE
  5
3A23
  8
2
 10
133.27231191325569
 20
67.437735407076786
 30
0.0
 11
135.10198260440799
 21
67.437735407076786
 31
0.0
  0
CIRCLE
  5
3A24
  8
2
 10
131.60198260440799
 20
68.537735407076624
 30
0.0
 40
2.0
  0
LINE
  5
3A25
  8
2
 10
128.10198260440799
 20
67.437735407076786
 30
0.0
 11
129.9316532955603
 21
67.437735407076786
 31
0.0
  0
LINE
  5
3A26
  8
2
 10
128.10198260440799
 20
69.637735407076491
 30
0.0
 11
129.9316532955595
 21
69.637735407076491
 31
0.0
  0
LINE
  5
3A27
  8
2
 10
128.40198260440809
 20
72.037735407076582
 30
0.0
 11
134.8019826044079
 21
72.037735407076582
 31
0.0
  0
LINE
  5
3A28
  8
2
 10
128.10198260440799
 20
82.437735407076786
 30
0.0
 11
129.9316532955595
 21
82.437735407076786
 31
0.0
  0
LINE
  5
3A29
  8
2
 10
128.10198260440799
 20
84.637735407076491
 30
0.0
 11
129.9316532955603
 21
84.637735407076491
 31
0.0
  0
ARC
  5
3A2A
  8
2
 10
128.40198260440809
 20
80.337735407076423
 30
0.0
 40
0.3
 50
180.0
 51
270.0
  0
ARC
  5
3A2B
  8
2
 10
128.40198260440809
 20
65.337735407076707
 30
0.0
 40
0.3
 50
180.0
 51
270.0
  0
CIRCLE
  5
3A2C
  8
2
 10
131.60198260440799
 20
83.537735407076624
 30
0.0
 40
2.0
  0
ARC
  5
3A2D
  8
2
 10
134.8019826044079
 20
80.337735407076707
 30
0.0
 40
0.3
 50
270.0
 51
0.0
  0
LINE
  5
3A2E
  8
2
 10
128.40198260440809
 20
80.037735407076696
 30
0.0
 11
134.8019826044079
 21
80.037735407076696
 31
0.0
  0
ARC
  5
3A2F
  8
2
 10
134.8019826044079
 20
71.737735407076414
 30
0.0
 40
0.3
 50
0.0
 51
90.0
  0
ARC
  5
3A30
  8
2
 10
128.40198260440769
 20
86.737735407076414
 30
0.0
 40
0.3
 50
90.0
 51
180.0000000000002
  0
ARC
  5
3A31
  8
2
 10
134.8019826044079
 20
86.737735407076414
 30
0.0
 40
0.3
 50
0.0
 51
90.0
  0
ARC
  5
3A32
  8
2
 10
134.8019826044079
 20
65.337735407076707
 30
0.0
 40
0.3
 50
270.0
 51
0.0
  0
TEXT
  5
3AE3
  8
0
 62
     3
 10
0.0
 20
0.0
 30
0.0
 40
10.0
  1
RABS2030
  7
STANDARD1
  0
ENDSEC
  0
EOF
