  0
SECTION
  2
HEADER
  9
$ACADVER
  1
AC1009
  9
$INSBASE
 10
0.0
 20
0.0
 30
0.0
  9
$EXTMIN
 10
0.0
 20
-2.960436562073669
 30
0.0
  9
$EXTMAX
 10
196.1227572030202
 20
127.7169809006667
 30
0.0
  9
$LIMMIN
 10
0.0
 20
0.0
  9
$LIMMAX
 10
187.5
 20
135.0
  9
$ORTHOMODE
 70
     0
  9
$REGENMODE
 70
     1
  9
$FILLMODE
 70
     1
  9
$QTEXTMODE
 70
     0
  9
$MIRRTEXT
 70
     0
  9
$DRAGMODE
 70
     2
  9
$LTSCALE
 40
10.0
  9
$OSMODE
 70
    55
  9
$ATTMODE
 70
     1
  9
$TEXTSIZE
 40
2.5
  9
$TRACEWID
 40
0.05
  9
$TEXTSTYLE
  7
STANDARD
  9
$CLAYER
  8
0
  9
$CELTYPE
  6
BYLAYER
  9
$CECOLOR
 62
   256
  9
$DIMSCALE
 40
0.5
  9
$DIMASZ
 40
3.0
  9
$DIMEXO
 40
2.0
  9
$DIMDLI
 40
10.0
  9
$DIMRND
 40
0.0
  9
$DIMDLE
 40
0.0
  9
$DIMEXE
 40
2.0
  9
$DIMTP
 40
0.0
  9
$DIMTM
 40
0.0
  9
$DIMTXT
 40
3.0
  9
$DIMCEN
 40
0.09
  9
$DIMTSZ
 40
0.0
  9
$DIMTOL
 70
     0
  9
$DIMLIM
 70
     0
  9
$DIMTIH
 70
     0
  9
$DIMTOH
 70
     0
  9
$DIMSE1
 70
     0
  9
$DIMSE2
 70
     0
  9
$DIMTAD
 70
     1
  9
$DIMZIN
 70
     0
  9
$DIMBLK
  1

  9
$DIMASO
 70
     0
  9
$DIMSHO
 70
     0
  9
$DIMPOST
  1

  9
$DIMAPOST
  1

  9
$DIMALT
 70
     0
  9
$DIMALTD
 70
     2
  9
$DIMALTF
 40
25.399999999999999
  9
$DIMLFAC
 40
1.0
  9
$DIMTOFL
 70
     1
  9
$DIMTVP
 40
1.6000000000000001
  9
$DIMTIX
 70
     1
  9
$DIMSOXD
 70
     0
  9
$DIMSAH
 70
     0
  9
$DIMBLK1
  1

  9
$DIMBLK2
  1

  9
$DIMSTYLE
  2
STANDARD
  9
$DIMCLRD
 70
     0
  9
$DIMCLRE
 70
     0
  9
$DIMCLRT
 70
     0
  9
$DIMTFAC
 40
1.0
  9
$DIMGAP
 40
0.09
  9
$LUNITS
 70
     2
  9
$LUPREC
 70
     4
  9
$SKETCHINC
 40
0.1
  9
$FILLETRAD
 40
0.0
  9
$AUNITS
 70
     0
  9
$AUPREC
 70
     0
  9
$MENU
  1
E:\r13\win\SUPPORT\ACAD
  9
$ELEVATION
 40
0.0
  9
$PELEVATION
 40
0.0
  9
$THICKNESS
 40
0.0
  9
$LIMCHECK
 70
     0
  9
$BLIPMODE
 70
     0
  9
$CHAMFERA
 40
3.2000000000000002
  9
$CHAMFERB
 40
3.2000000000000002
  9
$SKPOLY
 70
     0
  9
$TDCREATE
 40
2449840.5944097228
  9
$TDUPDATE
 40
2456598.5863674772
  9
$TDINDWG
 40
0.2806498611
  9
$TDUSRTIMER
 40
0.2806498611
  9
$USRTIMER
 70
     1
  9
$ANGBASE
 50
0.0
  9
$ANGDIR
 70
     0
  9
$PDMODE
 70
     0
  9
$PDSIZE
 40
0.0
  9
$PLINEWID
 40
0.0
  9
$COORDS
 70
     1
  9
$SPLFRAME
 70
     0
  9
$SPLINETYPE
 70
     6
  9
$SPLINESEGS
 70
     8
  9
$ATTDIA
 70
     0
  9
$ATTREQ
 70
     1
  9
$HANDLING
 70
     1
  9
$HANDSEED
  5
3C45
  9
$SURFTAB1
 70
     6
  9
$SURFTAB2
 70
     6
  9
$SURFTYPE
 70
     6
  9
$SURFU
 70
     6
  9
$SURFV
 70
     6
  9
$UCSNAME
  2

  9
$UCSORG
 10
0.0
 20
0.0
 30
0.0
  9
$UCSXDIR
 10
1.0
 20
0.0
 30
0.0
  9
$UCSYDIR
 10
0.0
 20
1.0
 30
0.0
  9
$PUCSNAME
  2

  9
$PUCSORG
 10
0.0
 20
0.0
 30
0.0
  9
$PUCSXDIR
 10
1.0
 20
0.0
 30
0.0
  9
$PUCSYDIR
 10
0.0
 20
1.0
 30
0.0
  9
$USERI1
 70
     0
  9
$USERI2
 70
     1
  9
$USERI3
 70
     1
  9
$USERI4
 70
     0
  9
$USERI5
 70
     0
  9
$USERR1
 40
0.0
  9
$USERR2
 40
0.0
  9
$USERR3
 40
0.0
  9
$USERR4
 40
0.0
  9
$USERR5
 40
0.0
  9
$WORLDVIEW
 70
     1
  9
$SHADEDGE
 70
     3
  9
$SHADEDIF
 70
    70
  9
$TILEMODE
 70
     1
  9
$MAXACTVP
 70
    16
  9
$PLIMCHECK
 70
     0
  9
$PEXTMIN
 10
1.0000000000000000E+020
 20
1.0000000000000000E+020
 30
1.0000000000000000E+020
  9
$PEXTMAX
 10
-1.0000000000000000E+020
 20
-1.0000000000000000E+020
 30
-1.0000000000000000E+020
  9
$PLIMMIN
 10
0.0
 20
0.0
  9
$PLIMMAX
 10
12.0
 20
9.0
  9
$UNITMODE
 70
     0
  9
$VISRETAIN
 70
     0
  9
$PLINEGEN
 70
     0
  9
$PSLTSCALE
 70
     0
  0
ENDSEC
  0
SECTION
  2
TABLES
  0
TABLE
  2
VPORT
 70
     1
  0
VPORT
  2
*ACTIVE
 70
     0
 10
0.0
 20
0.0
 11
1.0
 21
1.0
 12
98.061379058143956
 22
96.983959220318994
 13
0.0
 23
0.0
 14
5.0
 24
5.0
 15
5.0
 25
5.0
 16
0.0
 26
0.0
 36
1.0
 17
0.0
 27
0.0
 37
0.0
 40
201.84293963319561
 41
1.7807262569832401
 42
50.0
 43
0.0
 44
0.0
 50
0.0
 51
0.0
 71
     0
 72
   100
 73
     1
 74
     0
 75
     0
 76
     0
 77
     0
 78
     0
  0
ENDTAB
  0
TABLE
  2
LTYPE
 70
     4
  0
LTYPE
  2
CONTINUOUS
 70
     0
  3
Solid Line
 72
    65
 73
     0
 40
0.0
  0
LTYPE
  2
CENTER
 70
     0
  3
____ _ ____ _ ____ _ ____ _ ____ _ ____ _ ____
 72
    65
 73
     4
 40
2.0
 49
1.25
 49
-0.25
 49
0.25
 49
-0.25
  0
LTYPE
  2
HIDDEN
 70
     0
  3
_ _ _ _ _ _ _ _ _ _ _ _ _ _ _ _ _ _ _ _ _ _ _
 72
    65
 73
     2
 40
0.375
 49
0.25
 49
-0.125
  0
LTYPE
  2
PHANTOM2
 70
     0
  3
___ _ _ ___ _ _ ___ _ _ ___ _ _
 72
    65
 73
     6
 40
1.25
 49
0.625
 49
-0.125
 49
0.125
 49
-0.125
 49
0.125
 49
-0.125
  0
ENDTAB
  0
TABLE
  2
LAYER
 70
     3
  0
LAYER
  2
0
 70
     0
 62
     7
  6
CONTINUOUS
  0
LAYER
  2
1
 70
     0
 62
     1
  6
CENTER
  0
LAYER
  2
2
 70
     0
 62
     2
  6
HIDDEN
  0
ENDTAB
  0
TABLE
  2
STYLE
 70
     2
  0
STYLE
  2
STANDARD
 70
     0
 40
0.0
 41
1.0
 50
0.0
 71
     0
 42
2.5
  3
TXT
  4
BIGFONT
  0
STYLE
  2
STANDARD1
 70
     0
 40
0.0
 41
1.0
 50
0.0
 71
     0
 42
3.0
  3
txt
  4

  0
ENDTAB
  0
TABLE
  2
VIEW
 70
     1
  0
VIEW
  2
ALL
 70
     0
 40
135.0
 10
110.49579799999999
 20
67.5
 41
0.0
 11
0.0
 21
0.0
 31
1.0
 12
0.0
 22
0.0
 32
0.0
 42
0.0
 43
0.0
 44
0.0
 50
0.0
 71
     0
  0
ENDTAB
  0
TABLE
  2
UCS
 70
     0
  0
ENDTAB
  0
TABLE
  2
APPID
 70
     4
  0
APPID
  2
ACAD
 70
     0
  0
APPID
  2
DCO15
 70
     0
  0
APPID
  2
ACAD_MLEADERVER
 70
     0
  0
APPID
  2
ACAD_NAV_VCDISPLAY
 70
     0
  0
ENDTAB
  0
TABLE
  2
DIMSTYLE
 70
     1
  0
DIMSTYLE
  2
STANDARD
 70
     0
  3

  4

  5

  6

  7

 40
1.0
 41
0.18
 42
0.0625
 43
0.38
 44
0.18
 45
0.0
 46
0.0
 47
0.0
 48
0.0
140
0.18
141
0.09
142
0.0
143
25.399999999999999
144
1.0
145
0.0
146
1.0
147
0.09
 71
     0
 72
     0
 73
     1
 74
     1
 75
     0
 76
     0
 77
     0
 78
     0
170
     0
171
     2
172
     0
173
     0
174
     0
175
     0
176
     0
177
     0
178
     0
  0
ENDTAB
  0
ENDSEC
  0
SECTION
  2
BLOCKS
  0
BLOCK
  8
0
  2
$MODEL_SPACE
 70
     0
 10
0.0
 20
0.0
 30
0.0
  3
$MODEL_SPACE
  1

  0
ENDBLK
  5
15D
  8
0
  0
BLOCK
 67
     1
  8
0
  2
$PAPER_SPACE
 70
     0
 10
0.0
 20
0.0
 30
0.0
  3
$PAPER_SPACE
  1

  0
ENDBLK
  5
15B
 67
     1
  8
0
  0
BLOCK
  8
0
  2
STDGX5
 70
     0
 10
0.0
 20
0.0
 30
0.0
  3
STDGX5
  1

  0
ENDBLK
  5
41
  8
0
  0
ENDSEC
  0
SECTION
  2
ENTITIES
  0
INSERT
  5
CA
  8
0
  2
STDGX5
 10
0.0
 20
0.0
 30
0.0
  0
INSERT
  5
69A
  8
0
  2
STDGX5
 10
194.3272563481562
 20
13.52129245667936
 30
0.0
  0
LINE
  5
3AA1
  8
0
 10
191.12275720302031
 20
66.71698090066657
 30
0.0
 11
189.12275720302
 21
66.71698090066657
 31
0.0
1001
ACAD
1000
ASC_BOUNDS
1002
{
1070
    19
1005
0
1002
}
  0
LINE
  5
3AA2
  8
0
 10
166.1227572030202
 20
66.716980900666996
 30
0.0
 11
166.1227572030202
 21
122.7169809006665
 31
0.0
1001
ACAD
1000
ASC_BOUNDS
1002
{
1070
    19
1005
0
1005
0
1005
0
1005
0
1002
}
  0
LINE
  5
3AA3
  8
0
 10
191.12275720302031
 20
66.71698090066657
 30
0.0
 11
191.12275720302031
 21
122.7169809006665
 31
0.0
1001
ACAD
1000
ASC_BOUNDS
1002
{
1070
    19
1005
0
1005
0
1002
}
  0
LINE
  5
3AA4
  8
0
 10
191.12275720302031
 20
122.7169809006665
 30
0.0
 11
189.12275720301949
 21
122.7169809006665
 31
0.0
1001
ACAD
1000
ASC_BOUNDS
1002
{
1070
    19
1005
0
1002
}
  0
LINE
  5
3AA5
  8
0
 10
189.12275720302
 20
66.71698090066657
 30
0.0
 11
189.12275720302
 21
122.7169809006665
 31
0.0
1001
ACAD
1000
ASC_BOUNDS
1002
{
1070
    19
1005
0
1002
}
  0
LINE
  5
3AA6
  8
0
 10
168.1227572030208
 20
66.71698090066657
 30
0.0
 11
168.12275720300849
 21
122.7169809006665
 31
0.0
1001
ACAD
1000
ASC_BOUNDS
1002
{
1070
    19
1005
0
1002
}
  0
LINE
  5
3AA7
  8
0
 10
188.72275720301991
 20
69.716980900666584
 30
0.0
 11
168.52275720302029
 21
69.716980900666584
 31
0.0
1001
ACAD
1000
ASC_BOUNDS
1002
{
1070
    19
1005
0
1002
}
  0
LINE
  5
3AA8
  8
0
 10
188.7227572030196
 20
119.7169809006665
 30
0.0
 11
168.52275720302029
 21
119.7169809006665
 31
0.0
1001
ACAD
1000
ASC_BOUNDS
1002
{
1070
    19
1005
0
1002
}
  0
LINE
  5
3AA9
  8
0
 10
168.1227572030208
 20
122.7169809006665
 30
0.0
 11
166.1227572030202
 21
122.7169809006665
 31
0.0
1001
ACAD
1000
ASC_BOUNDS
1002
{
1070
    19
1005
0
1002
}
  0
LINE
  5
3AAA
  8
0
 10
168.1227572030208
 20
66.71698090066657
 30
0.0
 11
166.1227572030202
 21
66.71698090066657
 31
0.0
1001
ACAD
1000
ASC_BOUNDS
1002
{
1070
    19
1005
0
1002
}
  0
LINE
  5
3AAB
  8
1
 10
161.1227572030202
 20
94.716980900666726
 30
0.0
 11
196.1227572030202
 21
94.716980900666726
 31
0.0
  0
LINE
  5
3AAC
  8
2
 10
167.1227572030204
 20
81.716980900666755
 30
0.0
 11
169.27275720302009
 21
81.716980900666755
 31
0.0
1001
ACAD
1000
ASC_BOUNDS
1002
{
1070
    19
1005
0
1002
}
  0
LINE
  5
3AAD
  8
2
 10
170.62275720302
 20
81.116980900666718
 30
0.0
 11
169.27275720302009
 21
81.116980900666718
 31
0.0
1001
ACAD
1000
ASC_BOUNDS
1002
{
1070
    19
1005
0
1005
0
1002
}
  0
LINE
  5
3AAE
  8
2
 10
170.62275720302
 20
81.716980900666755
 30
0.0
 11
186.42275720302001
 21
81.716980900666755
 31
0.0
1001
ACAD
1000
ASC_BOUNDS
1002
{
1070
    19
1005
0
1002
}
  0
LINE
  5
3AAF
  8
2
 10
167.1227572030204
 20
81.716980900666755
 30
0.0
 11
166.1227572030202
 21
81.139630631477118
 31
0.0
1001
ACAD
1000
ASC_BOUNDS
1002
{
1070
    19
1005
0
1002
}
  0
LINE
  5
3AB0
  8
2
 10
167.1227572030204
 20
81.716980900666755
 30
0.0
 11
167.1227572030204
 21
107.7169809006667
 31
0.0
  0
LINE
  5
3AB1
  8
2
 10
191.12275720302031
 20
83.716980900666769
 30
0.0
 11
186.62275720302009
 21
83.716980900666769
 31
0.0
1001
ACAD
1000
ASC_BOUNDS
1002
{
1070
    19
1005
0
1002
}
  0
LINE
  5
3AB2
  8
2
 10
191.12275720302031
 20
105.7169809006666
 30
0.0
 11
186.62275720302009
 21
105.7169809006666
 31
0.0
1001
ACAD
1000
ASC_BOUNDS
1002
{
1070
    19
1005
0
1002
}
  0
LINE
  5
3AB3
  8
2
 10
167.1227572030204
 20
107.7169809006667
 30
0.0
 11
166.1227572030202
 21
108.0943311698562
 31
0.0
1001
ACAD
1000
ASC_BOUNDS
1002
{
1070
    19
1005
0
1002
}
  0
LINE
  5
3AB4
  8
2
 10
170.62275720302
 20
107.7169809006667
 30
0.0
 11
186.42275720302001
 21
107.7169809006667
 31
0.0
1001
ACAD
1000
ASC_BOUNDS
1002
{
1070
    19
1005
0
1002
}
  0
LINE
  5
3AB5
  8
2
 10
170.62275720302
 20
108.31698090066671
 30
0.0
 11
169.27275720302009
 21
108.31698090066671
 31
0.0
1001
ACAD
1000
ASC_BOUNDS
1002
{
1070
    19
1005
0
1005
0
1002
}
  0
LINE
  5
3AB6
  8
2
 10
167.1227572030204
 20
107.7169809006667
 30
0.0
 11
169.27275720302009
 21
107.7169809006667
 31
0.0
1001
ACAD
1000
ASC_BOUNDS
1002
{
1070
    19
1005
0
1002
}
  0
ARC
  5
3AB7
  8
2
 10
186.42275720302001
 20
107.5169809006667
 30
0.0
 40
0.2
 50
360.0
 51
90.0
1001
ACAD
1000
ASC_BOUNDS
1002
{
1070
    19
1005
0
1002
}
  0
ARC
  5
3AB8
  8
2
 10
186.42275720302001
 20
81.916980900666715
 30
0.0
 40
0.2
 50
270.0
 51
360.0
1001
ACAD
1000
ASC_BOUNDS
1002
{
1070
    19
1005
0
1002
}
  0
LINE
  5
3AB9
  8
2
 10
169.42275720302001
 20
83.345085720003226
 30
0.0
 11
170.62275720302
 21
83.345085720003226
 31
0.0
  0
LINE
  5
3ABA
  8
2
 10
169.42275720302001
 20
106.0888760813302
 30
0.0
 11
170.62275720302
 21
106.0888760813302
 31
0.0
  0
ARC
  5
3ABB
  8
2
 10
186.3227572030201
 20
82.016980900666766
 30
0.0
 40
0.3
 50
270.0
 51
0.0
  0
ARC
  5
3ABC
  8
2
 10
170.9227572030201
 20
82.016980900666766
 30
0.0
 40
0.3
 50
180.0
 51
270.0
  0
LINE
  5
3ABD
  8
2
 10
170.62275720302
 20
86.716980900666755
 30
0.0
 11
172.8907063954511
 21
86.716980900666755
 31
0.0
  0
LINE
  5
3ABE
  8
2
 10
170.62275720302
 20
84.716980900666726
 30
0.0
 11
172.8907063954511
 21
84.716980900666726
 31
0.0
  0
CIRCLE
  5
3ABF
  8
2
 10
182.62275720302009
 20
85.716980900666655
 30
0.0
 40
2.0
  0
LINE
  5
3AC0
  8
2
 10
184.3548080105891
 20
84.716980900666726
 30
0.0
 11
186.62275720302009
 21
84.716980900666726
 31
0.0
  0
LINE
  5
3AC1
  8
2
 10
184.3548080105891
 20
86.716980900666755
 30
0.0
 11
186.62275720302009
 21
86.716980900666755
 31
0.0
  0
LINE
  5
3AC2
  8
2
 10
170.9227572030201
 20
89.716980900666726
 30
0.0
 11
178.3227572030201
 21
89.716980900666726
 31
0.0
  0
ARC
  5
3AC3
  8
2
 10
170.9227572030201
 20
89.416980900666715
 30
0.0
 40
0.3
 50
90.0
 51
180.0
  0
ARC
  5
3AC4
  8
2
 10
186.3227572030201
 20
89.416980900666715
 30
0.0
 40
0.3
 50
0.0
 51
90.0
  0
ARC
  5
3AC5
  8
2
 10
186.3227572030201
 20
100.0169809006667
 30
0.0
 40
0.3
 50
270.0
 51
0.0
  0
ARC
  5
3AC6
  8
2
 10
170.9227572030201
 20
100.0169809006667
 30
0.0
 40
0.3
 50
180.0
 51
270.0
  0
ARC
  5
3AC7
  8
2
 10
186.3227572030201
 20
107.4169809006666
 30
0.0
 40
0.3
 50
0.0
 51
90.0
1001
ACAD
1000
ASC_BOUNDS
1002
{
1070
    19
1005
0
1002
}
  0
ARC
  5
3AC8
  8
2
 10
170.9227572030201
 20
107.4169809006666
 30
0.0
 40
0.3
 50
90.0
 51
180.0
  0
LINE
  5
3AC9
  8
2
 10
184.3548080105891
 20
102.7169809006666
 30
0.0
 11
186.62275720302009
 21
102.7169809006666
 31
0.0
  0
LINE
  5
3ACA
  8
2
 10
184.3548080105891
 20
104.7169809006667
 30
0.0
 11
186.62275720302009
 21
104.7169809006667
 31
0.0
  0
CIRCLE
  5
3ACB
  8
2
 10
182.62275720302009
 20
103.7169809006667
 30
0.0
 40
2.0
  0
LINE
  5
3ACC
  8
2
 10
170.62275720302
 20
104.7169809006667
 30
0.0
 11
172.8907063954511
 21
104.7169809006667
 31
0.0
  0
LINE
  5
3ACD
  8
2
 10
170.62275720302
 20
102.7169809006666
 30
0.0
 11
172.8907063954511
 21
102.7169809006666
 31
0.0
  0
LINE
  5
3ACE
  8
2
 10
170.9227572030201
 20
99.716980900666726
 30
0.0
 11
178.3227572030201
 21
99.716980900666726
 31
0.0
  0
ARC
  5
3ACF
  8
0
 10
168.52275720302029
 20
69.316980900666664
 30
0.0
 40
0.4000000000000001
 50
90.0
 51
180.0000000000035
1001
ACAD
1000
ASC_BOUNDS
1002
{
1070
    19
1005
0
1002
}
  0
ARC
  5
3AD0
  8
0
 10
188.72275720301991
 20
69.316980900666664
 30
0.0
 40
0.4000000000000001
 50
0.0
 51
90.0
1001
ACAD
1000
ASC_BOUNDS
1002
{
1070
    19
1005
0
1002
}
  0
ARC
  5
3AD1
  8
0
 10
168.52275720302029
 20
120.11698090066641
 30
0.0
 40
0.4000000000000001
 50
179.99999999999639
 51
270.0
1001
ACAD
1000
ASC_BOUNDS
1002
{
1070
    19
1005
0
1002
}
  0
ARC
  5
3AD2
  8
0
 10
188.7227572030196
 20
120.11698090066641
 30
0.0
 40
0.4000000000000001
 50
270.0
 51
0.0
1001
ACAD
1000
ASC_BOUNDS
1002
{
1070
    19
1005
0
1002
}
  0
LINE
  5
3AD3
  8
2
 10
169.27275720302009
 20
108.31698090066659
 30
0.0
 11
169.27275720302009
 21
81.116980900666718
 31
0.0
1001
ACAD
1000
ASC_BOUNDS
1002
{
1070
    19
1005
0
1005
0
1002
}
  0
LINE
  5
3AD4
  8
2
 10
169.42275720302001
 20
108.31698090066659
 30
0.0
 11
169.42275720302001
 21
81.116980900666718
 31
0.0
  0
LINE
  5
3AD5
  8
2
 10
170.62275720302
 20
108.31698090066671
 30
0.0
 11
170.62275720302
 21
81.116980900666718
 31
0.0
1001
ACAD
1000
ASC_BOUNDS
1002
{
1070
    19
1005
0
1005
0
1002
}
  0
LINE
  5
3AD6
  8
2
 10
186.62275720302009
 20
107.4169809006666
 30
0.0
 11
186.62275720302009
 21
81.916980900666715
 31
0.0
1001
ACAD
1000
ASC_BOUNDS
1002
{
1070
    19
1005
0
1005
0
1002
}
  0
LINE
  5
3AD7
  8
2
 10
100.6797929447772
 20
98.081628486999577
 30
0.0
 11
101.2593484405507
 21
98.236919914061147
 31
0.0
  0
LINE
  5
3AD8
  8
2
 10
100.6797929447772
 20
91.352333314334018
 30
0.0
 11
101.2593484405506
 21
91.197041887272604
 31
0.0
  0
CIRCLE
  5
3AD9
  8
0
 10
88.122757203019304
 20
94.716980900666726
 30
0.0
 40
13.0
  0
LINE
  5
3ADA
  8
0
 10
97.022897202001957
 20
88.485035782257356
 30
0.0
 11
97.990330789385894
 21
87.807631491653865
 31
0.0
  0
LINE
  5
3ADB
  8
0
 10
98.61760384662098
 20
91.904895217825285
 30
0.0
 11
100.6797929447772
 21
91.352333314334018
 31
0.0
  0
CIRCLE
  5
3ADC
  8
0
 10
97.820250524311405
 20
90.194965500041249
 30
0.0
 40
1.25
  0
ARC
  5
3ADD
  8
0
 10
97.998748365523738
 20
90.111730589719954
 30
0.0
 40
1.8969505765761081
 50
70.959464385027275
 51
239.04053561497159
  0
ARC
  5
3ADE
  8
0
 10
97.998748365523738
 20
99.322231211613641
 30
0.0
 40
1.8969505765761081
 50
120.9594643850284
 51
289.04053561497278
  0
CIRCLE
  5
3ADF
  8
0
 10
97.820250524311405
 20
99.238996301292346
 30
0.0
 40
1.25
  0
LINE
  5
3AE0
  8
0
 10
98.61760384662098
 20
97.52906658350831
 30
0.0
 11
100.6797929447772
 21
98.081628486999577
 31
0.0
  0
LINE
  5
3AE1
  8
0
 10
97.022897202001957
 20
100.9489260190762
 30
0.0
 11
97.990330789385894
 21
101.6263303096797
 31
0.0
  0
ARC
  5
3AE2
  8
0
 10
88.922757203019273
 20
94.716980900666726
 30
0.0
 40
11.4
 50
37.306834345821578
 51
322.6931656541787
  0
CIRCLE
  5
3AE3
  8
2
 10
88.122757203019304
 20
94.716980900666726
 30
0.0
 40
13.6
  0
CIRCLE
  5
3AE4
  8
0
 10
88.122757203020228
 20
94.716980900666726
 30
0.0
 40
5.0
  0
CIRCLE
  5
3AE5
  8
0
 10
88.122757203020228
 20
94.716980900666726
 30
0.0
 40
28.0
  0
CIRCLE
  5
3AE6
  8
2
 10
88.122757203020228
 20
94.716980900666726
 30
0.0
 40
25.0
  0
LINE
  5
3AE7
  8
1
 10
88.122757203020228
 20
127.7169809006667
 30
0.0
 11
88.122757203020228
 21
61.716980900666726
 31
0.0
  0
LINE
  5
3AE8
  8
1
 10
121.1227572030202
 20
94.716980900666726
 30
0.0
 11
55.122757203020228
 21
94.716980900666726
 31
0.0
  0
LINE
  5
3AE9
  8
2
 10
178.62275720302009
 20
107.4169809006666
 30
0.0
 11
178.62275720302009
 21
81.916980900666715
 31
0.0
1001
ACAD
1000
ASC_BOUNDS
1002
{
1070
    19
1002
}
  0
CIRCLE
  5
3AEA
  8
2
 10
174.62275720302009
 20
103.7169809006667
 30
0.0
 40
2.0
  0
LINE
  5
3AEB
  8
2
 10
176.3548080105891
 20
104.7169809006667
 30
0.0
 11
178.62275720302009
 21
104.7169809006667
 31
0.0
  0
LINE
  5
3AEC
  8
2
 10
176.3548080105891
 20
102.7169809006666
 30
0.0
 11
178.62275720302009
 21
102.7169809006666
 31
0.0
  0
ARC
  5
3AED
  8
2
 10
178.3227572030201
 20
107.4169809006666
 30
0.0
 40
0.3
 50
0.0
 51
90.0
  0
ARC
  5
3AEE
  8
2
 10
178.3227572030201
 20
100.0169809006667
 30
0.0
 40
0.3
 50
270.0
 51
0.0
  0
ARC
  5
3AEF
  8
2
 10
178.3227572030201
 20
89.416980900666715
 30
0.0
 40
0.3
 50
0.0
 51
90.0
  0
LINE
  5
3AF0
  8
2
 10
176.3548080105891
 20
86.716980900666755
 30
0.0
 11
178.62275720302009
 21
86.716980900666755
 31
0.0
  0
LINE
  5
3AF1
  8
2
 10
176.3548080105891
 20
84.716980900666726
 30
0.0
 11
178.62275720302009
 21
84.716980900666726
 31
0.0
  0
CIRCLE
  5
3AF2
  8
2
 10
174.62275720302009
 20
85.716980900666655
 30
0.0
 40
2.0
  0
ARC
  5
3AF3
  8
2
 10
178.3227572030201
 20
82.016980900666766
 30
0.0
 40
0.3
 50
270.0
 51
0.0
  0
LINE
  5
3AF4
  8
2
 10
178.62275720302
 20
84.716980900666726
 30
0.0
 11
180.8907063954511
 21
84.716980900666726
 31
0.0
  0
LINE
  5
3AF5
  8
2
 10
178.62275720302
 20
86.716980900666755
 30
0.0
 11
180.8907063954511
 21
86.716980900666755
 31
0.0
  0
LINE
  5
3AF6
  8
2
 10
178.62275720302
 20
102.7169809006666
 30
0.0
 11
180.8907063954511
 21
102.7169809006666
 31
0.0
  0
LINE
  5
3AF7
  8
2
 10
178.62275720302
 20
104.7169809006667
 30
0.0
 11
180.8907063954511
 21
104.7169809006667
 31
0.0
  0
ARC
  5
3AF8
  8
2
 10
178.92275720302001
 20
107.4169809006666
 30
0.0
 40
0.3
 50
90.0
 51
180.0
  0
ARC
  5
3AF9
  8
2
 10
178.92275720302001
 20
100.0169809006667
 30
0.0
 40
0.3
 50
180.0
 51
270.0
  0
ARC
  5
3AFA
  8
2
 10
178.92275720302001
 20
89.416980900666715
 30
0.0
 40
0.3
 50
90.0
 51
180.0
  0
ARC
  5
3AFB
  8
2
 10
178.92275720302001
 20
82.016980900666766
 30
0.0
 40
0.3
 50
180.0
 51
270.0
  0
LINE
  5
3AFC
  8
2
 10
178.92275720302001
 20
89.716980900666726
 30
0.0
 11
186.3227572030201
 21
89.716980900666726
 31
0.0
  0
LINE
  5
3AFD
  8
2
 10
178.92275720302001
 20
99.716980900666726
 30
0.0
 11
186.3227572030201
 21
99.716980900666726
 31
0.0
  0
TEXT
  5
3BAE
  8
0
 62
     3
 10
0.0
 20
0.0
 30
0.0
 40
10.0
  1
RABS2050
  7
STANDARD1
  0
ENDSEC
  0
EOF
