  0
SECTION
  2
HEADER
  9
$ACADVER
  1
AC1009
  9
$INSBASE
 10
0.0
 20
0.0
 30
0.0
  9
$EXTMIN
 10
0.0
 20
-1.4802182810368341
 30
0.0
  9
$EXTMAX
 10
84.900115191315081
 20
52.0
 30
0.0
  9
$LIMMIN
 10
0.0
 20
0.0
  9
$LIMMAX
 10
187.5
 20
135.0
  9
$ORTHOMODE
 70
     1
  9
$REGENMODE
 70
     1
  9
$FILLMODE
 70
     1
  9
$QTEXTMODE
 70
     0
  9
$MIRRTEXT
 70
     0
  9
$DRAGMODE
 70
     2
  9
$LTSCALE
 40
2.0
  9
$OSMODE
 70
    37
  9
$ATTMODE
 70
     1
  9
$TEXTSIZE
 40
4.0
  9
$TRACEWID
 40
0.05
  9
$TEXTSTYLE
  7
STANDARD
  9
$CLAYER
  8
0
  9
$CELTYPE
  6
BYLAYER
  9
$CECOLOR
 62
   256
  9
$DIMSCALE
 40
0.5
  9
$DIMASZ
 40
3.0
  9
$DIMEXO
 40
2.0
  9
$DIMDLI
 40
0.38
  9
$DIMRND
 40
0.0
  9
$DIMDLE
 40
0.0
  9
$DIMEXE
 40
2.0
  9
$DIMTP
 40
0.0
  9
$DIMTM
 40
0.0
  9
$DIMTXT
 40
3.0
  9
$DIMCEN
 40
0.0
  9
$DIMTSZ
 40
0.0
  9
$DIMTOL
 70
     0
  9
$DIMLIM
 70
     0
  9
$DIMTIH
 70
     0
  9
$DIMTOH
 70
     0
  9
$DIMSE1
 70
     0
  9
$DIMSE2
 70
     0
  9
$DIMTAD
 70
     1
  9
$DIMZIN
 70
     0
  9
$DIMBLK
  1

  9
$DIMASO
 70
     0
  9
$DIMSHO
 70
     0
  9
$DIMPOST
  1

  9
$DIMAPOST
  1

  9
$DIMALT
 70
     0
  9
$DIMALTD
 70
     2
  9
$DIMALTF
 40
25.399999999999999
  9
$DIMLFAC
 40
1.0
  9
$DIMTOFL
 70
     0
  9
$DIMTVP
 40
1.6000000000000001
  9
$DIMTIX
 70
     1
  9
$DIMSOXD
 70
     0
  9
$DIMSAH
 70
     0
  9
$DIMBLK1
  1

  9
$DIMBLK2
  1

  9
$DIMSTYLE
  2
STANDARD
  9
$DIMCLRD
 70
     0
  9
$DIMCLRE
 70
     0
  9
$DIMCLRT
 70
     0
  9
$DIMTFAC
 40
1.0
  9
$DIMGAP
 40
0.09
  9
$LUNITS
 70
     2
  9
$LUPREC
 70
     4
  9
$SKETCHINC
 40
0.1
  9
$FILLETRAD
 40
1.0
  9
$AUNITS
 70
     0
  9
$AUPREC
 70
     0
  9
$MENU
  1
E:\r13\win\SUPPORT\ACAD
  9
$ELEVATION
 40
0.0
  9
$PELEVATION
 40
0.0
  9
$THICKNESS
 40
0.0
  9
$LIMCHECK
 70
     0
  9
$BLIPMODE
 70
     0
  9
$CHAMFERA
 40
0.0
  9
$CHAMFERB
 40
0.0
  9
$SKPOLY
 70
     0
  9
$TDCREATE
 40
2449840.6143865739
  9
$TDUPDATE
 40
2456793.365558438
  9
$TDINDWG
 40
0.3256141204
  9
$TDUSRTIMER
 40
0.3256141204
  9
$USRTIMER
 70
     1
  9
$ANGBASE
 50
0.0
  9
$ANGDIR
 70
     0
  9
$PDMODE
 70
     0
  9
$PDSIZE
 40
0.0
  9
$PLINEWID
 40
0.0
  9
$COORDS
 70
     1
  9
$SPLFRAME
 70
     0
  9
$SPLINETYPE
 70
     6
  9
$SPLINESEGS
 70
     8
  9
$ATTDIA
 70
     0
  9
$ATTREQ
 70
     1
  9
$HANDLING
 70
     1
  9
$HANDSEED
  5
1EC8
  9
$SURFTAB1
 70
     6
  9
$SURFTAB2
 70
     6
  9
$SURFTYPE
 70
     6
  9
$SURFU
 70
     6
  9
$SURFV
 70
     6
  9
$UCSNAME
  2

  9
$UCSORG
 10
0.0
 20
0.0
 30
0.0
  9
$UCSXDIR
 10
1.0
 20
0.0
 30
0.0
  9
$UCSYDIR
 10
0.0
 20
1.0
 30
0.0
  9
$PUCSNAME
  2

  9
$PUCSORG
 10
0.0
 20
0.0
 30
0.0
  9
$PUCSXDIR
 10
1.0
 20
0.0
 30
0.0
  9
$PUCSYDIR
 10
0.0
 20
1.0
 30
0.0
  9
$USERI1
 70
     0
  9
$USERI2
 70
     1
  9
$USERI3
 70
     1
  9
$USERI4
 70
     0
  9
$USERI5
 70
     0
  9
$USERR1
 40
0.0
  9
$USERR2
 40
0.0
  9
$USERR3
 40
0.0
  9
$USERR4
 40
0.0
  9
$USERR5
 40
0.0
  9
$WORLDVIEW
 70
     1
  9
$SHADEDGE
 70
     3
  9
$SHADEDIF
 70
    70
  9
$TILEMODE
 70
     1
  9
$MAXACTVP
 70
    16
  9
$PLIMCHECK
 70
     0
  9
$PEXTMIN
 10
1.0000000000000000E+020
 20
1.0000000000000000E+020
 30
1.0000000000000000E+020
  9
$PEXTMAX
 10
-1.0000000000000000E+020
 20
-1.0000000000000000E+020
 30
-1.0000000000000000E+020
  9
$PLIMMIN
 10
0.0
 20
0.0
  9
$PLIMMAX
 10
12.0
 20
9.0
  9
$UNITMODE
 70
     0
  9
$VISRETAIN
 70
     0
  9
$PLINEGEN
 70
     0
  9
$PSLTSCALE
 70
     0
  0
ENDSEC
  0
SECTION
  2
TABLES
  0
TABLE
  2
VPORT
 70
     1
  0
VPORT
  2
*ACTIVE
 70
     0
 10
0.0
 20
0.0
 11
1.0
 21
1.0
 12
78.546592489568852
 22
45.0
 13
0.0
 23
0.0
 14
5.0
 24
5.0
 15
5.0
 25
5.0
 16
0.0
 26
0.0
 36
1.0
 17
0.0
 27
0.0
 37
0.0
 40
90.0
 41
1.7454798331015291
 42
50.0
 43
0.0
 44
0.0
 50
0.0
 51
0.0
 71
     0
 72
   100
 73
     1
 74
     0
 75
     0
 76
     0
 77
     0
 78
     0
  0
ENDTAB
  0
TABLE
  2
LTYPE
 70
     4
  0
LTYPE
  2
CONTINUOUS
 70
     0
  3
Solid Line
 72
    65
 73
     0
 40
0.0
  0
LTYPE
  2
CENTER
 70
     0
  3
____ _ ____ _ ____ _ ____ _ ____ _ ____ _ ____
 72
    65
 73
     4
 40
2.0
 49
1.25
 49
-0.25
 49
0.25
 49
-0.25
  0
LTYPE
  2
HIDDEN
 70
     0
  3
_ _ _ _ _ _ _ _ _ _ _ _ _ _ _ _ _ _ _ _ _ _ _
 72
    65
 73
     2
 40
0.375
 49
0.25
 49
-0.125
  0
LTYPE
  2
PHANTOM2
 70
     0
  3
___ _ _ ___ _ _ ___ _ _ ___ _ _
 72
    65
 73
     6
 40
1.25
 49
0.625
 49
-0.125
 49
0.125
 49
-0.125
 49
0.125
 49
-0.125
  0
ENDTAB
  0
TABLE
  2
LAYER
 70
     4
  0
LAYER
  2
0
 70
     0
 62
     7
  6
CONTINUOUS
  0
LAYER
  2
1
 70
     0
 62
     1
  6
CENTER
  0
LAYER
  2
3
 70
     0
 62
     3
  6
CONTINUOUS
  0
LAYER
  2
2
 70
     0
 62
     2
  6
HIDDEN
  0
ENDTAB
  0
TABLE
  2
STYLE
 70
     2
  0
STYLE
  2
STANDARD
 70
     0
 40
0.0
 41
1.0
 50
0.0
 71
     0
 42
4.0
  3
TXT
  4
BIGFONT
  0
STYLE
  2
STANDARD1
 70
     0
 40
0.0
 41
1.0
 50
0.0
 71
     0
 42
3.0
  3
txt
  4

  0
ENDTAB
  0
TABLE
  2
VIEW
 70
     1
  0
VIEW
  2
ALL
 70
     0
 40
179.66152299999999
 10
141.903918
 20
89.830760999999995
 41
0.0
 11
0.0
 21
0.0
 31
1.0
 12
0.0
 22
0.0
 32
0.0
 42
0.0
 43
0.0
 44
0.0
 50
0.0
 71
     0
  0
ENDTAB
  0
TABLE
  2
UCS
 70
     0
  0
ENDTAB
  0
TABLE
  2
APPID
 70
     5
  0
APPID
  2
ACAD
 70
     0
  0
APPID
  2
DCO15
 70
     0
  0
APPID
  2
ACAD_MLEADERVER
 70
     0
  0
APPID
  2
ACAD_NAV_VCDISPLAY
 70
     0
  0
APPID
  2
ACAD_EXEMPT_FROM_CAD_STANDARDS
 70
     0
  0
ENDTAB
  0
TABLE
  2
DIMSTYLE
 70
     1
  0
DIMSTYLE
  2
STANDARD
 70
     0
  3

  4

  5

  6

  7

 40
1.0
 41
0.18
 42
0.0625
 43
0.38
 44
0.18
 45
0.0
 46
0.0
 47
0.0
 48
0.0
140
0.18
141
0.09
142
0.0
143
25.399999999999999
144
1.0
145
0.0
146
1.0
147
0.09
 71
     0
 72
     0
 73
     1
 74
     1
 75
     0
 76
     0
 77
     0
 78
     0
170
     0
171
     2
172
     0
173
     0
174
     0
175
     0
176
     0
177
     0
178
     0
  0
ENDTAB
  0
ENDSEC
  0
SECTION
  2
BLOCKS
  0
BLOCK
  8
0
  2
$MODEL_SPACE
 70
     0
 10
0.0
 20
0.0
 30
0.0
  3
$MODEL_SPACE
  1

  0
ENDBLK
  5
1BD
  8
0
  0
BLOCK
 67
     1
  8
0
  2
$PAPER_SPACE
 70
     0
 10
0.0
 20
0.0
 30
0.0
  3
$PAPER_SPACE
  1

  0
ENDBLK
  5
1BB
 67
     1
  8
0
  0
ENDSEC
  0
SECTION
  2
ENTITIES
  0
TEXT
  5
146A
  8
0
 62
     3
 10
0.0
 20
0.0
 30
0.0
 40
5.0
  1
RCS10X23
  7
STANDARD1
  0
LINE
  5
1B79
  8
1
 10
70.900115191315081
 20
45.0
 30
0.0
 11
84.900115191315081
 21
45.0
 31
0.0
  0
LINE
  5
1B7A
  8
1
 10
77.900115191315081
 20
38.0
 30
0.0
 11
77.900115191315081
 21
52.0
 31
0.0
  0
CIRCLE
  5
1B7B
  8
0
 10
77.900115191315081
 20
45.0
 30
0.0
 40
5.0
  0
CIRCLE
  5
1B7C
  8
0
 10
77.900115191315081
 20
45.0
 30
0.0
 40
4.0499999999999989
  0
CIRCLE
  5
1B7D
  8
0
 10
77.900115191315081
 20
45.0
 30
0.0
 40
3.5
  0
LINE
  5
1B9E
  8
2
 10
41.0
 20
22.5
 30
0.0
 11
35.0
 21
22.5
 31
0.0
  0
LINE
  5
1B9F
  8
2
 10
41.0
 20
17.5
 30
0.0
 11
35.0
 21
17.5
 31
0.0
  0
LINE
  5
1BA4
  8
2
 10
41.0
 20
20.0
 30
0.0
 11
35.0
 21
20.0
 31
0.0
  0
LINE
  5
1BA5
  8
2
 10
41.0
 20
22.5
 30
0.0
 11
41.0
 21
17.5
 31
0.0
  0
LINE
  5
1BAE
  8
1
 10
33.0
 20
20.0
 30
0.0
 11
59.900115191315081
 21
20.0
 31
0.0
  0
LINE
  5
1BAF
  8
0
 10
57.900115191315081
 20
19.962820939872412
 30
0.0
 11
57.900115191315081
 21
20.037179060127588
 31
0.0
  0
ARC
  5
1BB0
  8
0
 10
51.900115191315052
 20
19.962820939872412
 30
0.0
 40
6.0000000000000266
 50
324.75058700944322
 51
0.0
  0
ARC
  5
1BB1
  8
0
 10
51.900115191315052
 20
20.037179060127588
 30
0.0
 40
6.0000000000000302
 50
0.0
 51
35.249412990555932
  0
LINE
  5
1BB2
  8
0
 10
56.79999999999999
 20
23.5
 30
0.0
 11
56.79999999999999
 21
16.5
 31
0.0
  0
LINE
  5
1BB3
  8
0
 10
54.399999999999999
 20
16.5
 30
0.0
 11
56.79999999999999
 21
16.5
 31
0.0
  0
LINE
  5
1BB4
  8
0
 10
56.79999999999999
 20
23.5
 30
0.0
 11
54.399999999999999
 21
23.5
 31
0.0
  0
LINE
  5
1BB5
  8
0
 10
54.399999999999999
 20
24.050000000000001
 30
0.0
 11
54.399999999999999
 21
15.949999999999999
 31
0.0
  0
LINE
  5
1BB6
  8
0
 10
53.399999999999991
 20
15.949999999999999
 30
0.0
 11
54.399999999999999
 21
15.949999999999999
 31
0.0
  0
LINE
  5
1BB7
  8
0
 10
54.399999999999999
 20
24.050000000000001
 30
0.0
 11
53.399999999999991
 21
24.050000000000001
 31
0.0
  0
LINE
  5
1BB8
  8
0
 10
53.399999999999991
 20
24.050000000000001
 30
0.0
 11
53.399999999999991
 21
15.949999999999999
 31
0.0
  0
LINE
  5
1BB9
  8
0
 10
53.399999999999991
 20
24.050000000000001
 30
0.0
 11
52.450000000000003
 21
25.0
 31
0.0
  0
LINE
  5
1BBA
  8
0
 10
52.450000000000003
 20
15.0
 30
0.0
 11
53.399999999999991
 21
15.949999999999999
 31
0.0
  0
LINE
  5
1BBB
  8
0
 10
52.450000000000003
 20
25.0
 30
0.0
 11
52.450000000000003
 21
15.0
 31
0.0
  0
LINE
  5
1BBC
  8
0
 10
36.200000000000003
 20
15.0
 30
0.0
 11
52.450000000000003
 21
15.0
 31
0.0
  0
LINE
  5
1BBD
  8
0
 10
52.450000000000003
 20
25.0
 30
0.0
 11
36.200000000000003
 21
25.0
 31
0.0
  0
LINE
  5
1BBE
  8
0
 10
36.200000000000003
 20
25.0
 30
0.0
 11
36.200000000000003
 21
15.0
 31
0.0
  0
LINE
  5
1BBF
  8
0
 10
35.0
 20
23.800000000000001
 30
0.0
 11
35.0
 21
16.199999999999999
 31
0.0
  0
LINE
  5
1BC0
  8
0
 10
35.0
 20
16.199999999999999
 30
0.0
 11
36.200000000000003
 21
15.0
 31
0.0
  0
LINE
  5
1BC1
  8
0
 10
36.200000000000003
 20
25.0
 30
0.0
 11
35.0
 21
23.800000000000001
 31
0.0
  0
LINE
  5
1BC2
  8
3
 10
35.280000000000001
 20
24.079999999999991
 30
0.0
 11
53.36999999999999
 21
24.079999999999991
 31
0.0
  0
LINE
  5
1BC4
  8
3
 10
35.280000000000001
 20
15.920000000000011
 30
0.0
 11
53.36999999999999
 21
15.920000000000011
 31
0.0
  0
LINE
  5
1BE6
  8
0
 10
17.5
 20
46.443375672974071
 30
0.0
 11
15.0
 21
47.886751345948127
 31
0.0
  0
LINE
  5
1BE7
  8
0
 10
15.0
 20
47.886751345948127
 30
0.0
 11
12.5
 21
46.443375672974071
 31
0.0
  0
LINE
  5
1BE8
  8
0
 10
12.5
 20
46.443375672974071
 30
0.0
 11
12.5
 21
43.556624327025929
 31
0.0
  0
LINE
  5
1BE9
  8
0
 10
17.5
 20
43.556624327025929
 30
0.0
 11
17.5
 21
46.443375672974071
 31
0.0
  0
LINE
  5
1BEA
  8
0
 10
12.5
 20
43.556624327025929
 30
0.0
 11
15.0
 21
42.113248654051858
 31
0.0
  0
LINE
  5
1BEB
  8
0
 10
15.0
 20
42.113248654051858
 30
0.0
 11
17.5
 21
43.556624327025929
 31
0.0
  0
LINE
  5
1BF1
  8
1
 10
8.0
 20
45.0
 30
0.0
 11
22.0
 21
45.0
 31
0.0
  0
LINE
  5
1BF2
  8
1
 10
15.0
 20
38.0
 30
0.0
 11
15.0
 21
52.0
 31
0.0
  0
CIRCLE
  5
1BF3
  8
0
 10
15.0
 20
45.0
 30
0.0
 40
5.0
  0
CIRCLE
  5
1BF4
  8
3
 10
15.0
 20
45.0
 30
0.0
 40
4.0800000000000116
  0
LINE
  5
1C16
  8
2
 10
41.0
 20
47.886751345948127
 30
0.0
 11
35.0
 21
47.886751345948127
 31
0.0
  0
LINE
  5
1C17
  8
2
 10
41.0
 20
42.113248654051858
 30
0.0
 11
35.0
 21
42.113248654051858
 31
0.0
  0
LINE
  5
1C1B
  8
2
 10
41.0
 20
46.443375672974071
 30
0.0
 11
35.0
 21
46.443375672974071
 31
0.0
  0
LINE
  5
1C1C
  8
2
 10
41.0
 20
43.556624327025929
 30
0.0
 11
35.0
 21
43.556624327025929
 31
0.0
  0
LINE
  5
1C1D
  8
2
 10
41.0
 20
47.886751345948127
 30
0.0
 11
41.0
 21
42.113248654051858
 31
0.0
  0
LINE
  5
1C25
  8
1
 10
33.0
 20
45.0
 30
0.0
 11
59.900115191315081
 21
45.0
 31
0.0
  0
LINE
  5
1C26
  8
0
 10
57.900115191315081
 20
44.962820939872408
 30
0.0
 11
57.900115191315081
 21
45.037179060127592
 31
0.0
  0
ARC
  5
1C27
  8
0
 10
51.900115191315052
 20
44.962820939872408
 30
0.0
 40
6.0000000000000266
 50
324.75058700944408
 51
0.0
  0
ARC
  5
1C28
  8
0
 10
51.900115191315052
 20
45.037179060127592
 30
0.0
 40
6.0000000000000302
 50
0.0
 51
35.249412990555932
  0
LINE
  5
1C29
  8
0
 10
54.399999999999999
 20
41.5
 30
0.0
 11
56.79999999999999
 21
41.5
 31
0.0
  0
LINE
  5
1C2A
  8
0
 10
56.79999999999999
 20
48.5
 30
0.0
 11
54.399999999999999
 21
48.5
 31
0.0
  0
LINE
  5
1C2B
  8
0
 10
56.79999999999999
 20
48.5
 30
0.0
 11
56.79999999999999
 21
41.5
 31
0.0
  0
LINE
  5
1C2C
  8
0
 10
53.399999999999991
 20
40.949999999999982
 30
0.0
 11
54.399999999999999
 21
40.949999999999982
 31
0.0
  0
LINE
  5
1C2D
  8
0
 10
54.399999999999999
 20
49.050000000000011
 30
0.0
 11
53.399999999999991
 21
49.050000000000011
 31
0.0
  0
LINE
  5
1C2E
  8
0
 10
54.399999999999999
 20
49.050000000000011
 30
0.0
 11
54.399999999999999
 21
40.949999999999982
 31
0.0
  0
LINE
  5
1C2F
  8
0
 10
53.399999999999991
 20
49.050000000000011
 30
0.0
 11
52.450000000000003
 21
50.0
 31
0.0
  0
LINE
  5
1C30
  8
0
 10
52.450000000000003
 20
40.0
 30
0.0
 11
53.399999999999991
 21
40.949999999999982
 31
0.0
  0
LINE
  5
1C31
  8
0
 10
53.399999999999991
 20
49.050000000000011
 30
0.0
 11
53.399999999999991
 21
40.949999999999982
 31
0.0
  0
LINE
  5
1C32
  8
0
 10
36.200000000000003
 20
40.0
 30
0.0
 11
52.450000000000003
 21
40.0
 31
0.0
  0
LINE
  5
1C33
  8
0
 10
52.450000000000003
 20
50.0
 30
0.0
 11
36.200000000000003
 21
50.0
 31
0.0
  0
LINE
  5
1C34
  8
0
 10
52.450000000000003
 20
50.0
 30
0.0
 11
52.450000000000003
 21
40.0
 31
0.0
  0
LINE
  5
1C35
  8
0
 10
35.0
 20
41.199999999999989
 30
0.0
 11
36.200000000000003
 21
40.0
 31
0.0
  0
LINE
  5
1C36
  8
0
 10
36.200000000000003
 20
50.0
 30
0.0
 11
35.0
 21
48.800000000000011
 31
0.0
  0
LINE
  5
1C37
  8
0
 10
36.200000000000003
 20
50.0
 30
0.0
 11
36.200000000000003
 21
40.0
 31
0.0
  0
LINE
  5
1C38
  8
0
 10
35.0
 20
48.800000000000011
 30
0.0
 11
35.0
 21
41.199999999999989
 31
0.0
  0
LINE
  5
1C39
  8
3
 10
35.280000000000001
 20
49.080000000000013
 30
0.0
 11
53.36999999999999
 21
49.080000000000013
 31
0.0
  0
LINE
  5
1C3B
  8
3
 10
35.280000000000001
 20
40.91999999999998
 30
0.0
 11
53.36999999999999
 21
40.91999999999998
 31
0.0
  0
CIRCLE
  5
1C46
  8
3
 10
77.900115191315081
 20
45.0
 30
0.0
 40
4.0800000000000116
  0
LINE
  5
1DAE
  8
2
 10
41.0
 20
47.886751345948127
 30
0.0
 11
42.666666666666657
 21
45.0
 31
0.0
  0
LINE
  5
1DAF
  8
2
 10
41.0
 20
42.113248654051858
 30
0.0
 11
42.666666666666657
 21
45.0
 31
0.0
  0
LINE
  5
1DB0
  8
2
 10
41.0
 20
22.5
 30
0.0
 11
42.666666666666657
 21
20.0
 31
0.0
  0
LINE
  5
1DB1
  8
2
 10
41.0
 20
17.5
 30
0.0
 11
42.666666666666657
 21
20.0
 31
0.0
  0
ENDSEC
  0
EOF
