  0
SECTION
  2
HEADER
  9
$ACADVER
  1
AC1009
  9
$INSBASE
 10
0.0
 20
0.0
 30
0.0
  9
$EXTMIN
 10
0.0
 20
-1.4802182810368341
 30
0.0
  9
$EXTMAX
 10
58.5
 20
39.5
 30
0.0
  9
$LIMMIN
 10
0.0
 20
0.0
  9
$LIMMAX
 10
187.5
 20
135.0
  9
$ORTHOMODE
 70
     1
  9
$REGENMODE
 70
     1
  9
$FILLMODE
 70
     1
  9
$QTEXTMODE
 70
     0
  9
$MIRRTEXT
 70
     0
  9
$DRAGMODE
 70
     2
  9
$LTSCALE
 40
2.0
  9
$OSMODE
 70
    37
  9
$ATTMODE
 70
     1
  9
$TEXTSIZE
 40
4.0
  9
$TRACEWID
 40
0.05
  9
$TEXTSTYLE
  7
STANDARD
  9
$CLAYER
  8
0
  9
$CELTYPE
  6
BYLAYER
  9
$CECOLOR
 62
   256
  9
$DIMSCALE
 40
0.5
  9
$DIMASZ
 40
3.0
  9
$DIMEXO
 40
2.0
  9
$DIMDLI
 40
0.38
  9
$DIMRND
 40
0.0
  9
$DIMDLE
 40
0.0
  9
$DIMEXE
 40
2.0
  9
$DIMTP
 40
0.0
  9
$DIMTM
 40
0.0
  9
$DIMTXT
 40
3.0
  9
$DIMCEN
 40
0.0
  9
$DIMTSZ
 40
0.0
  9
$DIMTOL
 70
     0
  9
$DIMLIM
 70
     0
  9
$DIMTIH
 70
     0
  9
$DIMTOH
 70
     0
  9
$DIMSE1
 70
     0
  9
$DIMSE2
 70
     0
  9
$DIMTAD
 70
     1
  9
$DIMZIN
 70
     0
  9
$DIMBLK
  1

  9
$DIMASO
 70
     0
  9
$DIMSHO
 70
     0
  9
$DIMPOST
  1

  9
$DIMAPOST
  1

  9
$DIMALT
 70
     0
  9
$DIMALTD
 70
     2
  9
$DIMALTF
 40
25.399999999999999
  9
$DIMLFAC
 40
1.0
  9
$DIMTOFL
 70
     0
  9
$DIMTVP
 40
1.6000000000000001
  9
$DIMTIX
 70
     1
  9
$DIMSOXD
 70
     0
  9
$DIMSAH
 70
     0
  9
$DIMBLK1
  1

  9
$DIMBLK2
  1

  9
$DIMSTYLE
  2
STANDARD
  9
$DIMCLRD
 70
     0
  9
$DIMCLRE
 70
     0
  9
$DIMCLRT
 70
     0
  9
$DIMTFAC
 40
1.0
  9
$DIMGAP
 40
0.09
  9
$LUNITS
 70
     2
  9
$LUPREC
 70
     4
  9
$SKETCHINC
 40
0.1
  9
$FILLETRAD
 40
1.0
  9
$AUNITS
 70
     0
  9
$AUPREC
 70
     0
  9
$MENU
  1
E:\r13\win\SUPPORT\ACAD
  9
$ELEVATION
 40
0.0
  9
$PELEVATION
 40
0.0
  9
$THICKNESS
 40
0.0
  9
$LIMCHECK
 70
     0
  9
$BLIPMODE
 70
     0
  9
$CHAMFERA
 40
0.0
  9
$CHAMFERB
 40
0.0
  9
$SKPOLY
 70
     0
  9
$TDCREATE
 40
2449840.6143865739
  9
$TDUPDATE
 40
2456793.3655979862
  9
$TDINDWG
 40
0.3265419213
  9
$TDUSRTIMER
 40
0.3265419213
  9
$USRTIMER
 70
     1
  9
$ANGBASE
 50
0.0
  9
$ANGDIR
 70
     0
  9
$PDMODE
 70
     0
  9
$PDSIZE
 40
0.0
  9
$PLINEWID
 40
0.0
  9
$COORDS
 70
     1
  9
$SPLFRAME
 70
     0
  9
$SPLINETYPE
 70
     6
  9
$SPLINESEGS
 70
     8
  9
$ATTDIA
 70
     0
  9
$ATTREQ
 70
     1
  9
$HANDLING
 70
     1
  9
$HANDSEED
  5
1C99
  9
$SURFTAB1
 70
     6
  9
$SURFTAB2
 70
     6
  9
$SURFTYPE
 70
     6
  9
$SURFU
 70
     6
  9
$SURFV
 70
     6
  9
$UCSNAME
  2

  9
$UCSORG
 10
0.0
 20
0.0
 30
0.0
  9
$UCSXDIR
 10
1.0
 20
0.0
 30
0.0
  9
$UCSYDIR
 10
0.0
 20
1.0
 30
0.0
  9
$PUCSNAME
  2

  9
$PUCSORG
 10
0.0
 20
0.0
 30
0.0
  9
$PUCSXDIR
 10
1.0
 20
0.0
 30
0.0
  9
$PUCSYDIR
 10
0.0
 20
1.0
 30
0.0
  9
$USERI1
 70
     0
  9
$USERI2
 70
     1
  9
$USERI3
 70
     1
  9
$USERI4
 70
     0
  9
$USERI5
 70
     0
  9
$USERR1
 40
0.0
  9
$USERR2
 40
0.0
  9
$USERR3
 40
0.0
  9
$USERR4
 40
0.0
  9
$USERR5
 40
0.0
  9
$WORLDVIEW
 70
     1
  9
$SHADEDGE
 70
     3
  9
$SHADEDIF
 70
    70
  9
$TILEMODE
 70
     1
  9
$MAXACTVP
 70
    16
  9
$PLIMCHECK
 70
     0
  9
$PEXTMIN
 10
1.0000000000000000E+020
 20
1.0000000000000000E+020
 30
1.0000000000000000E+020
  9
$PEXTMAX
 10
-1.0000000000000000E+020
 20
-1.0000000000000000E+020
 30
-1.0000000000000000E+020
  9
$PLIMMIN
 10
0.0
 20
0.0
  9
$PLIMMAX
 10
12.0
 20
9.0
  9
$UNITMODE
 70
     0
  9
$VISRETAIN
 70
     0
  9
$PLINEGEN
 70
     0
  9
$PSLTSCALE
 70
     0
  0
ENDSEC
  0
SECTION
  2
TABLES
  0
TABLE
  2
VPORT
 70
     1
  0
VPORT
  2
*ACTIVE
 70
     0
 10
0.0
 20
0.0
 11
1.0
 21
1.0
 12
78.546592489568852
 22
45.0
 13
0.0
 23
0.0
 14
5.0
 24
5.0
 15
5.0
 25
5.0
 16
0.0
 26
0.0
 36
1.0
 17
0.0
 27
0.0
 37
0.0
 40
90.0
 41
1.7454798331015291
 42
50.0
 43
0.0
 44
0.0
 50
0.0
 51
0.0
 71
     0
 72
   100
 73
     1
 74
     0
 75
     0
 76
     0
 77
     0
 78
     0
  0
ENDTAB
  0
TABLE
  2
LTYPE
 70
     4
  0
LTYPE
  2
CONTINUOUS
 70
     0
  3
Solid Line
 72
    65
 73
     0
 40
0.0
  0
LTYPE
  2
CENTER
 70
     0
  3
____ _ ____ _ ____ _ ____ _ ____ _ ____ _ ____
 72
    65
 73
     4
 40
2.0
 49
1.25
 49
-0.25
 49
0.25
 49
-0.25
  0
LTYPE
  2
HIDDEN
 70
     0
  3
_ _ _ _ _ _ _ _ _ _ _ _ _ _ _ _ _ _ _ _ _ _ _
 72
    65
 73
     2
 40
0.375
 49
0.25
 49
-0.125
  0
LTYPE
  2
PHANTOM2
 70
     0
  3
___ _ _ ___ _ _ ___ _ _ ___ _ _
 72
    65
 73
     6
 40
1.25
 49
0.625
 49
-0.125
 49
0.125
 49
-0.125
 49
0.125
 49
-0.125
  0
ENDTAB
  0
TABLE
  2
LAYER
 70
     4
  0
LAYER
  2
0
 70
     0
 62
     7
  6
CONTINUOUS
  0
LAYER
  2
1
 70
     0
 62
     1
  6
CENTER
  0
LAYER
  2
3
 70
     0
 62
     3
  6
CONTINUOUS
  0
LAYER
  2
2
 70
     0
 62
     2
  6
HIDDEN
  0
ENDTAB
  0
TABLE
  2
STYLE
 70
     2
  0
STYLE
  2
STANDARD
 70
     0
 40
0.0
 41
1.0
 50
0.0
 71
     0
 42
4.0
  3
TXT
  4
BIGFONT
  0
STYLE
  2
STANDARD1
 70
     0
 40
0.0
 41
1.0
 50
0.0
 71
     0
 42
3.0
  3
txt
  4

  0
ENDTAB
  0
TABLE
  2
VIEW
 70
     1
  0
VIEW
  2
ALL
 70
     0
 40
179.66152299999999
 10
141.903918
 20
89.830760999999995
 41
0.0
 11
0.0
 21
0.0
 31
1.0
 12
0.0
 22
0.0
 32
0.0
 42
0.0
 43
0.0
 44
0.0
 50
0.0
 71
     0
  0
ENDTAB
  0
TABLE
  2
UCS
 70
     0
  0
ENDTAB
  0
TABLE
  2
APPID
 70
     5
  0
APPID
  2
ACAD
 70
     0
  0
APPID
  2
DCO15
 70
     0
  0
APPID
  2
ACAD_MLEADERVER
 70
     0
  0
APPID
  2
ACAD_NAV_VCDISPLAY
 70
     0
  0
APPID
  2
ACAD_EXEMPT_FROM_CAD_STANDARDS
 70
     0
  0
ENDTAB
  0
TABLE
  2
DIMSTYLE
 70
     1
  0
DIMSTYLE
  2
STANDARD
 70
     0
  3

  4

  5

  6

  7

 40
1.0
 41
0.18
 42
0.0625
 43
0.38
 44
0.18
 45
0.0
 46
0.0
 47
0.0
 48
0.0
140
0.18
141
0.09
142
0.0
143
25.399999999999999
144
1.0
145
0.0
146
1.0
147
0.09
 71
     0
 72
     0
 73
     1
 74
     1
 75
     0
 76
     0
 77
     0
 78
     0
170
     0
171
     2
172
     0
173
     0
174
     0
175
     0
176
     0
177
     0
178
     0
  0
ENDTAB
  0
ENDSEC
  0
SECTION
  2
BLOCKS
  0
BLOCK
  8
0
  2
$MODEL_SPACE
 70
     0
 10
0.0
 20
0.0
 30
0.0
  3
$MODEL_SPACE
  1

  0
ENDBLK
  5
1BD
  8
0
  0
BLOCK
 67
     1
  8
0
  2
$PAPER_SPACE
 70
     0
 10
0.0
 20
0.0
 30
0.0
  3
$PAPER_SPACE
  1

  0
ENDBLK
  5
1BB
 67
     1
  8
0
  0
ENDSEC
  0
SECTION
  2
ENTITIES
  0
TEXT
  5
146A
  8
0
 62
     3
 10
0.0
 20
0.0
 30
0.0
 40
5.0
  1
RCS5X09
  7
STANDARD1
  0
LINE
  5
18CB
  8
1
 10
49.5
 20
35.0
 30
0.0
 11
58.5
 21
35.0
 31
0.0
  0
LINE
  5
18CC
  8
1
 10
54.0
 20
30.5
 30
0.0
 11
54.0
 21
39.5
 31
0.0
  0
CIRCLE
  5
18CD
  8
0
 10
54.0
 20
35.0
 30
0.0
 40
2.5
  0
CIRCLE
  5
18CE
  8
0
 10
54.0
 20
35.0
 30
0.0
 40
1.8500000000000001
  0
CIRCLE
  5
18CF
  8
0
 10
54.0
 20
35.0
 30
0.0
 40
1.5
  0
LINE
  5
18F0
  8
2
 10
33.0
 20
21.25
 30
0.0
 11
30.0
 21
21.25
 31
0.0
  0
LINE
  5
18F1
  8
2
 10
33.0
 20
18.75
 30
0.0
 11
30.0
 21
18.75
 31
0.0
  0
LINE
  5
18F6
  8
2
 10
33.0
 20
20.0
 30
0.0
 11
30.0
 21
20.0
 31
0.0
  0
LINE
  5
18F7
  8
2
 10
33.0
 20
21.25
 30
0.0
 11
33.0
 21
18.75
 31
0.0
  0
LINE
  5
18FE
  8
1
 10
28.000000000000011
 20
20.0
 30
0.0
 11
41.0
 21
20.0
 31
0.0
  0
ARC
  5
18FF
  8
0
 10
36.500000000000021
 20
20.0
 30
0.0
 40
2.499999999999988
 50
323.13010235415578
 51
36.869897645844148
  0
LINE
  5
1900
  8
0
 10
38.5
 20
21.5
 30
0.0
 11
38.5
 21
18.5
 31
0.0
  0
LINE
  5
1901
  8
0
 10
37.20000000000001
 20
18.5
 30
0.0
 11
38.5
 21
18.5
 31
0.0
  0
LINE
  5
1902
  8
0
 10
38.5
 20
21.5
 30
0.0
 11
37.20000000000001
 21
21.5
 31
0.0
  0
LINE
  5
1903
  8
0
 10
37.20000000000001
 20
21.850000000000001
 30
0.0
 11
37.20000000000001
 21
18.149999999999999
 31
0.0
  0
LINE
  5
1904
  8
0
 10
36.299999999999997
 20
18.149999999999999
 30
0.0
 11
37.20000000000001
 21
18.149999999999999
 31
0.0
  0
LINE
  5
1905
  8
0
 10
37.20000000000001
 20
21.850000000000001
 30
0.0
 11
36.299999999999997
 21
21.850000000000001
 31
0.0
  0
LINE
  5
1906
  8
0
 10
36.299999999999997
 20
21.850000000000001
 30
0.0
 11
36.299999999999997
 21
18.149999999999999
 31
0.0
  0
LINE
  5
1907
  8
0
 10
36.299999999999997
 20
21.850000000000001
 30
0.0
 11
35.650000000000013
 21
22.5
 31
0.0
  0
LINE
  5
1908
  8
0
 10
35.650000000000013
 20
17.5
 30
0.0
 11
36.299999999999997
 21
18.149999999999999
 31
0.0
  0
LINE
  5
1909
  8
0
 10
35.650000000000013
 20
22.5
 30
0.0
 11
35.650000000000013
 21
17.5
 31
0.0
  0
LINE
  5
190A
  8
0
 10
30.500000000000011
 20
17.5
 30
0.0
 11
35.650000000000013
 21
17.5
 31
0.0
  0
LINE
  5
190B
  8
0
 10
35.650000000000013
 20
22.5
 30
0.0
 11
30.500000000000011
 21
22.5
 31
0.0
  0
LINE
  5
190C
  8
0
 10
30.500000000000011
 20
22.5
 30
0.0
 11
30.500000000000011
 21
17.5
 31
0.0
  0
LINE
  5
190D
  8
0
 10
30.0
 20
22.0
 30
0.0
 11
30.0
 21
18.0
 31
0.0
  0
LINE
  5
190E
  8
0
 10
30.0
 20
18.0
 30
0.0
 11
30.500000000000011
 21
17.5
 31
0.0
  0
LINE
  5
190F
  8
0
 10
30.500000000000011
 20
22.5
 30
0.0
 11
30.0
 21
22.0
 31
0.0
  0
LINE
  5
1910
  8
3
 10
30.009499999999999
 20
22.009499999999999
 30
0.0
 11
36.14050000000001
 21
22.009499999999999
 31
0.0
  0
LINE
  5
1912
  8
3
 10
30.009499999999999
 20
17.990500000000001
 30
0.0
 11
36.14050000000001
 21
17.990500000000001
 31
0.0
  0
LINE
  5
1934
  8
0
 10
16.25
 20
35.721687836487042
 30
0.0
 11
15.0
 21
36.443375672974071
 31
0.0
  0
LINE
  5
1935
  8
0
 10
15.0
 20
36.443375672974071
 30
0.0
 11
13.75
 21
35.721687836487042
 31
0.0
  0
LINE
  5
1936
  8
0
 10
13.75
 20
35.721687836487042
 30
0.0
 11
13.75
 21
34.278312163512972
 31
0.0
  0
LINE
  5
1937
  8
0
 10
16.25
 20
34.278312163512972
 30
0.0
 11
16.25
 21
35.721687836487042
 31
0.0
  0
LINE
  5
1938
  8
0
 10
13.75
 20
34.278312163512972
 30
0.0
 11
15.0
 21
33.556624327025929
 31
0.0
  0
LINE
  5
1939
  8
0
 10
15.0
 20
33.556624327025929
 30
0.0
 11
16.25
 21
34.278312163512972
 31
0.0
  0
LINE
  5
193F
  8
1
 10
10.5
 20
35.0
 30
0.0
 11
19.5
 21
35.0
 31
0.0
  0
LINE
  5
1940
  8
1
 10
15.0
 20
30.5
 30
0.0
 11
15.0
 21
39.5
 31
0.0
  0
CIRCLE
  5
1941
  8
0
 10
15.0
 20
35.0
 30
0.0
 40
2.5
  0
LINE
  5
1964
  8
2
 10
33.0
 20
36.443375672974071
 30
0.0
 11
30.0
 21
36.443375672974071
 31
0.0
  0
LINE
  5
1965
  8
2
 10
33.0
 20
33.556624327025929
 30
0.0
 11
30.0
 21
33.556624327025929
 31
0.0
  0
LINE
  5
1969
  8
2
 10
33.0
 20
35.721687836487042
 30
0.0
 11
30.0
 21
35.721687836487042
 31
0.0
  0
LINE
  5
196A
  8
2
 10
33.0
 20
34.278312163512972
 30
0.0
 11
30.0
 21
34.278312163512972
 31
0.0
  0
LINE
  5
196B
  8
2
 10
33.0
 20
36.443375672974071
 30
0.0
 11
33.0
 21
33.556624327025929
 31
0.0
  0
LINE
  5
1971
  8
1
 10
28.000000000000011
 20
35.0
 30
0.0
 11
41.0
 21
35.0
 31
0.0
  0
ARC
  5
1972
  8
0
 10
36.500000000000021
 20
35.0
 30
0.0
 40
2.499999999999988
 50
323.13010235415538
 51
36.869897645844603
  0
LINE
  5
1973
  8
0
 10
37.20000000000001
 20
33.5
 30
0.0
 11
38.5
 21
33.5
 31
0.0
  0
LINE
  5
1974
  8
0
 10
38.5
 20
36.5
 30
0.0
 11
37.20000000000001
 21
36.5
 31
0.0
  0
LINE
  5
1975
  8
0
 10
38.5
 20
36.5
 30
0.0
 11
38.5
 21
33.5
 31
0.0
  0
LINE
  5
1976
  8
0
 10
36.299999999999997
 20
33.150000000000013
 30
0.0
 11
37.20000000000001
 21
33.150000000000013
 31
0.0
  0
LINE
  5
1977
  8
0
 10
37.20000000000001
 20
36.850000000000001
 30
0.0
 11
36.299999999999997
 21
36.850000000000001
 31
0.0
  0
LINE
  5
1978
  8
0
 10
37.20000000000001
 20
36.850000000000001
 30
0.0
 11
37.20000000000001
 21
33.150000000000013
 31
0.0
  0
LINE
  5
1979
  8
0
 10
36.299999999999997
 20
36.850000000000001
 30
0.0
 11
35.650000000000013
 21
37.5
 31
0.0
  0
LINE
  5
197A
  8
0
 10
35.650000000000013
 20
32.5
 30
0.0
 11
36.299999999999997
 21
33.150000000000013
 31
0.0
  0
LINE
  5
197B
  8
0
 10
36.299999999999997
 20
36.850000000000001
 30
0.0
 11
36.299999999999997
 21
33.150000000000013
 31
0.0
  0
LINE
  5
197C
  8
0
 10
30.500000000000011
 20
32.5
 30
0.0
 11
35.650000000000013
 21
32.5
 31
0.0
  0
LINE
  5
197D
  8
0
 10
35.650000000000013
 20
37.5
 30
0.0
 11
30.500000000000011
 21
37.5
 31
0.0
  0
LINE
  5
197E
  8
0
 10
35.650000000000013
 20
37.5
 30
0.0
 11
35.650000000000013
 21
32.5
 31
0.0
  0
LINE
  5
197F
  8
0
 10
30.0
 20
33.0
 30
0.0
 11
30.500000000000011
 21
32.5
 31
0.0
  0
LINE
  5
1980
  8
0
 10
30.500000000000011
 20
37.5
 30
0.0
 11
30.0
 21
37.0
 31
0.0
  0
LINE
  5
1981
  8
0
 10
30.500000000000011
 20
37.5
 30
0.0
 11
30.500000000000011
 21
32.5
 31
0.0
  0
LINE
  5
1982
  8
0
 10
30.0
 20
37.0
 30
0.0
 11
30.0
 21
33.0
 31
0.0
  0
LINE
  5
1983
  8
3
 10
30.009499999999999
 20
37.00950000000001
 30
0.0
 11
36.14050000000001
 21
37.00950000000001
 31
0.0
  0
LINE
  5
1985
  8
3
 10
30.009499999999999
 20
32.990499999999997
 30
0.0
 11
36.14050000000001
 21
32.990499999999997
 31
0.0
  0
CIRCLE
  5
1A11
  8
3
 10
54.0
 20
35.0
 30
0.0
 40
2.0095000000000018
  0
CIRCLE
  5
1A12
  8
3
 10
15.0
 20
35.0
 30
0.0
 40
2.0095000000000018
  0
LINE
  5
1BC2
  8
2
 10
33.0
 20
36.443375672974071
 30
0.0
 11
33.833333333333343
 21
35.0
 31
0.0
  0
LINE
  5
1BC3
  8
2
 10
33.0
 20
33.556624327025929
 30
0.0
 11
33.833333333333343
 21
35.0
 31
0.0
  0
LINE
  5
1BC5
  8
2
 10
33.0
 20
21.25
 30
0.0
 11
33.833333333333343
 21
20.0
 31
0.0
  0
LINE
  5
1BC6
  8
2
 10
33.0
 20
18.75
 30
0.0
 11
33.833333333333343
 21
20.0
 31
0.0
  0
ENDSEC
  0
EOF
