  0
SECTION
  2
HEADER
  9
$ACADVER
  1
AC1009
  9
$INSBASE
 10
0.0
 20
0.0
 30
0.0
  9
$EXTMIN
 10
0.0
 20
-2.960436562073669
 30
0.0
  9
$EXTMAX
 10
329.99999999999977
 20
195.0
 30
0.0
  9
$LIMMIN
 10
0.0
 20
0.0
  9
$LIMMAX
 10
375.0
 20
270.0
  9
$ORTHOMODE
 70
     1
  9
$REGENMODE
 70
     1
  9
$FILLMODE
 70
     1
  9
$QTEXTMODE
 70
     0
  9
$MIRRTEXT
 70
     0
  9
$DRAGMODE
 70
     2
  9
$LTSCALE
 40
10.0
  9
$OSMODE
 70
    55
  9
$ATTMODE
 70
     1
  9
$TEXTSIZE
 40
0.2
  9
$TRACEWID
 40
0.05
  9
$TEXTSTYLE
  7
STANDARD
  9
$CLAYER
  8
0
  9
$CELTYPE
  6
BYLAYER
  9
$CECOLOR
 62
   256
  9
$DIMSCALE
 40
1.0
  9
$DIMASZ
 40
3.0
  9
$DIMEXO
 40
2.0
  9
$DIMDLI
 40
0.38
  9
$DIMRND
 40
0.0
  9
$DIMDLE
 40
0.0
  9
$DIMEXE
 40
2.0
  9
$DIMTP
 40
0.0
  9
$DIMTM
 40
0.0
  9
$DIMTXT
 40
3.0
  9
$DIMCEN
 40
0.0
  9
$DIMTSZ
 40
0.0
  9
$DIMTOL
 70
     0
  9
$DIMLIM
 70
     0
  9
$DIMTIH
 70
     0
  9
$DIMTOH
 70
     0
  9
$DIMSE1
 70
     0
  9
$DIMSE2
 70
     0
  9
$DIMTAD
 70
     1
  9
$DIMZIN
 70
     0
  9
$DIMBLK
  1

  9
$DIMASO
 70
     0
  9
$DIMSHO
 70
     0
  9
$DIMPOST
  1

  9
$DIMAPOST
  1

  9
$DIMALT
 70
     0
  9
$DIMALTD
 70
     2
  9
$DIMALTF
 40
25.399999999999999
  9
$DIMLFAC
 40
1.0
  9
$DIMTOFL
 70
     1
  9
$DIMTVP
 40
1.6000000000000001
  9
$DIMTIX
 70
     1
  9
$DIMSOXD
 70
     0
  9
$DIMSAH
 70
     0
  9
$DIMBLK1
  1

  9
$DIMBLK2
  1

  9
$DIMSTYLE
  2
STANDARD
  9
$DIMCLRD
 70
     0
  9
$DIMCLRE
 70
     0
  9
$DIMCLRT
 70
     0
  9
$DIMTFAC
 40
1.0
  9
$DIMGAP
 40
0.09
  9
$LUNITS
 70
     2
  9
$LUPREC
 70
     4
  9
$SKETCHINC
 40
0.1
  9
$FILLETRAD
 40
0.0
  9
$AUNITS
 70
     0
  9
$AUPREC
 70
     4
  9
$MENU
  1
E:\r13\win\SUPPORT\ACAD
  9
$ELEVATION
 40
0.0
  9
$PELEVATION
 40
0.0
  9
$THICKNESS
 40
0.0
  9
$LIMCHECK
 70
     0
  9
$BLIPMODE
 70
     0
  9
$CHAMFERA
 40
0.0
  9
$CHAMFERB
 40
0.0
  9
$SKPOLY
 70
     0
  9
$TDCREATE
 40
2449840.6308101849
  9
$TDUPDATE
 40
2456598.5876434608
  9
$TDINDWG
 40
0.0019796875
  9
$TDUSRTIMER
 40
0.0019796875
  9
$USRTIMER
 70
     1
  9
$ANGBASE
 50
0.0
  9
$ANGDIR
 70
     0
  9
$PDMODE
 70
     0
  9
$PDSIZE
 40
0.0
  9
$PLINEWID
 40
0.0
  9
$COORDS
 70
     1
  9
$SPLFRAME
 70
     0
  9
$SPLINETYPE
 70
     6
  9
$SPLINESEGS
 70
     8
  9
$ATTDIA
 70
     0
  9
$ATTREQ
 70
     1
  9
$HANDLING
 70
     1
  9
$HANDSEED
  5
267
  9
$SURFTAB1
 70
     6
  9
$SURFTAB2
 70
     6
  9
$SURFTYPE
 70
     6
  9
$SURFU
 70
     6
  9
$SURFV
 70
     6
  9
$UCSNAME
  2

  9
$UCSORG
 10
0.0
 20
0.0
 30
0.0
  9
$UCSXDIR
 10
1.0
 20
0.0
 30
0.0
  9
$UCSYDIR
 10
0.0
 20
1.0
 30
0.0
  9
$PUCSNAME
  2

  9
$PUCSORG
 10
0.0
 20
0.0
 30
0.0
  9
$PUCSXDIR
 10
1.0
 20
0.0
 30
0.0
  9
$PUCSYDIR
 10
0.0
 20
1.0
 30
0.0
  9
$USERI1
 70
     0
  9
$USERI2
 70
     1
  9
$USERI3
 70
     1
  9
$USERI4
 70
     0
  9
$USERI5
 70
     0
  9
$USERR1
 40
0.0
  9
$USERR2
 40
0.0
  9
$USERR3
 40
0.0
  9
$USERR4
 40
0.0
  9
$USERR5
 40
0.0
  9
$WORLDVIEW
 70
     1
  9
$SHADEDGE
 70
     3
  9
$SHADEDIF
 70
    70
  9
$TILEMODE
 70
     1
  9
$MAXACTVP
 70
    16
  9
$PLIMCHECK
 70
     0
  9
$PEXTMIN
 10
1.0000000000000000E+020
 20
1.0000000000000000E+020
 30
1.0000000000000000E+020
  9
$PEXTMAX
 10
-1.0000000000000000E+020
 20
-1.0000000000000000E+020
 30
-1.0000000000000000E+020
  9
$PLIMMIN
 10
0.0
 20
0.0
  9
$PLIMMAX
 10
12.0
 20
9.0
  9
$UNITMODE
 70
     0
  9
$VISRETAIN
 70
     0
  9
$PLINEGEN
 70
     0
  9
$PSLTSCALE
 70
     0
  0
ENDSEC
  0
SECTION
  2
TABLES
  0
TABLE
  2
VPORT
 70
     1
  0
VPORT
  2
*ACTIVE
 70
     0
 10
0.0
 20
0.0
 11
1.0
 21
1.0
 12
187.49427839065231
 22
194.785247995265
 13
0.0
 23
0.0
 14
10.0
 24
10.0
 15
10.0
 25
10.0
 16
0.0
 26
0.0
 36
1.0
 17
0.0
 27
0.0
 37
0.0
 40
399.3463374158577
 41
1.7807262569832401
 42
50.0
 43
0.0
 44
0.0
 50
0.0
 51
0.0
 71
     0
 72
   500
 73
     1
 74
     0
 75
     0
 76
     0
 77
     0
 78
     2
  0
ENDTAB
  0
TABLE
  2
LTYPE
 70
     4
  0
LTYPE
  2
CONTINUOUS
 70
     0
  3
Solid Line
 72
    65
 73
     0
 40
0.0
  0
LTYPE
  2
CENTER
 70
     0
  3
____ _ ____ _ ____ _ ____ _ ____ _ ____ _ ____
 72
    65
 73
     4
 40
2.0
 49
1.25
 49
-0.25
 49
0.25
 49
-0.25
  0
LTYPE
  2
HIDDEN
 70
     0
  3
_ _ _ _ _ _ _ _ _ _ _ _ _ _ _ _ _ _ _ _ _ _ _
 72
    65
 73
     2
 40
0.375
 49
0.25
 49
-0.125
  0
LTYPE
  2
PHANTOM2
 70
     0
  3
___ _ _ ___ _ _ ___ _ _ ___ _ _
 72
    65
 73
     6
 40
1.25
 49
0.625
 49
-0.125
 49
0.125
 49
-0.125
 49
0.125
 49
-0.125
  0
ENDTAB
  0
TABLE
  2
LAYER
 70
     3
  0
LAYER
  2
0
 70
     0
 62
     7
  6
CONTINUOUS
  0
LAYER
  2
1
 70
     0
 62
     1
  6
CENTER
  0
LAYER
  2
2
 70
     0
 62
     2
  6
HIDDEN
  0
ENDTAB
  0
TABLE
  2
STYLE
 70
     2
  0
STYLE
  2
STANDARD
 70
     0
 40
0.0
 41
1.0
 50
0.0
 71
     0
 42
0.2
  3
TXT
  4
BIGFONT
  0
STYLE
  2
STANDARD1
 70
     0
 40
0.0
 41
1.0
 50
0.0
 71
     0
 42
3.0
  3
txt
  4

  0
ENDTAB
  0
TABLE
  2
VIEW
 70
     1
  0
VIEW
  2
ALL
 70
     0
 40
270.0
 10
220.99159663865549
 20
135.0
 41
0.0
 11
0.0
 21
0.0
 31
1.0
 12
0.0
 22
0.0
 32
0.0
 42
0.0
 43
0.0
 44
0.0
 50
0.0
 71
     0
  0
ENDTAB
  0
TABLE
  2
UCS
 70
     0
  0
ENDTAB
  0
TABLE
  2
APPID
 70
     3
  0
APPID
  2
ACAD
 70
     0
  0
APPID
  2
ACAD_MLEADERVER
 70
     0
  0
APPID
  2
ACAD_NAV_VCDISPLAY
 70
     0
  0
ENDTAB
  0
TABLE
  2
DIMSTYLE
 70
     1
  0
DIMSTYLE
  2
STANDARD
 70
     0
  3

  4

  5

  6

  7

 40
1.0
 41
0.18
 42
0.0625
 43
0.38
 44
0.18
 45
0.0
 46
0.0
 47
0.0
 48
0.0
140
0.18
141
0.09
142
0.0
143
25.399999999999999
144
1.0
145
0.0
146
1.0
147
0.09
 71
     0
 72
     0
 73
     1
 74
     1
 75
     0
 76
     0
 77
     0
 78
     0
170
     0
171
     2
172
     0
173
     0
174
     0
175
     0
176
     0
177
     0
178
     0
  0
ENDTAB
  0
ENDSEC
  0
SECTION
  2
BLOCKS
  0
BLOCK
  8
0
  2
$MODEL_SPACE
 70
     0
 10
0.0
 20
0.0
 30
0.0
  3
$MODEL_SPACE
  1

  0
ENDBLK
  5
BB
  8
0
  0
BLOCK
 67
     1
  8
0
  2
$PAPER_SPACE
 70
     0
 10
0.0
 20
0.0
 30
0.0
  3
$PAPER_SPACE
  1

  0
ENDBLK
  5
B9
 67
     1
  8
0
  0
ENDSEC
  0
SECTION
  2
ENTITIES
  0
LINE
  5
35
  8
1
 10
40.0
 20
55.0
 30
0.0
 11
40.0
 21
119.9999999999999
 31
0.0
  0
LINE
  5
36
  8
0
 10
84.999999999999957
 20
65.0
 30
0.0
 11
94.999999999999943
 21
65.0
 31
0.0
  0
LINE
  5
37
  8
1
 10
89.999999999999986
 20
60.0
 30
0.0
 11
89.999999999999957
 21
83.693383006415075
 31
0.0
  0
LINE
  5
38
  8
2
 10
92.499999999999986
 20
65.46700000000024
 30
0.0
 11
92.499999999999986
 21
75.0
 31
0.0
  0
LINE
  5
39
  8
2
 10
92.067000000000206
 20
65.900000000000034
 30
0.0
 11
92.067000000000192
 21
77.500000000000028
 31
0.0
  0
LINE
  5
3A
  8
2
 10
87.932999999999765
 20
65.900000000000034
 30
0.0
 11
87.932999999999765
 21
77.500000000000028
 31
0.0
  0
LINE
  5
3B
  8
2
 10
87.499999999999986
 20
65.46700000000024
 30
0.0
 11
87.499999999999986
 21
75.0
 31
0.0
  0
LINE
  5
3C
  8
2
 10
87.499999999999986
 20
75.0
 30
0.0
 11
92.499999999999986
 21
75.0
 31
0.0
  0
LINE
  5
3D
  8
2
 10
92.067000000000164
 20
77.5
 30
0.0
 11
87.932999999999765
 21
77.5
 31
0.0
  0
LINE
  5
3E
  8
2
 10
87.932999999999765
 20
77.5
 30
0.0
 11
89.999999999999986
 21
78.693383006415104
 31
0.0
  0
LINE
  5
3F
  8
2
 10
92.067000000000149
 20
77.5
 30
0.0
 11
89.999999999999986
 21
78.693383006415104
 31
0.0
  0
LINE
  5
40
  8
2
 10
92.067000000000206
 20
65.900000000000034
 30
0.0
 11
87.932999999999765
 21
65.900000000000034
 31
0.0
  0
LINE
  5
41
  8
2
 10
92.067000000000206
 20
65.900000000000034
 30
0.0
 11
92.967000000000183
 21
65.000000000000028
 31
0.0
  0
LINE
  5
42
  8
2
 10
87.932999999999737
 20
65.900000000000034
 30
0.0
 11
87.032999999999745
 21
65.000000000000028
 31
0.0
  0
LINE
  5
43
  8
0
 10
94.999999999999943
 20
65.0
 30
0.0
 11
94.999999999999943
 21
85.0
 31
0.0
  0
LINE
  5
44
  8
0
 10
84.999999999999957
 20
65.0
 30
0.0
 11
84.999999999999943
 21
85.0
 31
0.0
  0
LINE
  5
45
  8
0
 10
109.9999999999999
 20
110.0
 30
0.0
 11
250.0
 21
110.0
 31
0.0
  0
LINE
  5
46
  8
0
 10
109.9999999999999
 20
100.0
 30
0.0
 11
249.99999999999989
 21
100.0
 31
0.0
  0
LINE
  5
47
  8
0
 10
275.0
 20
65.0
 30
0.0
 11
264.99999999999989
 21
65.0
 31
0.0
  0
LINE
  5
48
  8
0
 10
275.0
 20
65.0
 30
0.0
 11
275.0
 21
85.0
 31
0.0
  0
LINE
  5
49
  8
1
 10
269.99999999999989
 20
60.0
 30
0.0
 11
269.99999999999989
 21
83.693383006415075
 31
0.0
  0
LINE
  5
4A
  8
0
 10
264.99999999999989
 20
65.0
 30
0.0
 11
264.99999999999989
 21
85.0
 31
0.0
  0
ARC
  5
4B
  8
0
 10
109.9999999999999
 20
85.0
 30
0.0
 40
25.0
 50
90.0
 51
179.99999999999989
  0
ARC
  5
4C
  8
0
 10
109.9999999999999
 20
85.0
 30
0.0
 40
15.0
 50
90.0
 51
179.99999999999989
  0
ARC
  5
4D
  8
0
 10
249.99999999999989
 20
85.0
 30
0.0
 40
15.0
 50
0.0
 51
90.0
  0
ARC
  5
4E
  8
0
 10
250.0
 20
85.0
 30
0.0
 40
25.0
 50
0.0
 51
90.0
  0
LINE
  5
4F
  8
1
 10
179.99999999999989
 20
55.0
 30
0.0
 11
179.99999999999989
 21
119.9999999999999
 31
0.0
  0
LINE
  5
50
  8
0
 10
50.0
 20
64.999999999999943
 30
0.0
 11
30.0
 21
64.999999999999943
 31
0.0
  0
LINE
  5
51
  8
0
 10
50.0
 20
64.999999999999943
 30
0.0
 11
50.0
 21
104.9999999999999
 31
0.0
  0
LINE
  5
52
  8
0
 10
45.0
 20
109.9999999999999
 30
0.0
 11
35.0
 21
109.9999999999999
 31
0.0
  0
LINE
  5
53
  8
0
 10
30.0
 20
104.9999999999999
 30
0.0
 11
30.0
 21
64.999999999999943
 31
0.0
  0
ARC
  5
54
  8
0
 10
35.0
 20
104.9999999999999
 30
0.0
 40
5.0
 50
90.0
 51
179.99999999999989
  0
ARC
  5
55
  8
0
 10
45.0
 20
104.9999999999999
 30
0.0
 40
5.0
 50
0.0
 51
90.0
  0
ARC
  5
56
  8
2
 10
45.0
 20
104.9999999999999
 30
0.0
 40
5.0
 50
270.0
 51
0.0
  0
ARC
  5
57
  8
2
 10
35.0
 20
104.9999999999999
 30
0.0
 40
5.0
 50
180.0
 51
270.0
  0
LINE
  5
58
  8
2
 10
45.0
 20
99.999999999999915
 30
0.0
 11
35.0
 21
99.999999999999886
 31
0.0
  0
LINE
  5
59
  8
1
 10
285.0
 20
175.0
 30
0.0
 11
75.0
 21
175.0
 31
0.0
  0
LINE
  5
5A
  8
0
 10
275.0
 20
170.0
 30
0.0
 11
275.0
 21
180.0
 31
0.0
  0
LINE
  5
5B
  8
0
 10
270.0
 20
185.0
 30
0.0
 11
90.0
 21
185.0
 31
0.0
  0
LINE
  5
5C
  8
0
 10
85.0
 20
180.0
 30
0.0
 11
85.0
 21
170.0
 31
0.0
  0
LINE
  5
5D
  8
0
 10
90.0
 20
165.0
 30
0.0
 11
270.0
 21
165.0
 31
0.0
  0
ARC
  5
5E
  8
0
 10
90.0
 20
180.0
 30
0.0
 40
5.0
 50
90.0
 51
179.99999999999989
  0
ARC
  5
5F
  8
0
 10
90.0
 20
170.0
 30
0.0
 40
5.0
 50
180.0
 51
269.99999999999989
  0
ARC
  5
60
  8
0
 10
270.0
 20
170.0
 30
0.0
 40
5.0
 50
270.0
 51
0.0
  0
ARC
  5
61
  8
0
 10
270.0
 20
180.0
 30
0.0
 40
5.0
 50
0.0
 51
89.999999999999986
  0
LINE
  5
62
  8
1
 10
270.0
 20
160.0
 30
0.0
 11
270.0
 21
190.0
 31
0.0
  0
ARC
  5
63
  8
2
 10
269.99999999999989
 20
180.0
 30
0.0
 40
5.0
 50
90.000000000000057
 51
180.0
  0
ARC
  5
64
  8
2
 10
269.99999999999989
 20
170.0
 30
0.0
 40
5.0
 50
180.0
 51
270.00000000000011
  0
LINE
  5
65
  8
2
 10
264.99999999999989
 20
170.0
 30
0.0
 11
264.99999999999989
 21
180.0
 31
0.0
  0
LINE
  5
66
  8
2
 10
94.999999999999943
 20
170.0
 30
0.0
 11
94.999999999999943
 21
180.0
 31
0.0
  0
ARC
  5
67
  8
2
 10
89.999999999999943
 20
170.0
 30
0.0
 40
5.0
 50
270.0
 51
0.0
  0
ARC
  5
68
  8
2
 10
89.999999999999943
 20
180.0
 30
0.0
 40
5.0
 50
0.0
 51
89.999999999999986
  0
LINE
  5
69
  8
1
 10
89.999999999999844
 20
160.0
 30
0.0
 11
89.999999999999844
 21
190.0
 31
0.0
  0
LINE
  5
6A
  8
1
 10
179.99999999999989
 20
155.0
 30
0.0
 11
179.99999999999989
 21
195.0
 31
0.0
  0
LINE
  5
6B
  8
2
 10
272.06700000000012
 20
65.900000000000034
 30
0.0
 11
272.9670000000001
 21
65.000000000000028
 31
0.0
  0
LINE
  5
6C
  8
2
 10
267.93299999999971
 20
65.900000000000034
 30
0.0
 11
267.03299999999967
 21
65.000000000000028
 31
0.0
  0
LINE
  5
6D
  8
2
 10
267.93299999999971
 20
65.900000000000034
 30
0.0
 11
272.06700000000012
 21
65.900000000000034
 31
0.0
  0
LINE
  5
6E
  8
2
 10
267.93299999999971
 20
77.5
 30
0.0
 11
269.99999999999989
 21
78.693383006415104
 31
0.0
  0
LINE
  5
6F
  8
2
 10
272.06700000000012
 20
77.5
 30
0.0
 11
269.99999999999989
 21
78.693383006415104
 31
0.0
  0
LINE
  5
70
  8
2
 10
267.93299999999971
 20
77.5
 30
0.0
 11
272.06700000000012
 21
77.5
 31
0.0
  0
LINE
  5
71
  8
2
 10
272.49999999999989
 20
75.0
 30
0.0
 11
267.49999999999989
 21
75.0
 31
0.0
  0
LINE
  5
72
  8
2
 10
272.49999999999989
 20
65.46700000000024
 30
0.0
 11
272.49999999999989
 21
75.0
 31
0.0
  0
LINE
  5
73
  8
2
 10
272.06700000000012
 20
65.900000000000034
 30
0.0
 11
272.06700000000012
 21
77.500000000000028
 31
0.0
  0
LINE
  5
74
  8
2
 10
267.93299999999971
 20
65.900000000000034
 30
0.0
 11
267.93299999999971
 21
77.500000000000028
 31
0.0
  0
LINE
  5
75
  8
2
 10
267.49999999999989
 20
65.46700000000024
 30
0.0
 11
267.49999999999989
 21
75.0
 31
0.0
  0
LINE
  5
76
  8
2
 10
314.99999999999989
 20
99.999999999999915
 30
0.0
 11
324.99999999999977
 21
99.999999999999886
 31
0.0
  0
ARC
  5
77
  8
2
 10
324.99999999999977
 20
104.9999999999999
 30
0.0
 40
5.0
 50
270.00000000000011
 51
0.0
  0
ARC
  5
78
  8
2
 10
314.99999999999989
 20
104.9999999999999
 30
0.0
 40
5.0
 50
180.0
 51
270.00000000000011
  0
ARC
  5
79
  8
0
 10
314.99999999999989
 20
104.9999999999999
 30
0.0
 40
5.0
 50
90.000000000000028
 51
180.0
  0
ARC
  5
7A
  8
0
 10
324.99999999999977
 20
104.9999999999999
 30
0.0
 40
5.0
 50
0.0000000000000763
 51
90.000000000000028
  0
LINE
  5
7B
  8
0
 10
329.99999999999977
 20
104.9999999999999
 30
0.0
 11
329.99999999999977
 21
64.999999999999943
 31
0.0
  0
LINE
  5
7C
  8
0
 10
314.99999999999989
 20
109.9999999999999
 30
0.0
 11
324.99999999999977
 21
109.9999999999999
 31
0.0
  0
LINE
  5
7D
  8
0
 10
309.99999999999977
 20
64.999999999999943
 30
0.0
 11
309.99999999999977
 21
104.9999999999999
 31
0.0
  0
LINE
  5
7E
  8
0
 10
309.99999999999977
 20
64.999999999999943
 30
0.0
 11
329.99999999999977
 21
64.999999999999943
 31
0.0
  0
LINE
  5
7F
  8
1
 10
319.99999999999977
 20
55.0
 30
0.0
 11
319.99999999999977
 21
119.9999999999999
 31
0.0
  0
TEXT
  5
1D0
  8
0
 62
     3
 10
0.0
 20
0.0
 30
0.0
 40
10.0
  1
RD2-180G
  7
STANDARD1
  0
ENDSEC
  0
EOF
