  0
SECTION
  2
HEADER
  9
$ACADVER
  1
AC1009
  9
$INSBASE
 10
0.0
 20
0.0
 30
0.0
  9
$EXTMIN
 10
0.0
 20
-2.960436562073669
 30
0.0
  9
$EXTMAX
 10
151.29666388179581
 20
94.688679755228506
 30
0.0
  9
$LIMMIN
 10
0.0
 20
0.0
  9
$LIMMAX
 10
187.5
 20
135.0
  9
$ORTHOMODE
 70
     0
  9
$REGENMODE
 70
     1
  9
$FILLMODE
 70
     1
  9
$QTEXTMODE
 70
     0
  9
$MIRRTEXT
 70
     0
  9
$DRAGMODE
 70
     2
  9
$LTSCALE
 40
2.5
  9
$OSMODE
 70
    55
  9
$ATTMODE
 70
     1
  9
$TEXTSIZE
 40
0.2
  9
$TRACEWID
 40
0.05
  9
$TEXTSTYLE
  7
STANDARD
  9
$CLAYER
  8
0
  9
$CELTYPE
  6
BYLAYER
  9
$CECOLOR
 62
   256
  9
$DIMSCALE
 40
0.5
  9
$DIMASZ
 40
3.0
  9
$DIMEXO
 40
2.0
  9
$DIMDLI
 40
0.3799999999999999
  9
$DIMRND
 40
0.0
  9
$DIMDLE
 40
0.0
  9
$DIMEXE
 40
2.0
  9
$DIMTP
 40
0.0
  9
$DIMTM
 40
0.0
  9
$DIMTXT
 40
3.2000000000000002
  9
$DIMCEN
 40
0.09
  9
$DIMTSZ
 40
0.0
  9
$DIMTOL
 70
     0
  9
$DIMLIM
 70
     0
  9
$DIMTIH
 70
     0
  9
$DIMTOH
 70
     0
  9
$DIMSE1
 70
     0
  9
$DIMSE2
 70
     0
  9
$DIMTAD
 70
     1
  9
$DIMZIN
 70
     0
  9
$DIMBLK
  1

  9
$DIMASO
 70
     0
  9
$DIMSHO
 70
     0
  9
$DIMPOST
  1

  9
$DIMAPOST
  1

  9
$DIMALT
 70
     0
  9
$DIMALTD
 70
     2
  9
$DIMALTF
 40
25.399999999999999
  9
$DIMLFAC
 40
1.0
  9
$DIMTOFL
 70
     0
  9
$DIMTVP
 40
1.6000000000000001
  9
$DIMTIX
 70
     1
  9
$DIMSOXD
 70
     0
  9
$DIMSAH
 70
     0
  9
$DIMBLK1
  1

  9
$DIMBLK2
  1

  9
$DIMSTYLE
  2
STANDARD
  9
$DIMCLRD
 70
     0
  9
$DIMCLRE
 70
     0
  9
$DIMCLRT
 70
     0
  9
$DIMTFAC
 40
1.0
  9
$DIMGAP
 40
0.09
  9
$LUNITS
 70
     2
  9
$LUPREC
 70
     4
  9
$SKETCHINC
 40
0.1
  9
$FILLETRAD
 40
0.4
  9
$AUNITS
 70
     0
  9
$AUPREC
 70
     0
  9
$MENU
  1
E:\r13\win\SUPPORT\ACAD
  9
$ELEVATION
 40
0.0
  9
$PELEVATION
 40
0.0
  9
$THICKNESS
 40
0.0
  9
$LIMCHECK
 70
     0
  9
$BLIPMODE
 70
     0
  9
$CHAMFERA
 40
0.0
  9
$CHAMFERB
 40
0.0
  9
$SKPOLY
 70
     0
  9
$TDCREATE
 40
2451824.6702024541
  9
$TDUPDATE
 40
2456598.5977219101
  9
$TDINDWG
 40
0.0155210185
  9
$TDUSRTIMER
 40
0.0155210185
  9
$USRTIMER
 70
     1
  9
$ANGBASE
 50
0.0
  9
$ANGDIR
 70
     0
  9
$PDMODE
 70
     0
  9
$PDSIZE
 40
0.0
  9
$PLINEWID
 40
0.0
  9
$COORDS
 70
     1
  9
$SPLFRAME
 70
     0
  9
$SPLINETYPE
 70
     6
  9
$SPLINESEGS
 70
     8
  9
$ATTDIA
 70
     0
  9
$ATTREQ
 70
     1
  9
$HANDLING
 70
     1
  9
$HANDSEED
  5
200
  9
$SURFTAB1
 70
     6
  9
$SURFTAB2
 70
     6
  9
$SURFTYPE
 70
     6
  9
$SURFU
 70
     6
  9
$SURFV
 70
     6
  9
$UCSNAME
  2

  9
$UCSORG
 10
0.0
 20
0.0
 30
0.0
  9
$UCSXDIR
 10
1.0
 20
0.0
 30
0.0
  9
$UCSYDIR
 10
0.0
 20
1.0
 30
0.0
  9
$PUCSNAME
  2

  9
$PUCSORG
 10
0.0
 20
0.0
 30
0.0
  9
$PUCSXDIR
 10
1.0
 20
0.0
 30
0.0
  9
$PUCSYDIR
 10
0.0
 20
1.0
 30
0.0
  9
$USERI1
 70
     0
  9
$USERI2
 70
     1
  9
$USERI3
 70
     0
  9
$USERI4
 70
     0
  9
$USERI5
 70
     0
  9
$USERR1
 40
0.0
  9
$USERR2
 40
0.0
  9
$USERR3
 40
0.0
  9
$USERR4
 40
0.0
  9
$USERR5
 40
0.0
  9
$WORLDVIEW
 70
     1
  9
$SHADEDGE
 70
     3
  9
$SHADEDIF
 70
    70
  9
$TILEMODE
 70
     1
  9
$MAXACTVP
 70
    16
  9
$PLIMCHECK
 70
     0
  9
$PEXTMIN
 10
1.0000000000000000E+020
 20
1.0000000000000000E+020
 30
1.0000000000000000E+020
  9
$PEXTMAX
 10
-1.0000000000000000E+020
 20
-1.0000000000000000E+020
 30
-1.0000000000000000E+020
  9
$PLIMMIN
 10
0.0
 20
0.0
  9
$PLIMMAX
 10
12.0
 20
9.0
  9
$UNITMODE
 70
     0
  9
$VISRETAIN
 70
     0
  9
$PLINEGEN
 70
     0
  9
$PSLTSCALE
 70
     0
  0
ENDSEC
  0
SECTION
  2
TABLES
  0
TABLE
  2
VPORT
 70
     1
  0
VPORT
  2
*ACTIVE
 70
     0
 10
0.0
 20
0.0
 11
1.0
 21
1.0
 12
93.747139195326156
 22
96.983959220318994
 13
0.0
 23
0.0
 14
5.0
 24
5.0
 15
5.0
 25
5.0
 16
0.0
 26
0.0
 36
1.0
 17
0.0
 27
0.0
 37
0.0
 40
201.84293963319561
 41
1.7807262569832401
 42
50.0
 43
0.0
 44
0.0
 50
0.0
 51
0.0
 71
     0
 72
   500
 73
     1
 74
     0
 75
     0
 76
     0
 77
     0
 78
     2
  0
ENDTAB
  0
TABLE
  2
LTYPE
 70
     3
  0
LTYPE
  2
CONTINUOUS
 70
     0
  3
Solid Line
 72
    65
 73
     0
 40
0.0
  0
LTYPE
  2
CENTER
 70
     0
  3
____ _ ____ _ ____ _ ____ _ ____ _ ____ _ ____
 72
    65
 73
     4
 40
2.0
 49
1.25
 49
-0.25
 49
0.25
 49
-0.25
  0
LTYPE
  2
PHANTOM2
 70
     0
  3
___ _ _ ___ _ _ ___ _ _ ___ _ _
 72
    65
 73
     6
 40
1.25
 49
0.625
 49
-0.125
 49
0.125
 49
-0.125
 49
0.125
 49
-0.125
  0
ENDTAB
  0
TABLE
  2
LAYER
 70
     3
  0
LAYER
  2
0
 70
     0
 62
     7
  6
CONTINUOUS
  0
LAYER
  2
1
 70
     0
 62
     1
  6
CENTER
  0
LAYER
  2
3
 70
     0
 62
     3
  6
CONTINUOUS
  0
ENDTAB
  0
TABLE
  2
STYLE
 70
     2
  0
STYLE
  2
STANDARD
 70
     0
 40
0.0
 41
1.0
 50
0.0
 71
     0
 42
0.2
  3
TXT
  4
BIGFONT
  0
STYLE
  2
STANDARD1
 70
     0
 40
0.0
 41
1.0
 50
0.0
 71
     0
 42
3.0
  3
txt
  4

  0
ENDTAB
  0
TABLE
  2
VIEW
 70
     0
  0
ENDTAB
  0
TABLE
  2
UCS
 70
     0
  0
ENDTAB
  0
TABLE
  2
APPID
 70
     3
  0
APPID
  2
ACAD
 70
     0
  0
APPID
  2
ACAD_MLEADERVER
 70
     0
  0
APPID
  2
ACAD_NAV_VCDISPLAY
 70
     0
  0
ENDTAB
  0
TABLE
  2
DIMSTYLE
 70
     1
  0
DIMSTYLE
  2
STANDARD
 70
     0
  3

  4

  5

  6

  7

 40
1.0
 41
0.18
 42
0.0625
 43
0.38
 44
0.18
 45
0.0
 46
0.0
 47
0.0
 48
0.0
140
0.18
141
0.09
142
0.0
143
25.399999999999999
144
1.0
145
0.0
146
1.0
147
0.09
 71
     0
 72
     0
 73
     1
 74
     1
 75
     0
 76
     0
 77
     0
 78
     0
170
     0
171
     2
172
     0
173
     0
174
     0
175
     0
176
     0
177
     0
178
     0
  0
ENDTAB
  0
ENDSEC
  0
SECTION
  2
BLOCKS
  0
BLOCK
  8
0
  2
$MODEL_SPACE
 70
     0
 10
0.0
 20
0.0
 30
0.0
  3
$MODEL_SPACE
  1

  0
ENDBLK
  5
9
  8
0
  0
BLOCK
 67
     1
  8
0
  2
$PAPER_SPACE
 70
     0
 10
0.0
 20
0.0
 30
0.0
  3
$PAPER_SPACE
  1

  0
ENDBLK
  5
E
 67
     1
  8
0
  0
ENDSEC
  0
SECTION
  2
ENTITIES
  0
LINE
  5
26
  8
0
 10
72.296663881795794
 20
83.288679755229467
 30
0.0
 11
72.296663881795794
 21
93.088679755225655
 31
0.0
  0
ARC
  5
27
  8
0
 10
79.575285166614691
 20
90.688679755227597
 30
0.0
 40
7.2208862578987887
 50
159.74384199962651
 51
200.25615800037349
  0
LINE
  5
28
  8
0
 10
72.354398908715865
 20
93.188679755227554
 30
0.0
 11
72.296663881795794
 21
93.088679755225655
 31
0.0
  0
LINE
  5
29
  8
0
 10
72.354398908715865
 20
93.188679755227554
 30
0.0
 11
77.296663881795794
 21
93.188679755227554
 31
0.0
  0
LINE
  5
2A
  8
0
 10
72.354398908715865
 20
83.188679755227554
 30
0.0
 11
77.296663881795794
 21
83.188679755227554
 31
0.0
  0
LINE
  5
2B
  8
0
 10
72.354398908715865
 20
83.188679755227554
 30
0.0
 11
72.296663881795794
 21
83.288679755229467
 31
0.0
  0
ARC
  5
2C
  8
0
 10
79.575285166614691
 20
85.688679755227597
 30
0.0
 40
7.2208862578987887
 50
159.74384199962651
 51
200.25615800037349
  0
LINE
  5
2D
  8
0
 10
72.800980896101095
 20
88.188679755227554
 30
0.0
 11
77.296663881795794
 21
88.188679755227554
 31
0.0
  0
LINE
  5
2E
  8
0
 10
77.296663881795794
 20
83.188679755227554
 30
0.0
 11
77.296663881795794
 21
93.188679755227554
 31
0.0
  0
LINE
  5
2F
  8
0
 10
72.296663881795794
 20
91.188679755228137
 30
0.0
 11
71.855509608607719
 21
91.188679755228137
 31
0.0
  0
LINE
  5
30
  8
3
 10
72.296663881795794
 20
90.647179755228322
 30
0.0
 11
70.917604096309475
 21
90.647179755228322
 31
0.0
  0
LINE
  5
32
  8
0
 10
72.296663881795794
 20
85.188679755227682
 30
0.0
 11
71.855509608607832
 21
85.188679755227682
 31
0.0
  0
LINE
  5
33
  8
3
 10
72.296663881795794
 20
85.730179755227724
 30
0.0
 11
70.917604096309475
 21
85.730179755227724
 31
0.0
  0
LINE
  5
34
  8
0
 10
70.296663881795808
 20
90.288679755228259
 30
0.0
 11
71.855509608607832
 21
91.188679755228364
 31
0.0
  0
LINE
  5
35
  8
0
 10
71.855509608607719
 20
91.188679755228137
 30
0.0
 11
71.855509608607719
 21
85.188679755227682
 31
0.0
  0
LINE
  5
36
  8
0
 10
70.296663881795808
 20
86.088679755227773
 30
0.0
 11
71.855509608607832
 21
85.188679755227682
 31
0.0
  0
LINE
  5
37
  8
0
 10
70.296663881795808
 20
86.088679755227773
 30
0.0
 11
70.296663881795808
 21
90.288679755228259
 31
0.0
  0
LINE
  5
38
  8
0
 10
101.6966638817967
 20
92.038679755228273
 30
0.0
 11
104.1894842048345
 21
92.038679755233275
 31
0.0
  0
LINE
  5
39
  8
0
 10
101.6966638817967
 20
84.338679755227091
 30
0.0
 11
104.1894842048347
 21
84.338679755222088
 31
0.0
  0
ARC
  5
3A
  8
0
 10
92.396663881795703
 20
83.788679755227591
 30
0.0
 40
0.4
 50
0.0
 51
90.0
  0
LINE
  5
3B
  8
0
 10
101.29666388179579
 20
82.188679755227852
 30
0.0
 11
101.29666388179579
 21
94.188679755228478
 31
0.0
  0
LINE
  5
3C
  8
0
 10
92.796663881795808
 20
94.188679755228534
 30
0.0
 11
92.796663881795808
 21
82.188679755227668
 31
0.0
  0
LINE
  5
3D
  8
0
 10
92.796663881795766
 20
82.188679755227767
 30
0.0
 11
93.296663881795752
 21
81.688679755227767
 31
0.0
  0
LINE
  5
3E
  8
0
 10
100.79666388179569
 20
81.688679755227767
 30
0.0
 11
93.296663881795752
 21
81.688679755227767
 31
0.0
  0
LINE
  5
3F
  8
0
 10
100.79666388179569
 20
81.688679755227767
 30
0.0
 11
101.29666388179569
 21
82.188679755227767
 31
0.0
  0
LINE
  5
40
  8
0
 10
93.296663881795794
 20
94.688679755228506
 30
0.0
 11
92.796663881795808
 21
94.188679755228506
 31
0.0
  0
LINE
  5
41
  8
0
 10
79.296663881795808
 20
92.188679755227668
 30
0.0
 11
79.296663881795808
 21
84.188679755227682
 31
0.0
  0
LINE
  5
42
  8
0
 10
79.296663881795808
 20
84.188679755227682
 30
0.0
 11
92.396663881795703
 21
84.188679755227682
 31
0.0
  0
LINE
  5
43
  8
0
 10
79.296663881795808
 20
92.188679755227668
 30
0.0
 11
92.396663881795703
 21
92.188679755227668
 31
0.0
  0
ARC
  5
44
  8
0
 10
92.396663881795703
 20
92.588679755227773
 30
0.0
 40
0.4
 50
270.0
 51
0.0
  0
ARC
  5
45
  8
0
 10
101.6966638817959
 20
83.938679755227227
 30
0.0
 40
0.4
 50
89.999999999882746
 51
180.0
  0
LINE
  5
46
  8
0
 10
100.79666388179579
 20
94.688679755228506
 30
0.0
 11
93.296663881795794
 21
94.688679755228506
 31
0.0
  0
LINE
  5
47
  8
0
 10
100.79666388179579
 20
94.688679755228506
 30
0.0
 11
101.29666388179579
 21
94.188679755228506
 31
0.0
  0
ARC
  5
48
  8
0
 10
101.6966638817959
 20
92.438679755228364
 30
0.0
 40
0.4
 50
180.0
 51
270.00000000011562
  0
LINE
  5
49
  8
0
 10
113.29666388179579
 20
91.988679755227864
 30
0.0
 11
113.29666388179579
 21
84.388679755227727
 31
0.0
  0
LINE
  5
4A
  8
0
 10
104.2966638818065
 20
92.038679755229637
 30
0.0
 11
104.29666388179081
 21
84.338679755225954
 31
0.0
  0
LINE
  5
4B
  8
0
 10
111.21820291271329
 20
93.188679755227696
 30
0.0
 11
111.21820291271329
 21
83.188679755227696
 31
0.0
  0
LINE
  5
4C
  8
0
 10
106.2885223105078
 20
93.188679755227696
 30
0.0
 11
106.2885223105078
 21
83.188679755227696
 31
0.0
  0
LINE
  5
4D
  8
3
 10
104.88209705475251
 20
84.000679755233037
 30
0.0
 11
112.6246281684684
 21
84.000679755233037
 31
0.0
  0
LINE
  5
4E
  8
0
 10
106.2885223105078
 20
83.188679755227696
 30
0.0
 11
111.21820291271329
 21
83.188679755227696
 31
0.0
  0
ARC
  5
4F
  8
0
 10
104.189484204834
 20
83.938679755226076
 30
0.0
 40
0.4
 50
60.000000000002792
 51
89.999999999882746
  0
LINE
  5
50
  8
0
 10
106.2885223105078
 20
83.188679755227696
 30
0.0
 11
104.38948420483381
 21
84.285089916739949
 31
0.0
  0
LINE
  5
51
  8
0
 10
113.29666388179579
 20
84.388679755227727
 30
0.0
 11
111.21820291271329
 21
83.188679755227696
 31
0.0
  0
LINE
  5
52
  8
0
 10
106.2885223105076
 20
93.188679755227696
 30
0.0
 11
111.21820291271329
 21
93.188679755227696
 31
0.0
  0
LINE
  5
53
  8
3
 10
104.88209705475251
 20
92.376679755222327
 30
0.0
 11
112.6246281684684
 21
92.376679755222327
 31
0.0
  0
ARC
  5
54
  8
0
 10
104.1894842048338
 20
92.438679755229273
 30
0.0
 40
0.4
 50
270.00000000011562
 51
299.99999999999721
  0
LINE
  5
55
  8
0
 10
106.2885223105078
 20
93.188679755227895
 30
0.0
 11
104.38948420483381
 21
92.092269593715642
 31
0.0
  0
LINE
  5
56
  8
0
 10
113.29666388179579
 20
91.988679755227864
 30
0.0
 11
111.21820291271329
 21
93.188679755227696
 31
0.0
  0
LINE
  5
57
  8
0
 10
78.796663881795808
 20
94.288679755227591
 30
0.0
 11
78.796663881795808
 21
82.088679755227545
 31
0.0
  0
LINE
  5
58
  8
0
 10
77.296663881795794
 20
94.288679755227591
 30
0.0
 11
78.796663881795808
 21
94.288679755227591
 31
0.0
  0
LINE
  5
59
  8
0
 10
77.296663881795794
 20
82.088679755227545
 30
0.0
 11
77.296663881795794
 21
94.288679755227591
 31
0.0
  0
LINE
  5
5A
  8
0
 10
78.796663881795808
 20
82.088679755227545
 30
0.0
 11
77.296663881795794
 21
82.088679755227545
 31
0.0
  0
LINE
  5
5B
  8
0
 10
79.296663881795808
 20
90.388679755228168
 30
0.0
 11
78.796663881795808
 21
90.388679755228168
 31
0.0
  0
LINE
  5
5C
  8
0
 10
79.296663881795808
 20
85.988679755228091
 30
0.0
 11
78.796663881795808
 21
85.988679755228091
 31
0.0
  0
LINE
  5
5D
  8
1
 10
118.29666388179579
 20
88.188679755227696
 30
0.0
 11
65.296663881795808
 21
88.188679755228137
 31
0.0
  0
CIRCLE
  5
60
  8
3
 10
139.79666388179581
 20
58.188679755227682
 30
0.0
 40
4.187999999994644
  0
CIRCLE
  5
61
  8
0
 10
139.79666388179581
 20
58.188679755227682
 30
0.0
 40
5.0
  0
LINE
  5
62
  8
1
 10
139.79666388179581
 20
71.188679755227668
 30
0.0
 11
139.79666388179581
 21
45.18867975522766
 31
0.0
  0
LINE
  5
63
  8
1
 10
128.29666388179581
 20
58.188679755227682
 30
0.0
 11
151.29666388179581
 21
58.188679755227668
 31
0.0
  0
ARC
  5
64
  8
0
 10
139.79666388179581
 20
58.188679755227668
 30
0.0
 40
8.0
 50
215.65908769613429
 51
324.34091230386559
  0
LINE
  5
65
  8
0
 10
146.29666388179581
 20
62.852369281772098
 30
0.0
 11
146.29666388179581
 21
53.524990228683237
 31
0.0
  0
LINE
  5
66
  8
0
 10
133.29666388179581
 20
62.852369281772098
 30
0.0
 11
133.29666388179581
 21
53.524990228683237
 31
0.0
  0
ARC
  5
67
  8
0
 10
139.79666388179581
 20
58.188679755227668
 30
0.0
 40
8.0
 50
35.65908769613435
 51
144.34091230386559
  0
LINE
  5
68
  8
1
 10
118.29666388179579
 20
58.188679755227682
 30
0.0
 11
65.296663881795808
 21
58.188679755228129
 31
0.0
  0
LINE
  5
69
  8
0
 10
79.296663881795808
 20
55.988679755228091
 30
0.0
 11
78.796663881795808
 21
55.988679755228091
 31
0.0
  0
LINE
  5
6A
  8
0
 10
79.296663881795808
 20
60.388679755228182
 30
0.0
 11
78.796663881795808
 21
60.388679755228182
 31
0.0
  0
ARC
  5
6B
  8
0
 10
74.910221657143467
 20
62.518806774149887
 30
0.0
 40
2.5558227484274911
 50
154.38424746934271
 51
214.3842474679756
  0
LINE
  5
6C
  8
0
 10
72.800980896100242
 20
63.962182447123737
 30
0.0
 11
72.296663881795794
 21
63.088679755227091
 31
0.0
  0
LINE
  5
6D
  8
0
 10
72.800980896108655
 20
61.075431101175823
 30
0.0
 11
77.296663881795794
 21
61.075431101175823
 31
0.0
  0
LINE
  5
6E
  8
0
 10
78.796663881795808
 20
52.088679755227538
 30
0.0
 11
77.296663881795794
 21
52.088679755227538
 31
0.0
  0
LINE
  5
6F
  8
0
 10
72.800980896100242
 20
52.415177063331399
 30
0.0
 11
72.296663881795794
 21
53.288679755228038
 31
0.0
  0
ARC
  5
70
  8
0
 10
74.910221657143467
 20
53.858552736305462
 30
0.0
 40
2.5558227484274911
 50
145.61575253202429
 51
205.61575253065729
  0
LINE
  5
71
  8
0
 10
72.800980896100242
 20
52.415177063331399
 30
0.0
 11
77.296663881795794
 21
52.415177063331399
 31
0.0
  0
LINE
  5
72
  8
0
 10
72.800980896108655
 20
55.301928409279313
 30
0.0
 11
77.296663881795794
 21
55.301928409279313
 31
0.0
  0
ARC
  5
73
  8
0
 10
81.907816921274303
 20
58.188679755239278
 30
0.0
 40
9.5534180125581827
 50
162.41204622596811
 51
197.5879537741823
  0
LINE
  5
74
  8
0
 10
72.296663881795794
 20
63.088679755227091
 30
0.0
 11
72.296663881795794
 21
53.288679755228038
 31
0.0
  0
LINE
  5
75
  8
0
 10
78.796663881795808
 20
58.389641649550882
 30
0.0
 11
77.296663881795794
 21
57.987717860904247
 31
0.0
  0
LINE
  5
76
  8
0
 10
77.296663881795794
 20
52.088679755227538
 30
0.0
 11
77.296663881795794
 21
64.288679755227591
 31
0.0
  0
LINE
  5
77
  8
0
 10
77.296663881795794
 20
64.288679755227591
 30
0.0
 11
78.796663881795808
 21
64.288679755227591
 31
0.0
  0
LINE
  5
78
  8
0
 10
78.796663881795808
 20
64.288679755227591
 30
0.0
 11
78.796663881795808
 21
52.088679755227538
 31
0.0
  0
LINE
  5
79
  8
0
 10
72.800980896100242
 20
63.962182447123737
 30
0.0
 11
77.296663881795794
 21
63.962182447123737
 31
0.0
  0
LINE
  5
7A
  8
0
 10
113.29666388179579
 20
61.988679755227857
 30
0.0
 11
111.21820291271329
 21
63.188679755227682
 31
0.0
  0
LINE
  5
7B
  8
0
 10
106.2885223105078
 20
63.188679755227909
 30
0.0
 11
104.38948420483381
 21
62.092269593715642
 31
0.0
  0
ARC
  5
7C
  8
0
 10
104.1894842048338
 20
62.43867975522928
 30
0.0
 40
0.4
 50
270.00000000011562
 51
299.99999999999721
  0
LINE
  5
7D
  8
3
 10
104.88209705475251
 20
62.37667975522232
 30
0.0
 11
112.6246281684684
 21
62.37667975522232
 31
0.0
  0
LINE
  5
7E
  8
0
 10
106.2885223105076
 20
63.188679755227682
 30
0.0
 11
111.21820291271329
 21
63.188679755227682
 31
0.0
  0
LINE
  5
7F
  8
0
 10
113.29666388179579
 20
54.38867975522772
 30
0.0
 11
111.21820291271329
 21
53.188679755227682
 31
0.0
  0
LINE
  5
80
  8
0
 10
106.2885223105078
 20
53.188679755227682
 30
0.0
 11
104.38948420483381
 21
54.285089916739949
 31
0.0
  0
ARC
  5
81
  8
0
 10
104.189484204834
 20
53.93867975522609
 30
0.0
 40
0.4
 50
60.000000000002792
 51
89.999999999882746
  0
LINE
  5
82
  8
0
 10
106.2885223105078
 20
53.188679755227682
 30
0.0
 11
111.21820291271329
 21
53.188679755227682
 31
0.0
  0
LINE
  5
83
  8
3
 10
104.88209705475251
 20
54.00067975523303
 30
0.0
 11
112.6246281684684
 21
54.00067975523303
 31
0.0
  0
LINE
  5
84
  8
0
 10
106.2885223105078
 20
63.188679755227682
 30
0.0
 11
106.2885223105078
 21
53.188679755227682
 31
0.0
  0
LINE
  5
85
  8
0
 10
111.21820291271329
 20
63.188679755227682
 30
0.0
 11
111.21820291271329
 21
53.188679755227682
 31
0.0
  0
LINE
  5
86
  8
0
 10
104.2966638818065
 20
62.038679755229637
 30
0.0
 11
104.29666388179081
 21
54.338679755225947
 31
0.0
  0
LINE
  5
87
  8
0
 10
113.29666388179579
 20
61.988679755227857
 30
0.0
 11
113.29666388179579
 21
54.38867975522772
 31
0.0
  0
ARC
  5
88
  8
0
 10
101.6966638817959
 20
62.438679755228357
 30
0.0
 40
0.4
 50
180.0
 51
270.00000000011562
  0
LINE
  5
89
  8
0
 10
100.79666388179579
 20
66.188679755227682
 30
0.0
 11
101.29666388179579
 21
65.688679755227682
 31
0.0
  0
LINE
  5
8A
  8
0
 10
100.79666388179579
 20
66.188679755227682
 30
0.0
 11
93.296663881795794
 21
66.188679755227682
 31
0.0
  0
ARC
  5
8B
  8
0
 10
101.6966638817959
 20
53.938679755227227
 30
0.0
 40
0.4
 50
89.999999999882746
 51
180.0
  0
ARC
  5
8C
  8
0
 10
92.396663881795703
 20
62.588679755227773
 30
0.0
 40
0.4
 50
270.0
 51
0.0
  0
LINE
  5
8D
  8
0
 10
79.296663881795808
 20
62.188679755227682
 30
0.0
 11
92.396663881795703
 21
62.188679755227682
 31
0.0
  0
LINE
  5
8E
  8
0
 10
79.296663881795808
 20
54.188679755227682
 30
0.0
 11
92.396663881795703
 21
54.188679755227682
 31
0.0
  0
LINE
  5
8F
  8
0
 10
79.296663881795808
 20
62.188679755227682
 30
0.0
 11
79.296663881795808
 21
54.188679755227682
 31
0.0
  0
LINE
  5
90
  8
3
 10
92.796663881795808
 20
53.524990228683251
 30
0.0
 11
101.29666388179579
 21
62.852369281772113
 31
0.0
  0
LINE
  5
91
  8
3
 10
92.796663881795808
 20
62.852369281772113
 30
0.0
 11
101.29666388179579
 21
53.524990228683251
 31
0.0
  0
LINE
  5
92
  8
0
 10
92.796663881795808
 20
53.524990228683251
 30
0.0
 11
101.29666388179579
 21
53.524990228683251
 31
0.0
  0
LINE
  5
93
  8
0
 10
92.796663881795808
 20
62.852369281772113
 30
0.0
 11
101.29666388179579
 21
62.852369281772113
 31
0.0
  0
LINE
  5
94
  8
0
 10
93.296663881795794
 20
66.188679755227682
 30
0.0
 11
92.796663881795808
 21
65.688679755227682
 31
0.0
  0
LINE
  5
95
  8
0
 10
100.79666388179579
 20
50.188679755227682
 30
0.0
 11
101.29666388179579
 21
50.688679755227682
 31
0.0
  0
LINE
  5
96
  8
0
 10
100.79666388179579
 20
50.188679755227682
 30
0.0
 11
93.296663881795794
 21
50.188679755227682
 31
0.0
  0
LINE
  5
97
  8
0
 10
92.796663881795808
 20
50.688679755227682
 30
0.0
 11
93.296663881795794
 21
50.188679755227682
 31
0.0
  0
LINE
  5
98
  8
0
 10
92.796663881795808
 20
65.688679755227682
 30
0.0
 11
92.796663881795808
 21
50.688679755227682
 31
0.0
  0
LINE
  5
99
  8
0
 10
101.29666388179579
 20
50.688679755227682
 30
0.0
 11
101.29666388179579
 21
65.688679755227682
 31
0.0
  0
ARC
  5
9A
  8
0
 10
92.396663881795703
 20
53.788679755227591
 30
0.0
 40
0.4
 50
0.0
 51
90.0
  0
LINE
  5
9B
  8
0
 10
101.6966638817967
 20
54.338679755227091
 30
0.0
 11
104.1894842048347
 21
54.338679755222088
 31
0.0
  0
LINE
  5
9C
  8
0
 10
101.6966638817967
 20
62.038679755228273
 30
0.0
 11
104.1894842048345
 21
62.038679755233268
 31
0.0
  0
LINE
  5
9D
  8
0
 10
70.296663881795808
 20
56.088679755227773
 30
0.0
 11
70.296663881795808
 21
60.288679755228273
 31
0.0
  0
LINE
  5
9E
  8
0
 10
70.296663881795808
 20
56.088679755227773
 30
0.0
 11
71.855509608607832
 21
55.188679755227682
 31
0.0
  0
LINE
  5
9F
  8
0
 10
71.855509608607719
 20
61.188679755228137
 30
0.0
 11
71.855509608607719
 21
55.188679755227682
 31
0.0
  0
LINE
  5
A0
  8
0
 10
70.296663881795808
 20
60.288679755228273
 30
0.0
 11
71.855509608607832
 21
61.188679755228357
 31
0.0
  0
LINE
  5
A1
  8
3
 10
72.296663881795794
 20
55.730179755227716
 30
0.0
 11
70.917604096309475
 21
55.730179755227716
 31
0.0
  0
LINE
  5
A2
  8
0
 10
72.296663881795794
 20
55.188679755227682
 30
0.0
 11
71.855509608607832
 21
55.188679755227682
 31
0.0
  0
LINE
  5
A3
  8
3
 10
72.296663881795794
 20
60.647179755228322
 30
0.0
 11
70.917604096309475
 21
60.647179755228322
 31
0.0
  0
LINE
  5
A4
  8
0
 10
72.296663881795794
 20
61.188679755228137
 30
0.0
 11
71.855509608607719
 21
61.188679755228137
 31
0.0
  0
CIRCLE
  5
A5
  8
0
 10
43.79666388179578
 20
58.188679755228122
 30
0.0
 40
6.1000000000000076
  0
CIRCLE
  5
A6
  8
3
 10
43.79666388179578
 20
58.188679755228122
 30
0.0
 40
2.458499999999999
  0
CIRCLE
  5
A7
  8
0
 10
43.79666388179578
 20
58.188679755228122
 30
0.0
 40
3.0
  0
CIRCLE
  5
A8
  8
0
 10
43.79666388179578
 20
58.188679755228122
 30
0.0
 40
4.9000000000000004
  0
LINE
  5
A9
  8
0
 10
43.79666388179578
 20
63.962182447124398
 30
0.0
 11
38.79666388179578
 21
61.075431101176257
 31
0.0
  0
LINE
  5
AA
  8
0
 10
48.79666388179578
 20
61.075431101176257
 30
0.0
 11
43.79666388179578
 21
63.962182447124398
 31
0.0
  0
LINE
  5
AB
  8
0
 10
48.79666388179578
 20
55.301928409279981
 30
0.0
 11
48.79666388179578
 21
61.075431101176257
 31
0.0
  0
LINE
  5
AC
  8
0
 10
43.79666388179578
 20
52.415177063331832
 30
0.0
 11
48.79666388179578
 21
55.301928409279981
 31
0.0
  0
LINE
  5
AD
  8
0
 10
38.796663881795673
 20
55.301928409279981
 30
0.0
 11
43.79666388179578
 21
52.415177063331832
 31
0.0
  0
LINE
  5
AE
  8
0
 10
38.79666388179578
 20
61.075431101176257
 30
0.0
 11
38.796663881795673
 21
55.301928409279981
 31
0.0
  0
ARC
  5
AF
  8
0
 10
43.79666388179578
 20
58.188679755228122
 30
0.0
 40
8.0
 50
35.659087696134328
 51
144.34091230386559
  0
LINE
  5
B0
  8
0
 10
50.29666388179578
 20
62.852369281772553
 30
0.0
 11
50.29666388179578
 21
53.524990228683691
 31
0.0
  0
LINE
  5
B1
  8
0
 10
37.29666388179578
 20
62.852369281772553
 30
0.0
 11
37.29666388179578
 21
53.524990228683691
 31
0.0
  0
ARC
  5
B2
  8
0
 10
43.79666388179578
 20
58.188679755228122
 30
0.0
 40
8.0
 50
215.65908769613429
 51
324.34091230386571
  0
LINE
  5
B3
  8
1
 10
55.296663881795808
 20
58.188679755228129
 30
0.0
 11
32.29666388179578
 21
58.188679755228122
 31
0.0
  0
LINE
  5
B4
  8
1
 10
43.79666388179578
 20
71.188679755228122
 30
0.0
 11
43.79666388179578
 21
45.188679755228122
 31
0.0
  0
TEXT
  5
16B
  8
0
 62
     3
 10
0.0
 20
0.0
 30
0.0
 40
10.0
  1
RLB0814
  7
STANDARD1
  0
ENDSEC
  0
EOF
