  0
SECTION
  2
HEADER
  9
$ACADVER
  1
AC1009
  9
$INSBASE
 10
0.0
 20
0.0
 30
0.0
  9
$EXTMIN
 10
0.0
 20
-2.960436562073669
 30
0.0
  9
$EXTMAX
 10
154.43539983826619
 20
122.12132344026909
 30
0.0
  9
$LIMMIN
 10
0.0
 20
0.0
  9
$LIMMAX
 10
187.5
 20
135.0
  9
$ORTHOMODE
 70
     1
  9
$REGENMODE
 70
     1
  9
$FILLMODE
 70
     1
  9
$QTEXTMODE
 70
     0
  9
$MIRRTEXT
 70
     0
  9
$DRAGMODE
 70
     2
  9
$LTSCALE
 40
5.0
  9
$OSMODE
 70
    55
  9
$ATTMODE
 70
     1
  9
$TEXTSIZE
 40
0.2
  9
$TRACEWID
 40
0.05
  9
$TEXTSTYLE
  7
STANDARD
  9
$CLAYER
  8
0
  9
$CELTYPE
  6
BYLAYER
  9
$CECOLOR
 62
   256
  9
$DIMSCALE
 40
0.5
  9
$DIMASZ
 40
3.0
  9
$DIMEXO
 40
2.0
  9
$DIMDLI
 40
0.3799999999999999
  9
$DIMRND
 40
0.0
  9
$DIMDLE
 40
0.0
  9
$DIMEXE
 40
2.0
  9
$DIMTP
 40
0.0
  9
$DIMTM
 40
0.0
  9
$DIMTXT
 40
3.2000000000000002
  9
$DIMCEN
 40
0.09
  9
$DIMTSZ
 40
0.0
  9
$DIMTOL
 70
     0
  9
$DIMLIM
 70
     0
  9
$DIMTIH
 70
     0
  9
$DIMTOH
 70
     0
  9
$DIMSE1
 70
     0
  9
$DIMSE2
 70
     0
  9
$DIMTAD
 70
     1
  9
$DIMZIN
 70
     0
  9
$DIMBLK
  1

  9
$DIMASO
 70
     0
  9
$DIMSHO
 70
     0
  9
$DIMPOST
  1

  9
$DIMAPOST
  1

  9
$DIMALT
 70
     0
  9
$DIMALTD
 70
     2
  9
$DIMALTF
 40
25.399999999999999
  9
$DIMLFAC
 40
1.0
  9
$DIMTOFL
 70
     0
  9
$DIMTVP
 40
1.6000000000000001
  9
$DIMTIX
 70
     1
  9
$DIMSOXD
 70
     0
  9
$DIMSAH
 70
     0
  9
$DIMBLK1
  1

  9
$DIMBLK2
  1

  9
$DIMSTYLE
  2
STANDARD
  9
$DIMCLRD
 70
     0
  9
$DIMCLRE
 70
     0
  9
$DIMCLRT
 70
     0
  9
$DIMTFAC
 40
1.0
  9
$DIMGAP
 40
0.09
  9
$LUNITS
 70
     2
  9
$LUPREC
 70
     4
  9
$SKETCHINC
 40
0.1
  9
$FILLETRAD
 40
0.4
  9
$AUNITS
 70
     0
  9
$AUPREC
 70
     0
  9
$MENU
  1
E:\r13\win\SUPPORT\ACAD
  9
$ELEVATION
 40
0.0
  9
$PELEVATION
 40
0.0
  9
$THICKNESS
 40
0.0
  9
$LIMCHECK
 70
     0
  9
$BLIPMODE
 70
     0
  9
$CHAMFERA
 40
0.0
  9
$CHAMFERB
 40
0.0
  9
$SKPOLY
 70
     0
  9
$TDCREATE
 40
2451824.6713280319
  9
$TDUPDATE
 40
2456598.5977556719
  9
$TDINDWG
 40
0.0000882523
  9
$TDUSRTIMER
 40
0.0000882523
  9
$USRTIMER
 70
     1
  9
$ANGBASE
 50
0.0
  9
$ANGDIR
 70
     0
  9
$PDMODE
 70
     0
  9
$PDSIZE
 40
0.0
  9
$PLINEWID
 40
0.0
  9
$COORDS
 70
     1
  9
$SPLFRAME
 70
     0
  9
$SPLINETYPE
 70
     6
  9
$SPLINESEGS
 70
     8
  9
$ATTDIA
 70
     0
  9
$ATTREQ
 70
     1
  9
$HANDLING
 70
     1
  9
$HANDSEED
  5
309
  9
$SURFTAB1
 70
     6
  9
$SURFTAB2
 70
     6
  9
$SURFTYPE
 70
     6
  9
$SURFU
 70
     6
  9
$SURFV
 70
     6
  9
$UCSNAME
  2

  9
$UCSORG
 10
0.0
 20
0.0
 30
0.0
  9
$UCSXDIR
 10
1.0
 20
0.0
 30
0.0
  9
$UCSYDIR
 10
0.0
 20
1.0
 30
0.0
  9
$PUCSNAME
  2

  9
$PUCSORG
 10
0.0
 20
0.0
 30
0.0
  9
$PUCSXDIR
 10
1.0
 20
0.0
 30
0.0
  9
$PUCSYDIR
 10
0.0
 20
1.0
 30
0.0
  9
$USERI1
 70
     0
  9
$USERI2
 70
     1
  9
$USERI3
 70
     0
  9
$USERI4
 70
     0
  9
$USERI5
 70
     0
  9
$USERR1
 40
0.0
  9
$USERR2
 40
0.0
  9
$USERR3
 40
0.0
  9
$USERR4
 40
0.0
  9
$USERR5
 40
0.0
  9
$WORLDVIEW
 70
     1
  9
$SHADEDGE
 70
     3
  9
$SHADEDIF
 70
    70
  9
$TILEMODE
 70
     1
  9
$MAXACTVP
 70
    16
  9
$PLIMCHECK
 70
     0
  9
$PEXTMIN
 10
1.0000000000000000E+020
 20
1.0000000000000000E+020
 30
1.0000000000000000E+020
  9
$PEXTMAX
 10
-1.0000000000000000E+020
 20
-1.0000000000000000E+020
 30
-1.0000000000000000E+020
  9
$PLIMMIN
 10
0.0
 20
0.0
  9
$PLIMMAX
 10
12.0
 20
9.0
  9
$UNITMODE
 70
     0
  9
$VISRETAIN
 70
     0
  9
$PLINEGEN
 70
     0
  9
$PSLTSCALE
 70
     0
  0
ENDSEC
  0
SECTION
  2
TABLES
  0
TABLE
  2
VPORT
 70
     1
  0
VPORT
  2
*ACTIVE
 70
     0
 10
0.0
 20
0.0
 11
1.0
 21
1.0
 12
93.747139195326156
 22
96.983959220318994
 13
0.0
 23
0.0
 14
5.0
 24
5.0
 15
5.0
 25
5.0
 16
0.0
 26
0.0
 36
1.0
 17
0.0
 27
0.0
 37
0.0
 40
201.84293963319561
 41
1.7807262569832401
 42
50.0
 43
0.0
 44
0.0
 50
0.0
 51
0.0
 71
     0
 72
   500
 73
     1
 74
     0
 75
     0
 76
     0
 77
     0
 78
     2
  0
ENDTAB
  0
TABLE
  2
LTYPE
 70
     3
  0
LTYPE
  2
CONTINUOUS
 70
     0
  3
Solid Line
 72
    65
 73
     0
 40
0.0
  0
LTYPE
  2
CENTER
 70
     0
  3
____ _ ____ _ ____ _ ____ _ ____ _ ____ _ ____
 72
    65
 73
     4
 40
2.0
 49
1.25
 49
-0.25
 49
0.25
 49
-0.25
  0
LTYPE
  2
PHANTOM2
 70
     0
  3
___ _ _ ___ _ _ ___ _ _ ___ _ _
 72
    65
 73
     6
 40
1.25
 49
0.625
 49
-0.125
 49
0.125
 49
-0.125
 49
0.125
 49
-0.125
  0
ENDTAB
  0
TABLE
  2
LAYER
 70
     3
  0
LAYER
  2
0
 70
     0
 62
     7
  6
CONTINUOUS
  0
LAYER
  2
1
 70
     0
 62
     1
  6
CENTER
  0
LAYER
  2
3
 70
     0
 62
     3
  6
CONTINUOUS
  0
ENDTAB
  0
TABLE
  2
STYLE
 70
     2
  0
STYLE
  2
STANDARD
 70
     0
 40
0.0
 41
1.0
 50
0.0
 71
     0
 42
0.2
  3
TXT
  4
BIGFONT
  0
STYLE
  2
STANDARD1
 70
     0
 40
0.0
 41
1.0
 50
0.0
 71
     0
 42
3.0
  3
txt
  4

  0
ENDTAB
  0
TABLE
  2
VIEW
 70
     1
  0
VIEW
  2
ALL
 70
     0
 40
135.0
 10
110.4957983193277
 20
67.5
 41
0.0
 11
0.0
 21
0.0
 31
1.0
 12
0.0
 22
0.0
 32
0.0
 42
0.0
 43
0.0
 44
0.0
 50
0.0
 71
     0
  0
ENDTAB
  0
TABLE
  2
UCS
 70
     0
  0
ENDTAB
  0
TABLE
  2
APPID
 70
     3
  0
APPID
  2
ACAD
 70
     0
  0
APPID
  2
ACAD_MLEADERVER
 70
     0
  0
APPID
  2
ACAD_NAV_VCDISPLAY
 70
     0
  0
ENDTAB
  0
TABLE
  2
DIMSTYLE
 70
     1
  0
DIMSTYLE
  2
STANDARD
 70
     0
  3

  4

  5

  6

  7

 40
1.0
 41
0.18
 42
0.0625
 43
0.38
 44
0.18
 45
0.0
 46
0.0
 47
0.0
 48
0.0
140
0.18
141
0.09
142
0.0
143
25.399999999999999
144
1.0
145
0.0
146
1.0
147
0.09
 71
     0
 72
     0
 73
     1
 74
     1
 75
     0
 76
     0
 77
     0
 78
     0
170
     0
171
     2
172
     0
173
     0
174
     0
175
     0
176
     0
177
     0
178
     0
  0
ENDTAB
  0
ENDSEC
  0
SECTION
  2
BLOCKS
  0
BLOCK
  8
0
  2
$MODEL_SPACE
 70
     0
 10
0.0
 20
0.0
 30
0.0
  3
$MODEL_SPACE
  1

  0
ENDBLK
  5
1BF
  8
0
  0
BLOCK
 67
     1
  8
0
  2
$PAPER_SPACE
 70
     0
 10
0.0
 20
0.0
 30
0.0
  3
$PAPER_SPACE
  1

  0
ENDBLK
  5
1BD
 67
     1
  8
0
  0
ENDSEC
  0
SECTION
  2
ENTITIES
  0
LINE
  5
BA
  8
0
 10
67.07973740556406
 20
27.121323440269379
 30
0.0
 11
73.435399838265994
 21
27.121323440269379
 31
0.0
  0
LINE
  5
BB
  8
0
 10
67.07973740556406
 20
40.121323440268917
 30
0.0
 11
73.435399838265994
 21
40.121323440268917
 31
0.0
  0
LINE
  5
BC
  8
0
 10
67.660293989165211
 20
33.621323440269151
 30
0.0
 11
73.435399838266022
 21
33.621323440269151
 31
0.0
  0
LINE
  5
BD
  8
1
 10
62.435399838266179
 20
33.621323440269151
 30
0.0
 11
117.43539983826621
 21
33.621323440269151
 31
0.0
  0
LINE
  5
BE
  8
0
 10
67.07973740556406
 20
120.1213234402689
 30
0.0
 11
73.435399838265994
 21
120.1213234402689
 31
0.0
  0
LINE
  5
BF
  8
0
 10
67.660293989165211
 20
113.62132344026909
 30
0.0
 11
73.435399838266022
 21
113.62132344026909
 31
0.0
  0
LINE
  5
C0
  8
0
 10
67.07973740556406
 20
107.12132344026929
 30
0.0
 11
73.435399838265994
 21
107.12132344026929
 31
0.0
  0
LINE
  5
C1
  8
1
 10
62.435399838266179
 20
113.62132344026909
 30
0.0
 11
117.43539983826621
 21
113.62132344026909
 31
0.0
  0
LINE
  5
C2
  8
0
 10
67.660293989164842
 20
66.115769940804185
 30
0.0
 11
73.435399838265994
 21
66.115769940804185
 31
0.0
  0
LINE
  5
C3
  8
0
 10
67.660293989164842
 20
69.868546690538508
 30
0.0
 11
73.435399838265994
 21
69.868546690535524
 31
0.0
  0
LINE
  5
C4
  8
0
 10
67.660293989164842
 20
77.374100189999766
 30
0.0
 11
73.435399838265994
 21
77.37410019000275
 31
0.0
  0
LINE
  5
C5
  8
0
 10
67.660293989164842
 20
81.126876939734089
 30
0.0
 11
73.435399838265994
 21
81.126876939734089
 31
0.0
  0
LINE
  5
C6
  8
1
 10
62.435399838266179
 20
73.621323440269137
 30
0.0
 11
117.43539983826621
 21
73.621323440269137
 31
0.0
  0
LINE
  5
C7
  8
0
 10
66.935399838265994
 20
39.871323440267787
 30
0.0
 11
66.935399838265994
 21
27.371323440270519
 31
0.0
  0
ARC
  5
C8
  8
0
 10
76.466889540812758
 20
30.371323440269379
 30
0.0
 40
9.3871521352487513
 50
159.74384199958291
 51
200.25615800041709
  0
LINE
  5
C9
  8
0
 10
67.07973740556406
 20
27.121323440269379
 30
0.0
 11
66.935399838265994
 21
27.371323440270519
 31
0.0
  0
LINE
  5
CA
  8
0
 10
67.07973740556406
 20
40.121323440268917
 30
0.0
 11
66.935399838265994
 21
39.871323440267787
 31
0.0
  0
ARC
  5
CB
  8
0
 10
76.466889540812758
 20
36.871323440268917
 30
0.0
 40
9.3871521352487513
 50
159.74384199958291
 51
200.25615800041709
  0
LINE
  5
CC
  8
0
 10
65.435399838266164
 20
30.621323440269151
 30
0.0
 11
65.435399838266164
 21
36.621323440269101
 31
0.0
  0
LINE
  5
CD
  8
0
 10
65.435399838266164
 20
30.621323440269151
 30
0.0
 11
66.935399838265937
 21
29.755298036484842
 31
0.0
  0
LINE
  5
CE
  8
3
 10
65.995718274512399
 20
30.297823440270491
 30
0.0
 11
66.935399838265937
 21
30.29782344027052
 31
0.0
  0
LINE
  5
CF
  8
3
 10
65.995718274512399
 20
36.944823440267761
 30
0.0
 11
66.935399838265937
 21
36.944823440267783
 31
0.0
  0
LINE
  5
D0
  8
0
 10
65.435399838266164
 20
36.621323440269101
 30
0.0
 11
66.935399838265937
 21
37.487348844053287
 31
0.0
  0
CIRCLE
  5
D1
  8
0
 10
36.935399838266157
 20
73.621323440269123
 30
0.0
 40
6.2499999999999849
  0
LINE
  5
D2
  8
1
 10
26.935399838266161
 20
73.621323440269137
 30
0.0
 11
46.935399838266157
 21
73.621323440269123
 31
0.0
  0
LINE
  5
D3
  8
0
 10
36.935399838266157
 20
81.126876939734174
 30
0.0
 11
43.435399838266157
 21
77.374100190001613
 31
0.0
  0
LINE
  5
D4
  8
0
 10
43.435399838266157
 20
69.868546690536533
 30
0.0
 11
36.935399838266157
 21
66.115769940803958
 31
0.0
  0
CIRCLE
  5
D5
  8
0
 10
36.935399838266157
 20
73.621323440269137
 30
0.0
 40
7.6999999999999744
  0
LINE
  5
D6
  8
1
 10
30.935399838266139
 20
73.621323440269137
 30
0.0
 11
42.935399838266157
 21
73.621323440269137
 31
0.0
  0
ARC
  5
D7
  8
0
 10
36.935399838266157
 20
73.621323440269137
 30
0.0
 40
10.0
 50
211.78833061705171
 51
328.21166938294829
  0
LINE
  5
D8
  8
1
 10
48.43539983826615
 20
73.621323440269137
 30
0.0
 11
25.435399838266171
 21
73.621323440269137
 31
0.0
  0
ARC
  5
D9
  8
0
 10
36.935399838266157
 20
73.621323440269137
 30
0.0
 40
10.0
 50
31.788330617051681
 51
148.21166938294829
  0
LINE
  5
DA
  8
1
 10
36.935399838266157
 20
63.621323440269123
 30
0.0
 11
36.935399838266157
 21
83.621323440269123
 31
0.0
  0
LINE
  5
DB
  8
0
 10
30.435399838266139
 20
69.86854669053659
 30
0.0
 11
30.435399838266171
 21
77.374100190001684
 31
0.0
  0
CIRCLE
  5
DC
  8
0
 10
36.93539983826615
 20
73.621323440269137
 30
0.0
 40
3.375
  0
CIRCLE
  5
DD
  8
3
 10
36.93539983826615
 20
73.621323440269137
 30
0.0
 40
4.0
  0
LINE
  5
DE
  8
1
 10
36.935399838266157
 20
67.621323440269137
 30
0.0
 11
36.935399838266157
 21
79.621323440269123
 31
0.0
  0
LINE
  5
DF
  8
0
 10
28.435399838266161
 20
68.353496563842768
 30
0.0
 11
28.435399838266161
 21
78.889150316695492
 31
0.0
  0
LINE
  5
E0
  8
1
 10
36.935399838266157
 20
86.621323440269137
 30
0.0
 11
36.935399838266157
 21
60.62132344026913
 31
0.0
  0
LINE
  5
E1
  8
0
 10
36.935399838266157
 20
66.115769940803972
 30
0.0
 11
30.435399838266139
 21
69.86854669053659
 31
0.0
  0
LINE
  5
E2
  8
0
 10
30.435399838266171
 20
77.374100190001684
 30
0.0
 11
36.935399838266157
 21
81.126876939734174
 31
0.0
  0
LINE
  5
E3
  8
0
 10
43.435399838266157
 20
77.374100190001684
 30
0.0
 11
43.435399838266157
 21
69.868546690536533
 31
0.0
  0
LINE
  5
E4
  8
0
 10
65.435399838266164
 20
76.621323440269109
 30
0.0
 11
65.435399838266164
 21
70.621323440269165
 31
0.0
  0
LINE
  5
E5
  8
0
 10
45.435399838266157
 20
68.353496563842768
 30
0.0
 11
45.435399838266157
 21
78.889150316695492
 31
0.0
  0
ARC
  5
E6
  8
0
 10
79.499180821956486
 20
73.62132344026999
 30
0.0
 40
12.41944341639239
 50
162.41204622600139
 51
197.5879537740075
  0
LINE
  5
E7
  8
0
 10
66.935399838265937
 20
67.371323440269421
 30
0.0
 11
66.935399838265937
 21
79.871323440267574
 31
0.0
  0
LINE
  5
E8
  8
0
 10
67.660293989164842
 20
66.115769940804185
 30
0.0
 11
66.935399838265937
 21
67.371323440270558
 31
0.0
  0
LINE
  5
E9
  8
3
 10
65.995718274512399
 20
70.297823440270506
 30
0.0
 11
66.935399838265937
 21
70.297823440270491
 31
0.0
  0
LINE
  5
EA
  8
0
 10
65.435399838266164
 20
70.621323440269165
 30
0.0
 11
66.935399838265937
 21
69.755298036485001
 31
0.0
  0
ARC
  5
EB
  8
0
 10
70.402306978514105
 20
67.992158315670636
 30
0.0
 40
3.3225695729499738
 50
145.615752531959
 51
205.61575253217549
  0
LINE
  5
EC
  8
0
 10
65.435399838266164
 20
76.621323440269109
 30
0.0
 11
66.935399838265937
 21
77.487348844053429
 31
0.0
  0
LINE
  5
ED
  8
3
 10
65.995718274512399
 20
76.944823440267768
 30
0.0
 11
66.935399838265937
 21
76.944823440267754
 31
0.0
  0
LINE
  5
EE
  8
0
 10
67.660293989164842
 20
81.126876939734089
 30
0.0
 11
66.935399838265937
 21
79.871323440267716
 31
0.0
  0
ARC
  5
EF
  8
0
 10
70.402306978514105
 20
79.250488564867638
 30
0.0
 40
3.3225695729499738
 50
154.38424746782451
 51
214.38424746804091
  0
ARC
  5
F0
  8
0
 10
76.466889540812758
 20
116.8713234402689
 30
0.0
 40
9.3871521352487513
 50
159.7438419995828
 51
200.25615800041709
  0
LINE
  5
F1
  8
0
 10
66.935399838265994
 20
107.3713234402705
 30
0.0
 11
66.935399838265994
 21
119.8713234402677
 31
0.0
  0
LINE
  5
F2
  8
0
 10
65.435399838266164
 20
116.62132344026909
 30
0.0
 11
65.435399838266164
 21
110.62132344026919
 31
0.0
  0
ARC
  5
F3
  8
0
 10
76.466889540812758
 20
110.37132344026929
 30
0.0
 40
9.3871521352487513
 50
159.7438419995828
 51
200.25615800041709
  0
LINE
  5
F4
  8
0
 10
67.07973740556406
 20
107.12132344026929
 30
0.0
 11
66.935399838265994
 21
107.3713234402705
 31
0.0
  0
LINE
  5
F5
  8
3
 10
65.995718274512399
 20
110.29782344027051
 30
0.0
 11
66.935399838265937
 21
110.29782344027051
 31
0.0
  0
LINE
  5
F6
  8
0
 10
65.435399838266164
 20
110.62132344026919
 30
0.0
 11
66.935399838265937
 21
109.755298036485
 31
0.0
  0
LINE
  5
F7
  8
3
 10
65.995718274512399
 20
116.9448234402677
 30
0.0
 11
66.935399838265937
 21
116.9448234402677
 31
0.0
  0
LINE
  5
F8
  8
0
 10
65.435399838266164
 20
116.62132344026909
 30
0.0
 11
66.935399838265937
 21
117.4873488440534
 31
0.0
  0
LINE
  5
F9
  8
0
 10
67.07973740556406
 20
120.1213234402689
 30
0.0
 11
66.935399838265994
 21
119.8713234402677
 31
0.0
  0
ARC
  5
FA
  8
0
 10
99.835399838266156
 20
28.521323440269072
 30
0.0
 40
0.4000000000000001
 50
90.000000000003922
 51
180.0
  0
ARC
  5
FB
  8
0
 10
99.835399838266156
 20
38.721323440269181
 30
0.0
 40
0.4000000000000001
 50
180.0
 51
269.99999999999608
  0
LINE
  5
FC
  8
0
 10
99.435399838266235
 20
41.621323440269123
 30
0.0
 11
99.435399838266207
 21
25.621323440269069
 31
0.0
  0
LINE
  5
FD
  8
0
 10
91.435399838266264
 20
25.621323440269069
 30
0.0
 11
91.435399838266264
 21
41.621323440269151
 31
0.0
  0
LINE
  5
FE
  8
0
 10
73.435399838265994
 20
25.92132344026917
 30
0.0
 11
73.435399838265994
 21
41.321323440269083
 31
0.0
  0
LINE
  5
FF
  8
0
 10
75.435399838266022
 20
25.92132344026917
 30
0.0
 11
75.435399838266022
 21
41.321323440269083
 31
0.0
  0
LINE
  5
100
  8
0
 10
75.935399838266164
 20
29.121323440268981
 30
0.0
 11
75.935399838266164
 21
38.121323440268981
 31
0.0
  0
LINE
  5
101
  8
0
 10
73.435399838265994
 20
40.121323440268917
 30
0.0
 11
73.435399838265994
 21
27.121323440269379
 31
0.0
  0
LINE
  5
102
  8
0
 10
76.435399838266164
 20
28.621323440268981
 30
0.0
 11
91.135399838266238
 21
28.621323440268981
 31
0.0
  0
LINE
  5
103
  8
0
 10
73.435399838265994
 20
25.92132344026917
 30
0.0
 11
75.435399838266022
 21
25.92132344026917
 31
0.0
  0
LINE
  5
104
  8
0
 10
75.935399838266164
 20
29.121323440268981
 30
0.0
 11
76.435399838266164
 21
28.621323440268981
 31
0.0
  0
LINE
  5
105
  8
0
 10
98.935399838266264
 20
25.121323440269151
 30
0.0
 11
91.935399838266235
 21
25.121323440269151
 31
0.0
  0
LINE
  5
106
  8
0
 10
91.935399838266235
 20
25.121323440269151
 30
0.0
 11
91.435399838266264
 21
25.621323440269101
 31
0.0
  0
ARC
  5
107
  8
0
 10
91.135399838266267
 20
28.32132344026931
 30
0.0
 40
0.3
 50
0.0
 51
90.0
  0
LINE
  5
108
  8
0
 10
98.935399838266264
 20
25.121323440269151
 30
0.0
 11
99.435399838266235
 21
25.621323440269101
 31
0.0
  0
LINE
  5
109
  8
0
 10
76.435399838266164
 20
38.621323440268981
 30
0.0
 11
91.135399838266267
 21
38.621323440268981
 31
0.0
  0
ARC
  5
10A
  8
0
 10
75.535399838266244
 20
30.221323440269121
 30
0.0
 40
0.4000000000000001
 50
0.0
 51
89.999999999998764
  0
LINE
  5
10B
  8
0
 10
75.435399838266022
 20
30.621323440269151
 30
0.0
 11
75.535399838266244
 21
30.621323440269151
 31
0.0
  0
LINE
  5
10C
  8
0
 10
75.435399838266022
 20
36.621323440269101
 30
0.0
 11
75.535399838266244
 21
36.621323440269101
 31
0.0
  0
ARC
  5
10D
  8
0
 10
75.535399838266244
 20
37.021323440269022
 30
0.0
 40
0.4000000000000001
 50
270.00000000000119
 51
0.0
  0
LINE
  5
10E
  8
0
 10
76.435399838266164
 20
38.621323440268981
 30
0.0
 11
75.935399838266164
 21
38.121323440268981
 31
0.0
  0
LINE
  5
10F
  8
0
 10
75.435399838266022
 20
41.321323440269083
 30
0.0
 11
73.435399838265994
 21
41.321323440269083
 31
0.0
  0
ARC
  5
110
  8
0
 10
91.135399838266267
 20
38.921323440268992
 30
0.0
 40
0.3
 50
270.0
 51
0.0
  0
LINE
  5
111
  8
0
 10
98.935399838266264
 20
42.121323440269137
 30
0.0
 11
91.935399838266235
 21
42.121323440269137
 31
0.0
  0
LINE
  5
112
  8
0
 10
91.435399838266264
 20
41.621323440269151
 30
0.0
 11
91.935399838266235
 21
42.121323440269137
 31
0.0
  0
LINE
  5
113
  8
0
 10
98.935399838266264
 20
42.121323440269137
 30
0.0
 11
99.435399838266235
 21
41.621323440269151
 31
0.0
  0
LINE
  5
114
  8
0
 10
112.18373378842681
 20
39.621323440269101
 30
0.0
 11
112.18373378842681
 21
27.621323440269212
 31
0.0
  0
LINE
  5
115
  8
0
 10
105.18706588810549
 20
39.621323440269101
 30
0.0
 11
105.18706588810549
 21
27.621323440269212
 31
0.0
  0
LINE
  5
116
  8
0
 10
102.93539983826609
 20
28.921323440269159
 30
0.0
 11
102.9353998382667
 21
38.32132344026914
 31
0.0
  0
LINE
  5
117
  8
0
 10
114.43539983826621
 20
28.921323440269159
 30
0.0
 11
114.43539983826621
 21
38.321323440269261
 31
0.0
  0
LINE
  5
118
  8
0
 10
114.43539983826621
 20
28.921323440269159
 30
0.0
 11
112.18373378842681
 21
27.621323440269212
 31
0.0
  0
LINE
  5
119
  8
0
 10
105.18706588810549
 20
27.621323440269041
 30
0.0
 11
112.18373378842681
 21
27.621323440269212
 31
0.0
  0
LINE
  5
11A
  8
3
 10
103.5468137733378
 20
28.568323440269101
 30
0.0
 11
113.8239859031946
 21
28.568323440269101
 31
0.0
  0
LINE
  5
11B
  8
0
 10
105.18706588810549
 20
27.621323440269212
 30
0.0
 11
103.0282201612935
 21
28.86773360178293
 31
0.0
  0
ARC
  5
11C
  8
0
 10
102.8282201612937
 20
28.521323440269072
 30
0.0
 40
0.4000000000000001
 50
59.999999999999517
 51
90.000000000004775
  0
LINE
  5
11D
  8
0
 10
102.8282201612937
 20
28.92132344026928
 30
0.0
 11
99.835399838266156
 21
28.921323440269159
 31
0.0
  0
LINE
  5
11E
  8
0
 10
114.43539983826621
 20
38.32132344026914
 30
0.0
 11
112.18373378842681
 21
39.621323440269101
 31
0.0
  0
LINE
  5
11F
  8
0
 10
105.18706588810549
 20
39.621323440269101
 30
0.0
 11
112.18373378842681
 21
39.621323440269101
 31
0.0
  0
LINE
  5
120
  8
3
 10
103.5468137733378
 20
38.674323440269212
 30
0.0
 11
113.8239859031946
 21
38.674323440269212
 31
0.0
  0
LINE
  5
121
  8
0
 10
105.18706588810549
 20
39.621323440269208
 30
0.0
 11
103.0282201612935
 21
38.374913278755372
 31
0.0
  0
ARC
  5
122
  8
0
 10
102.8282201612934
 20
38.721323440269181
 30
0.0
 40
0.4000000000000001
 50
269.99999999999608
 51
299.9999999999992
  0
LINE
  5
123
  8
0
 10
102.8282201612934
 20
38.32132344026914
 30
0.0
 11
99.835399838266156
 21
38.32132344026914
 31
0.0
  0
ARC
  5
12F
  8
0
 10
99.835399838266156
 20
78.721323440269188
 30
0.0
 40
0.4000000000000001
 50
180.0
 51
269.99999999999608
  0
ARC
  5
130
  8
0
 10
99.835399838266156
 20
68.521323440269086
 30
0.0
 40
0.4000000000000001
 50
90.000000000003922
 51
180.0
  0
LINE
  5
131
  8
0
 10
75.935399838266164
 20
78.121323440269265
 30
0.0
 11
75.935399838266164
 21
69.121323440269293
 31
0.0
  0
LINE
  5
132
  8
0
 10
73.435399838265994
 20
81.321323440269097
 30
0.0
 11
73.435399838265994
 21
65.921323440269177
 31
0.0
  0
LINE
  5
133
  8
0
 10
75.435399838266022
 20
81.321323440269097
 30
0.0
 11
75.435399838266022
 21
65.921323440269177
 31
0.0
  0
LINE
  5
134
  8
3
 10
99.435399838266235
 20
68.353496563840636
 30
0.0
 11
91.435399838266264
 21
78.889150316697638
 31
0.0
  0
LINE
  5
135
  8
3
 10
99.435399838266235
 20
78.889150316697638
 30
0.0
 11
91.435399838266264
 21
68.353496563840636
 31
0.0
  0
LINE
  5
136
  8
0
 10
91.435399838266264
 20
83.121323440269165
 30
0.0
 11
91.435399838266264
 21
64.121323440269109
 31
0.0
  0
LINE
  5
137
  8
0
 10
99.435399838266235
 20
64.121323440269109
 30
0.0
 11
99.435399838266235
 21
83.121323440269165
 31
0.0
  0
LINE
  5
138
  8
0
 10
76.435399838266164
 20
68.621323440269293
 30
0.0
 11
91.135399838266267
 21
68.621323440269293
 31
0.0
  0
LINE
  5
139
  8
0
 10
75.435399838266022
 20
65.921323440269177
 30
0.0
 11
73.435399838265994
 21
65.921323440269177
 31
0.0
  0
LINE
  5
13A
  8
0
 10
76.435399838266164
 20
68.621323440269293
 30
0.0
 11
75.935399838266164
 21
69.121323440269293
 31
0.0
  0
LINE
  5
13B
  8
0
 10
75.435399838266022
 20
70.621323440269165
 30
0.0
 11
75.535399838266244
 21
70.621323440269165
 31
0.0
  0
ARC
  5
13C
  8
0
 10
75.535399838266244
 20
70.221323440269245
 30
0.0
 40
0.4000000000000001
 50
0.0
 51
89.999999999998764
  0
LINE
  5
13D
  8
0
 10
91.435399838266264
 20
68.353496563840636
 30
0.0
 11
99.435399838266235
 21
68.353496563840636
 31
0.0
  0
LINE
  5
13E
  8
0
 10
98.935399838266264
 20
63.621323440269137
 30
0.0
 11
91.935399838266235
 21
63.621323440269137
 31
0.0
  0
LINE
  5
13F
  8
0
 10
91.435399838266264
 20
64.121323440269109
 30
0.0
 11
91.935399838266235
 21
63.621323440269137
 31
0.0
  0
ARC
  5
140
  8
0
 10
91.135399838266267
 20
68.321323440269296
 30
0.0
 40
0.3
 50
0.0
 51
90.0
  0
LINE
  5
141
  8
0
 10
98.935399838266264
 20
63.621323440269137
 30
0.0
 11
99.435399838266235
 21
64.121323440269109
 31
0.0
  0
LINE
  5
142
  8
0
 10
76.435399838266164
 20
78.621323440269279
 30
0.0
 11
91.135399838266238
 21
78.621323440269293
 31
0.0
  0
ARC
  5
143
  8
0
 10
75.535399838266244
 20
77.021323440269171
 30
0.0
 40
0.4000000000000001
 50
270.00000000000119
 51
0.0
  0
LINE
  5
144
  8
0
 10
73.435399838265994
 20
73.19199570564075
 30
0.0
 11
75.435399838266022
 21
74.516879058598022
 31
0.0
  0
LINE
  5
145
  8
0
 10
75.435399838266022
 20
76.621323440269123
 30
0.0
 11
75.535399838266244
 21
76.621323440269109
 31
0.0
  0
LINE
  5
146
  8
0
 10
73.435399838265994
 20
81.321323440269097
 30
0.0
 11
75.435399838266022
 21
81.321323440269097
 31
0.0
  0
LINE
  5
147
  8
0
 10
75.935399838266164
 20
78.121323440269265
 30
0.0
 11
76.435399838266164
 21
78.621323440269279
 31
0.0
  0
LINE
  5
148
  8
0
 10
99.435399838266235
 20
78.889150316697638
 30
0.0
 11
91.435399838266264
 21
78.889150316697638
 31
0.0
  0
ARC
  5
149
  8
0
 10
91.135399838266267
 20
78.921323440268964
 30
0.0
 40
0.3
 50
270.0
 51
0.0
  0
LINE
  5
14A
  8
0
 10
98.935399838266264
 20
83.621323440269137
 30
0.0
 11
91.935399838266235
 21
83.621323440269137
 31
0.0
  0
LINE
  5
14B
  8
0
 10
91.935399838266235
 20
83.621323440269137
 30
0.0
 11
91.435399838266264
 21
83.121323440269165
 31
0.0
  0
LINE
  5
14C
  8
0
 10
98.935399838266264
 20
83.621323440269137
 30
0.0
 11
99.435399838266235
 21
83.121323440269165
 31
0.0
  0
LINE
  5
14D
  8
0
 10
112.18373378842681
 20
67.621323440269194
 30
0.0
 11
112.18373378842681
 21
79.62132344026908
 31
0.0
  0
LINE
  5
14E
  8
0
 10
114.43539983826621
 20
78.321323440269126
 30
0.0
 11
114.43539983826621
 21
68.921323440269006
 31
0.0
  0
LINE
  5
14F
  8
0
 10
105.18706588810549
 20
67.621323440269194
 30
0.0
 11
105.18706588810549
 21
79.62132344026908
 31
0.0
  0
LINE
  5
150
  8
0
 10
102.93539983826609
 20
78.321323440269126
 30
0.0
 11
102.9353998382667
 21
68.921323440269148
 31
0.0
  0
LINE
  5
151
  8
0
 10
114.43539983826621
 20
68.921323440269148
 30
0.0
 11
112.18373378842681
 21
67.621323440269194
 31
0.0
  0
LINE
  5
152
  8
0
 10
105.18706588810549
 20
67.621323440269194
 30
0.0
 11
112.18373378842681
 21
67.621323440269194
 31
0.0
  0
LINE
  5
153
  8
3
 10
103.5468137733378
 20
68.568323440269083
 30
0.0
 11
113.8239859031946
 21
68.568323440269083
 31
0.0
  0
LINE
  5
154
  8
0
 10
105.18706588810549
 20
67.621323440269052
 30
0.0
 11
103.0282201612935
 21
68.867733601782916
 31
0.0
  0
ARC
  5
155
  8
0
 10
102.8282201612934
 20
68.521323440269086
 30
0.0
 40
0.4000000000000001
 50
60.000000000000817
 51
90.000000000003837
  0
LINE
  5
156
  8
0
 10
102.8282201612934
 20
68.921323440269148
 30
0.0
 11
99.835399838266156
 21
68.921323440269148
 31
0.0
  0
LINE
  5
157
  8
0
 10
114.43539983826621
 20
78.321323440269126
 30
0.0
 11
112.18373378842681
 21
79.62132344026908
 31
0.0
  0
LINE
  5
158
  8
0
 10
105.18706588810549
 20
79.621323440269222
 30
0.0
 11
112.18373378842681
 21
79.62132344026908
 31
0.0
  0
LINE
  5
159
  8
3
 10
103.5468137733378
 20
78.674323440269191
 30
0.0
 11
113.8239859031946
 21
78.674323440269191
 31
0.0
  0
LINE
  5
15A
  8
0
 10
105.18706588810549
 20
79.62132344026908
 30
0.0
 11
103.0282201612935
 21
78.374913278755358
 31
0.0
  0
ARC
  5
15B
  8
0
 10
102.8282201612937
 20
78.721323440269188
 30
0.0
 40
0.4000000000000001
 50
269.99999999999523
 51
300.0000000000004
  0
LINE
  5
15C
  8
0
 10
102.8282201612937
 20
78.321323440268984
 30
0.0
 11
99.835399838266156
 21
78.321323440269126
 31
0.0
  0
ARC
  5
15D
  8
0
 10
99.835399838266156
 20
118.7213234402692
 30
0.0
 40
0.4000000000000001
 50
180.0
 51
269.99999999999608
  0
ARC
  5
15E
  8
0
 10
99.835399838266156
 20
108.5213234402691
 30
0.0
 40
0.4000000000000001
 50
90.000000000003922
 51
180.0
  0
LINE
  5
15F
  8
0
 10
73.435399838265994
 20
107.12132344026929
 30
0.0
 11
73.435399838265994
 21
120.1213234402689
 31
0.0
  0
LINE
  5
160
  8
0
 10
91.435399838266264
 20
121.62132344026919
 30
0.0
 11
91.435399838266264
 21
105.62132344026909
 31
0.0
  0
LINE
  5
161
  8
0
 10
99.435399838266235
 20
105.62132344026909
 30
0.0
 11
99.435399838266207
 21
121.62132344026919
 31
0.0
  0
LINE
  5
162
  8
0
 10
75.935399838266164
 20
118.12132344026929
 30
0.0
 11
75.935399838266164
 21
109.12132344026929
 31
0.0
  0
LINE
  5
163
  8
0
 10
73.435399838265994
 20
121.3213234402691
 30
0.0
 11
73.435399838265994
 21
105.92132344026921
 31
0.0
  0
LINE
  5
164
  8
0
 10
75.435399838266022
 20
121.3213234402691
 30
0.0
 11
75.435399838266022
 21
105.92132344026921
 31
0.0
  0
LINE
  5
165
  8
0
 10
76.435399838266164
 20
108.62132344026929
 30
0.0
 11
91.135399838266267
 21
108.62132344026929
 31
0.0
  0
LINE
  5
166
  8
0
 10
76.435399838266164
 20
108.62132344026929
 30
0.0
 11
75.935399838266164
 21
109.12132344026929
 31
0.0
  0
LINE
  5
167
  8
0
 10
75.435399838266022
 20
105.92132344026921
 30
0.0
 11
73.435399838265994
 21
105.92132344026921
 31
0.0
  0
LINE
  5
168
  8
0
 10
75.435399838266022
 20
110.62132344026919
 30
0.0
 11
75.535399838266244
 21
110.62132344026919
 31
0.0
  0
ARC
  5
169
  8
0
 10
75.535399838266244
 20
110.2213234402692
 30
0.0
 40
0.4000000000000001
 50
0.0
 51
89.999999999998764
  0
LINE
  5
16A
  8
0
 10
98.935399838266264
 20
105.12132344026909
 30
0.0
 11
91.935399838266235
 21
105.12132344026909
 31
0.0
  0
ARC
  5
16B
  8
0
 10
91.135399838266267
 20
108.3213234402693
 30
0.0
 40
0.3
 50
0.0
 51
90.0
  0
LINE
  5
16C
  8
0
 10
91.435399838266264
 20
105.62132344026909
 30
0.0
 11
91.935399838266235
 21
105.12132344026909
 31
0.0
  0
LINE
  5
16D
  8
0
 10
98.935399838266264
 20
105.12132344026909
 30
0.0
 11
99.435399838266235
 21
105.62132344026909
 31
0.0
  0
LINE
  5
16E
  8
0
 10
76.435399838266164
 20
118.62132344026929
 30
0.0
 11
91.135399838266238
 21
118.62132344026929
 31
0.0
  0
LINE
  5
16F
  8
0
 10
75.435399838266022
 20
116.62132344026909
 30
0.0
 11
75.535399838266244
 21
116.62132344026909
 31
0.0
  0
ARC
  5
170
  8
0
 10
75.535399838266244
 20
117.0213234402691
 30
0.0
 40
0.4000000000000001
 50
270.00000000000119
 51
0.0
  0
LINE
  5
171
  8
0
 10
75.935399838266164
 20
118.12132344026929
 30
0.0
 11
76.435399838266164
 21
118.62132344026929
 31
0.0
  0
LINE
  5
172
  8
0
 10
73.435399838265994
 20
121.3213234402691
 30
0.0
 11
75.435399838266022
 21
121.3213234402691
 31
0.0
  0
LINE
  5
173
  8
0
 10
98.935399838266264
 20
122.12132344026909
 30
0.0
 11
91.935399838266235
 21
122.12132344026909
 31
0.0
  0
ARC
  5
174
  8
0
 10
91.135399838266267
 20
118.92132344026891
 30
0.0
 40
0.3
 50
270.0
 51
0.0
  0
LINE
  5
175
  8
0
 10
91.935399838266235
 20
122.12132344026909
 30
0.0
 11
91.435399838266264
 21
121.62132344026919
 31
0.0
  0
LINE
  5
176
  8
0
 10
98.935399838266264
 20
122.12132344026909
 30
0.0
 11
99.435399838266235
 21
121.62132344026919
 31
0.0
  0
LINE
  5
177
  8
0
 10
112.18373378842681
 20
107.62132344026919
 30
0.0
 11
112.18373378842681
 21
119.62132344026909
 31
0.0
  0
LINE
  5
178
  8
0
 10
114.43539983826621
 20
118.3213234402691
 30
0.0
 11
114.43539983826621
 21
108.92132344026901
 31
0.0
  0
LINE
  5
179
  8
0
 10
105.18706588810549
 20
107.62132344026919
 30
0.0
 11
105.18706588810549
 21
119.62132344026909
 31
0.0
  0
LINE
  5
17A
  8
0
 10
102.93539983826609
 20
118.3213234402691
 30
0.0
 11
102.9353998382667
 21
108.92132344026911
 31
0.0
  0
LINE
  5
17B
  8
0
 10
114.43539983826621
 20
108.92132344026911
 30
0.0
 11
112.18373378842681
 21
107.62132344026919
 31
0.0
  0
LINE
  5
17C
  8
0
 10
105.18706588810549
 20
107.62132344026919
 30
0.0
 11
112.18373378842681
 21
107.62132344026919
 31
0.0
  0
LINE
  5
17D
  8
3
 10
103.5468137733378
 20
108.568323440269
 30
0.0
 11
113.8239859031946
 21
108.568323440269
 31
0.0
  0
LINE
  5
17E
  8
0
 10
105.18706588810549
 20
107.62132344026899
 30
0.0
 11
103.0282201612935
 21
108.8677336017829
 31
0.0
  0
ARC
  5
17F
  8
0
 10
102.8282201612934
 20
108.5213234402691
 30
0.0
 40
0.4000000000000001
 50
60.000000000000817
 51
90.000000000003837
  0
LINE
  5
180
  8
0
 10
102.8282201612934
 20
108.92132344026911
 30
0.0
 11
99.835399838266156
 21
108.92132344026911
 31
0.0
  0
LINE
  5
181
  8
0
 10
114.43539983826621
 20
118.3213234402691
 30
0.0
 11
112.18373378842681
 21
119.62132344026909
 31
0.0
  0
LINE
  5
182
  8
0
 10
105.18706588810549
 20
119.62132344026919
 30
0.0
 11
112.18373378842681
 21
119.62132344026909
 31
0.0
  0
LINE
  5
183
  8
3
 10
103.5468137733378
 20
118.67432344026921
 30
0.0
 11
113.8239859031946
 21
118.67432344026921
 31
0.0
  0
LINE
  5
184
  8
0
 10
105.18706588810549
 20
119.62132344026909
 30
0.0
 11
103.0282201612935
 21
118.3749132787553
 31
0.0
  0
ARC
  5
185
  8
0
 10
102.8282201612937
 20
118.7213234402692
 30
0.0
 40
0.4000000000000001
 50
269.99999999999523
 51
300.0000000000004
  0
LINE
  5
186
  8
0
 10
102.8282201612937
 20
118.321323440269
 30
0.0
 11
99.835399838266156
 21
118.3213234402691
 31
0.0
  0
CIRCLE
  5
187
  8
3
 10
142.93539983826631
 20
73.621323440269137
 30
0.0
 40
5.0530000000000541
  0
CIRCLE
  5
188
  8
0
 10
142.93539983826631
 20
73.621323440269137
 30
0.0
 40
5.9999999999999281
  0
CIRCLE
  5
189
  8
0
 10
142.93539983826631
 20
73.621323440269137
 30
0.0
 40
4.6999999999999877
  0
LINE
  5
18A
  8
0
 10
151.43539983826631
 20
68.353496563842768
 30
0.0
 11
151.43539983826631
 21
78.889150316695492
 31
0.0
  0
LINE
  5
18B
  8
0
 10
134.43539983826631
 20
68.353496563842768
 30
0.0
 11
134.43539983826631
 21
78.889150316695492
 31
0.0
  0
LINE
  5
18C
  8
1
 10
142.93539983826631
 20
67.621323440269137
 30
0.0
 11
142.93539983826631
 21
79.621323440269123
 31
0.0
  0
LINE
  5
18D
  8
1
 10
142.93539983826631
 20
86.621323440269137
 30
0.0
 11
142.93539983826631
 21
60.62132344026913
 31
0.0
  0
ARC
  5
18E
  8
0
 10
142.93539983826631
 20
73.621323440269137
 30
0.0
 40
10.0
 50
211.78833061705171
 51
328.21166938294829
  0
LINE
  5
18F
  8
1
 10
136.93539983826619
 20
73.621323440269137
 30
0.0
 11
148.93539983826631
 21
73.621323440269137
 31
0.0
  0
ARC
  5
190
  8
0
 10
142.93539983826631
 20
73.621323440269137
 30
0.0
 40
10.0
 50
31.788330617051681
 51
148.21166938294829
  0
LINE
  5
191
  8
1
 10
154.43539983826619
 20
73.621323440269123
 30
0.0
 11
131.43539983826619
 21
73.621323440269137
 31
0.0
  0
TEXT
  5
272
  8
0
 62
     3
 10
0.0
 20
0.0
 30
0.0
 40
10.0
  1
RLB1016
  7
STANDARD1
  0
ENDSEC
  0
EOF
