  0
SECTION
  2
HEADER
  9
$ACADVER
  1
AC1009
  9
$INSBASE
 10
0.0
 20
0.0
 30
0.0
  9
$EXTMIN
 10
0.0
 20
-2.960436562073669
 30
0.0
  9
$EXTMAX
 10
146.86215063719089
 20
97.334963339341499
 30
0.0
  9
$LIMMIN
 10
0.0
 20
0.0
  9
$LIMMAX
 10
187.5
 20
135.0
  9
$ORTHOMODE
 70
     1
  9
$REGENMODE
 70
     1
  9
$FILLMODE
 70
     1
  9
$QTEXTMODE
 70
     0
  9
$MIRRTEXT
 70
     0
  9
$DRAGMODE
 70
     2
  9
$LTSCALE
 40
2.5
  9
$OSMODE
 70
    37
  9
$ATTMODE
 70
     1
  9
$TEXTSIZE
 40
0.2
  9
$TRACEWID
 40
0.05
  9
$TEXTSTYLE
  7
STANDARD
  9
$CLAYER
  8
0
  9
$CELTYPE
  6
BYLAYER
  9
$CECOLOR
 62
   256
  9
$DIMSCALE
 40
0.5
  9
$DIMASZ
 40
3.0
  9
$DIMEXO
 40
2.0
  9
$DIMDLI
 40
0.3799999999999999
  9
$DIMRND
 40
0.0
  9
$DIMDLE
 40
0.0
  9
$DIMEXE
 40
2.0
  9
$DIMTP
 40
0.0
  9
$DIMTM
 40
0.0
  9
$DIMTXT
 40
3.2000000000000002
  9
$DIMCEN
 40
0.09
  9
$DIMTSZ
 40
0.0
  9
$DIMTOL
 70
     0
  9
$DIMLIM
 70
     0
  9
$DIMTIH
 70
     0
  9
$DIMTOH
 70
     0
  9
$DIMSE1
 70
     0
  9
$DIMSE2
 70
     0
  9
$DIMTAD
 70
     1
  9
$DIMZIN
 70
     0
  9
$DIMBLK
  1

  9
$DIMASO
 70
     0
  9
$DIMSHO
 70
     0
  9
$DIMPOST
  1

  9
$DIMAPOST
  1

  9
$DIMALT
 70
     0
  9
$DIMALTD
 70
     2
  9
$DIMALTF
 40
25.399999999999999
  9
$DIMLFAC
 40
1.0
  9
$DIMTOFL
 70
     0
  9
$DIMTVP
 40
1.6000000000000001
  9
$DIMTIX
 70
     1
  9
$DIMSOXD
 70
     0
  9
$DIMSAH
 70
     0
  9
$DIMBLK1
  1

  9
$DIMBLK2
  1

  9
$DIMSTYLE
  2
STANDARD
  9
$DIMCLRD
 70
     0
  9
$DIMCLRE
 70
     0
  9
$DIMCLRT
 70
     0
  9
$DIMTFAC
 40
1.0
  9
$DIMGAP
 40
0.09
  9
$LUNITS
 70
     2
  9
$LUPREC
 70
     4
  9
$SKETCHINC
 40
0.1
  9
$FILLETRAD
 40
0.4
  9
$AUNITS
 70
     0
  9
$AUPREC
 70
     0
  9
$MENU
  1
E:\r13\win\SUPPORT\ACAD
  9
$ELEVATION
 40
0.0
  9
$PELEVATION
 40
0.0
  9
$THICKNESS
 40
0.0
  9
$LIMCHECK
 70
     0
  9
$BLIPMODE
 70
     0
  9
$CHAMFERA
 40
0.0
  9
$CHAMFERB
 40
0.0
  9
$SKPOLY
 70
     0
  9
$TDCREATE
 40
2451824.6906229062
  9
$TDUPDATE
 40
2457436.593851435
  9
$TDINDWG
 40
0.0654556597
  9
$TDUSRTIMER
 40
0.0654556597
  9
$USRTIMER
 70
     1
  9
$ANGBASE
 50
0.0
  9
$ANGDIR
 70
     0
  9
$PDMODE
 70
     0
  9
$PDSIZE
 40
0.0
  9
$PLINEWID
 40
0.0
  9
$COORDS
 70
     1
  9
$SPLFRAME
 70
     0
  9
$SPLINETYPE
 70
     6
  9
$SPLINESEGS
 70
     8
  9
$ATTDIA
 70
     0
  9
$ATTREQ
 70
     1
  9
$HANDLING
 70
     1
  9
$HANDSEED
  5
563
  9
$SURFTAB1
 70
     6
  9
$SURFTAB2
 70
     6
  9
$SURFTYPE
 70
     6
  9
$SURFU
 70
     6
  9
$SURFV
 70
     6
  9
$UCSNAME
  2

  9
$UCSORG
 10
0.0
 20
0.0
 30
0.0
  9
$UCSXDIR
 10
1.0
 20
0.0
 30
0.0
  9
$UCSYDIR
 10
0.0
 20
1.0
 30
0.0
  9
$PUCSNAME
  2

  9
$PUCSORG
 10
0.0
 20
0.0
 30
0.0
  9
$PUCSXDIR
 10
1.0
 20
0.0
 30
0.0
  9
$PUCSYDIR
 10
0.0
 20
1.0
 30
0.0
  9
$USERI1
 70
     0
  9
$USERI2
 70
     1
  9
$USERI3
 70
     0
  9
$USERI4
 70
     0
  9
$USERI5
 70
     0
  9
$USERR1
 40
0.0
  9
$USERR2
 40
0.0
  9
$USERR3
 40
0.0
  9
$USERR4
 40
0.0
  9
$USERR5
 40
0.0
  9
$WORLDVIEW
 70
     1
  9
$SHADEDGE
 70
     3
  9
$SHADEDIF
 70
    70
  9
$TILEMODE
 70
     1
  9
$MAXACTVP
 70
    16
  9
$PLIMCHECK
 70
     0
  9
$PEXTMIN
 10
1.0000000000000000E+020
 20
1.0000000000000000E+020
 30
1.0000000000000000E+020
  9
$PEXTMAX
 10
-1.0000000000000000E+020
 20
-1.0000000000000000E+020
 30
-1.0000000000000000E+020
  9
$PLIMMIN
 10
0.0
 20
0.0
  9
$PLIMMAX
 10
12.0
 20
9.0
  9
$UNITMODE
 70
     0
  9
$VISRETAIN
 70
     0
  9
$PLINEGEN
 70
     0
  9
$PSLTSCALE
 70
     0
  0
ENDSEC
  0
SECTION
  2
TABLES
  0
TABLE
  2
VPORT
 70
     1
  0
VPORT
  2
*ACTIVE
 70
     0
 10
0.0
 20
0.0
 11
1.0
 21
1.0
 12
172.54273504273499
 22
95.0
 13
0.0
 23
0.0
 14
5.0
 24
5.0
 15
5.0
 25
5.0
 16
0.0
 26
0.0
 36
1.0
 17
0.0
 27
0.0
 37
0.0
 40
190.0
 41
1.816239316239316
 42
50.0
 43
0.0
 44
0.0
 50
0.0
 51
0.0
 71
     0
 72
   500
 73
     1
 74
     0
 75
     0
 76
     0
 77
     0
 78
     2
  0
ENDTAB
  0
TABLE
  2
LTYPE
 70
     4
  0
LTYPE
  2
CONTINUOUS
 70
     0
  3
Solid Line
 72
    65
 73
     0
 40
0.0
  0
LTYPE
  2
CENTER
 70
     0
  3
____ _ ____ _ ____ _ ____ _ ____ _ ____ _ ____
 72
    65
 73
     4
 40
2.0
 49
1.25
 49
-0.25
 49
0.25
 49
-0.25
  0
LTYPE
  2
HIDDEN
 70
     0
  3
__ __ __ __ __ __ __ __ __ __ __ __ __ __ __ __
 72
    65
 73
     2
 40
0.375
 49
0.25
 49
-0.125
  0
LTYPE
  2
PHANTOM2
 70
     0
  3
___ _ _ ___ _ _ ___ _ _ ___ _ _
 72
    65
 73
     6
 40
1.25
 49
0.625
 49
-0.125
 49
0.125
 49
-0.125
 49
0.125
 49
-0.125
  0
ENDTAB
  0
TABLE
  2
LAYER
 70
     4
  0
LAYER
  2
0
 70
     0
 62
     7
  6
CONTINUOUS
  0
LAYER
  2
1
 70
     0
 62
     1
  6
CENTER
  0
LAYER
  2
2
 70
     0
 62
     2
  6
HIDDEN
  0
LAYER
  2
3
 70
     0
 62
     3
  6
CONTINUOUS
  0
ENDTAB
  0
TABLE
  2
STYLE
 70
     2
  0
STYLE
  2
STANDARD
 70
     0
 40
0.0
 41
1.0
 50
0.0
 71
     0
 42
0.2
  3
TXT
  4
BIGFONT
  0
STYLE
  2
STANDARD1
 70
     0
 40
0.0
 41
1.0
 50
0.0
 71
     0
 42
3.0
  3
txt
  4

  0
ENDTAB
  0
TABLE
  2
VIEW
 70
     0
  0
ENDTAB
  0
TABLE
  2
UCS
 70
     0
  0
ENDTAB
  0
TABLE
  2
APPID
 70
     4
  0
APPID
  2
ACAD
 70
     0
  0
APPID
  2
ACAD_MLEADERVER
 70
     0
  0
APPID
  2
ACAD_EXEMPT_FROM_CAD_STANDARDS
 70
     0
  0
APPID
  2
ACAD_NAV_VCDISPLAY
 70
     0
  0
ENDTAB
  0
TABLE
  2
DIMSTYLE
 70
     1
  0
DIMSTYLE
  2
STANDARD
 70
     0
  3

  4

  5

  6

  7

 40
1.0
 41
0.18
 42
0.0625
 43
0.38
 44
0.18
 45
0.0
 46
0.0
 47
0.0
 48
0.0
140
0.18
141
0.09
142
0.0
143
25.399999999999999
144
1.0
145
0.0
146
1.0
147
0.09
 71
     0
 72
     0
 73
     1
 74
     1
 75
     0
 76
     0
 77
     0
 78
     0
170
     0
171
     2
172
     0
173
     0
174
     0
175
     0
176
     0
177
     0
178
     0
  0
ENDTAB
  0
ENDSEC
  0
SECTION
  2
BLOCKS
  0
BLOCK
  8
0
  2
$MODEL_SPACE
 70
     0
 10
0.0
 20
0.0
 30
0.0
  3
$MODEL_SPACE
  1

  0
ENDBLK
  5
9
  8
0
  0
BLOCK
 67
     1
  8
0
  2
$PAPER_SPACE
 70
     0
 10
0.0
 20
0.0
 30
0.0
  3
$PAPER_SPACE
  1

  0
ENDBLK
  5
E
 67
     1
  8
0
  0
ENDSEC
  0
SECTION
  2
ENTITIES
  0
LINE
  5
17D
  8
0
 10
81.340680681985646
 20
45.552059575621598
 30
0.0
 11
81.196343114688432
 21
45.802059575621307
 31
0.0
  0
CIRCLE
  5
17E
  8
0
 10
36.71343935590599
 20
86.752059575621317
 30
0.0
 40
6.75
  0
LINE
  5
17F
  8
0
 10
81.965895464324603
 20
94.834963344275081
 30
0.0
 11
81.196343114688474
 21
93.502059575621274
 31
0.0
  0
ARC
  5
180
  8
0
 10
80.89634311468842
 20
56.852059575621382
 30
0.0
 40
0.3
 50
270.0
 51
0.0
  0
LINE
  5
181
  8
0
 10
75.196343114688375
 20
56.552059575621342
 30
0.0
 11
80.89634311468842
 21
56.552059575621371
 31
0.0
  0
LINE
  5
182
  8
0
 10
80.89634311468842
 20
56.552059575621371
 30
0.0
 11
80.89634311468842
 21
48.552059575621371
 31
0.0
  0
ARC
  5
183
  8
0
 10
80.896343114688463
 20
48.252059575621359
 30
0.0
 40
0.3
 50
0.0
 51
90.0
  0
LINE
  5
184
  8
0
 10
80.896343114688463
 20
48.552059575621371
 30
0.0
 11
75.196343114688375
 21
48.552059575621371
 31
0.0
  0
LINE
  5
185
  8
0
 10
74.696343114688375
 20
49.052059575621371
 30
0.0
 11
74.696343114688375
 21
56.052059575621342
 31
0.0
  0
LINE
  5
186
  8
0
 10
75.196343114688375
 20
48.552059575621371
 30
0.0
 11
74.696343114688375
 21
49.052059575621371
 31
0.0
  0
LINE
  5
187
  8
0
 10
74.696343114688375
 20
56.052059575621342
 30
0.0
 11
75.196343114688375
 21
56.552059575621342
 31
0.0
  0
LINE
  5
188
  8
0
 10
75.196343114688375
 20
56.552059575621342
 30
0.0
 11
75.196343114688375
 21
48.552059575621371
 31
0.0
  0
LINE
  5
189
  8
1
 10
125.6963431097506
 20
87.552059575621342
 30
0.0
 11
146.86215063719089
 21
87.552059575621342
 31
0.0
  0
LINE
  5
18A
  8
1
 10
26.130535597123579
 20
87.552059575621342
 30
0.0
 11
47.296343114688391
 21
87.552059575621342
 31
0.0
  0
LINE
  5
18B
  8
0
 10
143.2792468649244
 20
90.793511455014098
 30
0.0
 11
143.2792468649244
 21
82.710607686360589
 31
0.0
  0
LINE
  5
18C
  8
0
 10
143.27924686491929
 20
82.710607692934587
 30
0.0
 11
136.2792468649244
 21
78.669155808607201
 31
0.0
  0
LINE
  5
18D
  8
0
 10
136.27924687062369
 20
78.669155811901192
 30
0.0
 11
129.27924687062369
 21
82.710607696227328
 31
0.0
  0
LINE
  5
18E
  8
0
 10
129.27924687631781
 20
82.710607692939675
 30
0.0
 11
129.27924687631781
 21
90.793511461593198
 31
0.0
  0
LINE
  5
18F
  8
0
 10
129.27924687631781
 20
90.793511455014098
 30
0.0
 11
136.27924687631781
 21
94.834963339341499
 31
0.0
  0
LINE
  5
190
  8
0
 10
136.27924687062369
 20
94.834963336047508
 30
0.0
 11
143.27924687062369
 21
90.793511451721386
 31
0.0
  0
LINE
  5
191
  8
1
 10
125.6963431097506
 20
86.752059575621317
 30
0.0
 11
146.86215063719089
 21
86.752059575621317
 31
0.0
  0
LINE
  5
192
  8
1
 10
26.130535597123579
 20
86.752059575621317
 30
0.0
 11
47.296343114688391
 21
86.752059575621317
 31
0.0
  0
LINE
  5
193
  8
1
 10
105.6963431146884
 20
86.752059575621317
 30
0.0
 11
67.296343114688383
 21
86.752059575621317
 31
0.0
  0
LINE
  5
194
  8
0
 10
80.89634311468842
 20
90.752059575621359
 30
0.0
 11
80.89634311468842
 21
82.752059575621345
 31
0.0
  0
ARC
  5
195
  8
0
 10
80.896343114688463
 20
82.452059575621334
 30
0.0
 40
0.3
 50
0.0
 51
90.0
  0
ARC
  5
196
  8
0
 10
80.89634311468842
 20
91.052059575621371
 30
0.0
 40
0.3
 50
270.0
 51
0.0
  0
ARC
  5
197
  8
0
 10
84.929935419570938
 20
80.689881749131331
 30
0.0
 40
3.5781518477922791
 50
145.61575253195949
 51
208.7474523055804
  0
ARC
  5
198
  8
0
 10
94.726568789431965
 20
86.752059575623065
 30
0.0
 40
13.37478521765334
 50
162.4120462260021
 51
197.5879537740079
  0
LINE
  5
199
  8
0
 10
81.965895464324603
 20
78.669155806967581
 30
0.0
 11
81.196343114688474
 21
80.002059575621388
 31
0.0
  0
LINE
  5
19A
  8
0
 10
81.96589546432466
 20
78.669155806967552
 30
0.0
 11
92.426790765052175
 21
78.669155806967609
 31
0.0
  0
LINE
  5
19B
  8
0
 10
81.976998354117868
 20
82.710607691296744
 30
0.0
 11
92.415687875257916
 21
82.710607691293845
 31
0.0
  0
LINE
  5
19C
  8
0
 10
81.976998354117868
 20
90.793511459947354
 30
0.0
 11
92.415687875258513
 21
90.793511459950395
 31
0.0
  0
LINE
  5
19D
  8
0
 10
81.965895464325456
 20
94.834963344276588
 30
0.0
 11
92.426790765051265
 21
94.83496334427663
 31
0.0
  0
ARC
  5
19E
  8
0
 10
84.929935419570938
 20
92.814237402112838
 30
0.0
 40
3.5781518477922791
 50
151.25254769495999
 51
214.38424746804051
  0
LINE
  5
19F
  8
0
 10
81.196343114688474
 20
80.002059575621345
 30
0.0
 11
81.196343114688318
 21
93.482828806389705
 31
0.0
  0
LINE
  5
1A1
  8
0
 10
81.340680681985646
 20
59.552059575621087
 30
0.0
 11
81.196343114688432
 21
59.302059575621371
 31
0.0
  0
ARC
  5
1A2
  8
0
 10
91.461024332815668
 20
56.052059575621122
 30
0.0
 40
10.10924076103711
 50
159.74384199958311
 51
200.25615800041689
  0
LINE
  5
1A3
  8
0
 10
81.340680681985674
 20
59.552059575621108
 30
0.0
 11
93.052005547391104
 21
59.552059575621087
 31
0.0
  0
LINE
  5
1A4
  8
0
 10
81.976998354118294
 20
52.552059575621307
 30
0.0
 11
92.415687875258925
 21
52.552059575621307
 31
0.0
  0
LINE
  5
1A5
  8
0
 10
81.340680681985717
 20
45.552059575621598
 30
0.0
 11
93.052005547391119
 21
45.55205957562157
 31
0.0
  0
ARC
  5
1A6
  8
0
 10
91.461024332815668
 20
49.052059575621591
 30
0.0
 40
10.10924076103711
 50
159.74384199958311
 51
200.25615800041689
  0
LINE
  5
1A7
  8
0
 10
81.196343114688403
 20
45.802059575621307
 30
0.0
 11
81.196343114688432
 21
59.302059575621342
 31
0.0
  0
LINE
  5
1A9
  8
0
 10
36.713439353058902
 20
94.834963336047508
 30
0.0
 11
43.713439353058902
 21
90.793511451721386
 31
0.0
  0
LINE
  5
1AA
  8
0
 10
29.713439358753082
 20
90.793511455014098
 30
0.0
 11
36.713439358753078
 21
94.834963339341499
 31
0.0
  0
LINE
  5
1AB
  8
0
 10
29.713439358753082
 20
82.710607692939675
 30
0.0
 11
29.713439358753082
 21
90.793511461593198
 31
0.0
  0
LINE
  5
1AC
  8
0
 10
36.713439353058902
 20
78.669155811901192
 30
0.0
 11
29.713439353058899
 21
82.710607696227328
 31
0.0
  0
LINE
  5
1AD
  8
0
 10
43.713439347354552
 20
82.710607692934587
 30
0.0
 11
36.713439347359639
 21
78.669155808607201
 31
0.0
  0
LINE
  5
1AE
  8
0
 10
43.713439347359632
 20
90.793511455014098
 30
0.0
 11
43.713439347359632
 21
82.710607686360589
 31
0.0
  0
LINE
  5
1AF
  8
0
 10
75.196343114688375
 20
90.752059575621331
 30
0.0
 11
75.196343114688375
 21
82.752059575621345
 31
0.0
  0
LINE
  5
1B0
  8
0
 10
74.696343114688375
 20
90.252059575621345
 30
0.0
 11
75.196343114688375
 21
90.752059575621331
 31
0.0
  0
LINE
  5
1B1
  8
0
 10
75.196343114688375
 20
82.752059575621345
 30
0.0
 11
74.696343114688375
 21
83.252059575621359
 31
0.0
  0
LINE
  5
1B2
  8
0
 10
74.696343114688375
 20
83.252059575621359
 30
0.0
 11
74.696343114688375
 21
90.252059575621345
 31
0.0
  0
LINE
  5
1B3
  8
0
 10
80.896343114688463
 20
82.752059575621345
 30
0.0
 11
75.196343114688375
 21
82.752059575621345
 31
0.0
  0
LINE
  5
1B4
  8
0
 10
75.196343114688375
 20
90.752059575621331
 30
0.0
 11
80.89634311468842
 21
90.752059575621359
 31
0.0
  0
LINE
  5
1B5
  8
1
 10
105.6963431146884
 20
87.552059575621342
 30
0.0
 11
67.296343114688383
 21
87.552059575621342
 31
0.0
  0
CIRCLE
  5
1B6
  8
0
 10
36.71343935590599
 20
87.552059575621342
 30
0.0
 40
1.8499999999997241
  0
CIRCLE
  5
1B7
  8
0
 10
36.71343935590599
 20
87.552059575621342
 30
0.0
 40
4.75
  0
LINE
  5
1B8
  8
0
 10
35.21343935590582
 20
88.418084979405648
 30
0.0
 11
35.213439355906161
 21
86.686034171837036
 31
0.0
  0
LINE
  5
1B9
  8
0
 10
36.71343935590599
 20
89.284110383190296
 30
0.0
 11
35.21343935590582
 21
88.418084979405648
 31
0.0
  0
LINE
  5
1BA
  8
0
 10
38.21343935590599
 20
88.418084979406174
 30
0.0
 11
36.71343935590599
 21
89.284110383190296
 31
0.0
  0
LINE
  5
1BB
  8
0
 10
38.21343935590599
 20
86.686034171837036
 30
0.0
 11
38.21343935590599
 21
88.418084979406174
 31
0.0
  0
LINE
  5
1BC
  8
0
 10
36.713439355906161
 20
85.82000876805256
 30
0.0
 11
38.21343935590599
 21
86.686034171837036
 31
0.0
  0
LINE
  5
1BD
  8
0
 10
35.213439355906161
 20
86.686034171837036
 30
0.0
 11
36.713439355906161
 21
85.82000876805256
 31
0.0
  0
LINE
  5
1BE
  8
0
 10
72.696343114688659
 20
82.802059575621286
 30
0.0
 11
73.196343114688375
 21
82.802059575621286
 31
0.0
  0
ARC
  5
1BF
  8
0
 10
72.794729371408891
 20
85.800445832341836
 30
0.0
 40
3.0
 50
181.87937608362191
 51
268.12062391601961
  0
ARC
  5
1C0
  8
0
 10
72.794729371408891
 20
89.303673318900806
 30
0.0
 40
3.0
 50
91.879376083980418
 51
178.12062391637639
  0
LINE
  5
1C1
  8
0
 10
69.796343114688383
 20
85.702059575640078
 30
0.0
 11
69.796343114688383
 21
89.402059575621024
 31
0.0
  0
LINE
  5
1C2
  8
0
 10
72.696343114688375
 20
82.802059575621286
 30
0.0
 11
72.696343114688375
 21
92.302059575621286
 31
0.0
  0
LINE
  5
1C3
  8
0
 10
72.696343114688659
 20
92.302059575621286
 30
0.0
 11
73.196343114688375
 21
92.302059575621286
 31
0.0
  0
LINE
  5
1C4
  8
2
 10
79.196343114688375
 20
85.485059575621165
 30
0.0
 11
78.446365115011417
 21
85.052059575621342
 31
0.0
  0
LINE
  5
1C5
  8
0
 10
102.2963431146883
 20
90.052059575621286
 30
0.0
 11
102.2963431146883
 21
85.052059575621286
 31
0.0
  0
LINE
  5
1C6
  8
0
 10
103.1963431146883
 20
85.952059575621277
 30
0.0
 11
102.2963431146884
 21
85.052059575621286
 31
0.0
  0
LINE
  5
1C7
  8
0
 10
102.2963431146884
 20
90.052059575621286
 30
0.0
 11
103.1963431146883
 21
89.152059575621251
 31
0.0
  0
LINE
  5
1C8
  8
2
 10
79.196343114688375
 20
89.619059575621577
 30
0.0
 11
78.446365115011417
 21
90.052059575621342
 31
0.0
  0
LINE
  5
1C9
  8
2
 10
79.196343114688375
 20
90.052059575621342
 30
0.0
 11
79.196343114688375
 21
85.052059575621342
 31
0.0
  0
LINE
  5
1CA
  8
0
 10
103.1963431146883
 20
89.152059575621251
 30
0.0
 11
103.1963431146883
 21
85.952059575621277
 31
0.0
  0
LINE
  5
1CB
  8
2
 10
73.196343114688375
 20
90.052059575621286
 30
0.0
 11
74.196343114688375
 21
90.052059575621342
 31
0.0
  0
LINE
  5
1CC
  8
2
 10
79.196343114688375
 20
89.61905957562152
 30
0.0
 11
93.196343114688489
 21
89.61905957562152
 31
0.0
  0
LINE
  5
1CD
  8
2
 10
79.196343114688375
 20
85.485059575621108
 30
0.0
 11
93.196343114688489
 21
85.485059575621108
 31
0.0
  0
LINE
  5
1CE
  8
2
 10
73.196343114688375
 20
85.052059575621286
 30
0.0
 11
74.196343114688375
 21
85.052059575621229
 31
0.0
  0
LINE
  5
1CF
  8
0
 10
73.196343114688375
 20
82.802059575621286
 30
0.0
 11
73.196343114688375
 21
92.302059575621286
 31
0.0
  0
CIRCLE
  5
1D0
  8
0
 10
36.71343935590599
 20
87.552059575621342
 30
0.0
 40
5.0
  0
LINE
  5
1D1
  8
0
 10
73.196343114688375
 20
82.552059575621286
 30
0.0
 11
74.196343114688375
 21
82.552059575621286
 31
0.0
  0
LINE
  5
1D2
  8
0
 10
73.196343114688375
 20
92.552059575621286
 30
0.0
 11
74.196343114688375
 21
92.552059575621286
 31
0.0
  0
LINE
  5
1D3
  8
0
 10
73.196343114688375
 20
92.552059575621286
 30
0.0
 11
73.196343114688375
 21
82.552059575621286
 31
0.0
  0
LINE
  5
1D4
  8
0
 10
74.196343114688375
 20
92.552059575621286
 30
0.0
 11
74.196343114688375
 21
82.552059575621286
 31
0.0
  0
LINE
  5
1D5
  8
1
 10
36.71343935590599
 20
76.169155816838924
 30
0.0
 11
36.71343935590599
 21
97.334963334403739
 31
0.0
  0
LINE
  5
1D6
  8
0
 10
96.496343114688557
 20
87.72622655070154
 30
0.0
 11
95.196343114688474
 21
87.377892600541145
 31
0.0
  0
LINE
  5
1D7
  8
0
 10
96.496343114688514
 20
92.152059575621365
 30
0.0
 11
96.496343114688514
 21
82.952059575621305
 31
0.0
  0
LINE
  5
1D8
  8
0
 10
95.196343114688474
 20
92.152059575621365
 30
0.0
 11
96.496343114688514
 21
92.152059575621365
 31
0.0
  0
LINE
  5
1D9
  8
0
 10
95.196343114688474
 20
82.952059575621305
 30
0.0
 11
95.196343114688474
 21
92.152059575621365
 31
0.0
  0
LINE
  5
1DA
  8
0
 10
96.496343114688514
 20
82.952059575621305
 30
0.0
 11
95.196343114688474
 21
82.952059575621305
 31
0.0
  0
LINE
  5
1DB
  8
0
 10
96.496343114688514
 20
83.552059575621456
 30
0.0
 11
96.496343114688514
 21
91.552059575621215
 31
0.0
  0
LINE
  5
1DC
  8
0
 10
100.4386080877688
 20
83.552059575621342
 30
0.0
 11
100.4963431146885
 21
83.652059575622715
 31
0.0
  0
ARC
  5
1DD
  8
0
 10
94.661899081441163
 20
85.552059575621357
 30
0.0
 40
5.7767090063276196
 50
339.74384199965777
 51
20.2561580003422
  0
LINE
  5
1DE
  8
0
 10
100.4386080877688
 20
83.552059575621186
 30
0.0
 11
96.496343114688514
 21
83.552059575621456
 31
0.0
  0
LINE
  5
1DF
  8
0
 10
100.4386080877688
 20
91.552059575621499
 30
0.0
 11
96.496343114688514
 21
91.552059575621215
 31
0.0
  0
ARC
  5
1E0
  8
0
 10
94.661899081441163
 20
89.552059575621328
 30
0.0
 40
5.7767090063276196
 50
339.74384199965777
 51
20.2561580003422
  0
LINE
  5
1E1
  8
0
 10
100.4386080877688
 20
91.552059575621342
 30
0.0
 11
100.4963431146885
 21
91.452059575619955
 31
0.0
  0
LINE
  5
1E2
  8
0
 10
100.4963431146885
 20
83.652059575622715
 30
0.0
 11
100.4963431146885
 21
91.452059575620012
 31
0.0
  0
LINE
  5
1E3
  8
0
 10
96.496343114688557
 20
87.552059575625137
 30
0.0
 11
100.0813424978619
 21
87.552059575614066
 31
0.0
  0
CIRCLE
  5
1E4
  8
0
 10
136.27924687347081
 20
87.552059575621342
 30
0.0
 40
3.8999999999999999
  0
LINE
  5
1E5
  8
0
 10
131.6604447199538
 20
87.552059575621286
 30
0.0
 11
133.96984579671221
 21
83.552059575621342
 31
0.0
  0
LINE
  5
1E6
  8
0
 10
133.96984579671229
 20
91.552059575621342
 30
0.0
 11
131.6604447199538
 21
87.552059575621286
 31
0.0
  0
LINE
  5
1E7
  8
0
 10
138.58864795022919
 20
91.552059575621286
 30
0.0
 11
133.96984579671229
 21
91.552059575621342
 31
0.0
  0
LINE
  5
1E8
  8
0
 10
140.89804902698771
 20
87.552059575621286
 30
0.0
 11
138.58864795022919
 21
91.552059575621286
 31
0.0
  0
LINE
  5
1E9
  8
0
 10
138.58864795022919
 20
83.552059575621342
 30
0.0
 11
140.89804902698771
 21
87.552059575621286
 31
0.0
  0
LINE
  5
1EA
  8
0
 10
133.96984579671221
 20
83.552059575621342
 30
0.0
 11
138.58864795022919
 21
83.552059575621342
 31
0.0
  0
CIRCLE
  5
1EB
  8
0
 10
136.27924687347081
 20
87.552059575621342
 30
0.0
 40
2.0669999999999988
  0
CIRCLE
  5
1EC
  8
3
 10
136.27924687347081
 20
87.552059575621342
 30
0.0
 40
2.5
  0
LINE
  5
1ED
  8
2
 10
74.696343114688318
 20
90.052059575621342
 30
0.0
 11
93.196343114688489
 21
90.052059575621229
 31
0.0
  0
LINE
  5
1EE
  8
2
 10
74.696343114688432
 20
85.052059575621286
 30
0.0
 11
93.196343114688489
 21
85.052059575621286
 31
0.0
  0
LINE
  5
1EF
  8
0
 10
74.196343114688375
 20
90.052059575621342
 30
0.0
 11
74.696343114688318
 21
90.052059575621342
 31
0.0
  0
LINE
  5
1F0
  8
0
 10
74.196343114688375
 20
85.052059575621229
 30
0.0
 11
74.696343114688432
 21
85.052059575621286
 31
0.0
  0
LINE
  5
1F1
  8
0
 10
93.196343114688489
 20
90.052059575621286
 30
0.0
 11
95.196343114688474
 21
90.052059575621286
 31
0.0
  0
LINE
  5
1F2
  8
3
 10
93.196343114688489
 20
89.619059575621577
 30
0.0
 11
95.196343114688474
 21
89.61905957562152
 31
0.0
  0
LINE
  5
1F3
  8
3
 10
93.196343114688489
 20
85.485059575621037
 30
0.0
 11
95.196343114688474
 21
85.485059575621108
 31
0.0
  0
LINE
  5
1F4
  8
0
 10
93.196343114688489
 20
85.052059575621286
 30
0.0
 11
95.196343114688474
 21
85.052059575621229
 31
0.0
  0
LINE
  5
1F5
  8
2
 10
95.196343114688545
 20
90.052059575621286
 30
0.0
 11
100.4963431146885
 21
90.052059575621286
 31
0.0
  0
LINE
  5
1F6
  8
2
 10
95.196343114688545
 20
89.61905957562152
 30
0.0
 11
100.4963431146885
 21
89.619059575621392
 31
0.0
  0
LINE
  5
1F7
  8
2
 10
95.196343114688474
 20
85.485059575621108
 30
0.0
 11
100.4963431146885
 21
85.485059575621108
 31
0.0
  0
LINE
  5
1F8
  8
2
 10
95.196343114688545
 20
85.052059575621229
 30
0.0
 11
100.4963431146885
 21
85.052059575621385
 31
0.0
  0
LINE
  5
1F9
  8
1
 10
136.27924687347081
 20
76.169155811901163
 30
0.0
 11
136.27924687347081
 21
97.334963339341499
 31
0.0
  0
ARC
  5
1FA
  8
0
 10
136.27924687347081
 20
87.552059575621342
 30
0.0
 40
4.5999999999999508
 50
120.4081542060494
 51
179.59184579395139
  0
ARC
  5
1FB
  8
0
 10
136.27924687347081
 20
87.552059575621342
 30
0.0
 40
4.5999999999999508
 50
60.408154206049559
 51
119.59184579394901
  0
ARC
  5
1FC
  8
0
 10
136.27924687347081
 20
87.552059575621342
 30
0.0
 40
4.5999999999999508
 50
0.4081542060469669
 51
59.591845793950533
  0
ARC
  5
1FD
  8
0
 10
136.27924687347081
 20
87.552059575621342
 30
0.0
 40
4.5999999999999508
 50
300.4081542060494
 51
359.5918457939498
  0
ARC
  5
1FE
  8
0
 10
136.27924687347081
 20
87.552059575621342
 30
0.0
 40
4.5999999999999508
 50
240.40815420605091
 51
299.59184579394901
  0
ARC
  5
1FF
  8
0
 10
136.27924687347081
 20
87.552059575621342
 30
0.0
 40
4.5999999999999508
 50
180.4081542060502
 51
239.5918457939492
  0
LINE
  5
204
  8
0
 10
93.196343114688489
 20
50.052059575621293
 30
0.0
 11
95.196343114688474
 21
50.052059575621229
 31
0.0
  0
LINE
  5
205
  8
3
 10
93.196343114688489
 20
50.485059575621051
 30
0.0
 11
95.196343114688474
 21
50.485059575621101
 31
0.0
  0
LINE
  5
206
  8
3
 10
93.196343114688489
 20
54.619059575621577
 30
0.0
 11
95.196343114688474
 21
54.61905957562152
 31
0.0
  0
LINE
  5
207
  8
0
 10
93.196343114688489
 20
55.052059575621293
 30
0.0
 11
95.196343114688474
 21
55.052059575621293
 31
0.0
  0
LINE
  5
208
  8
0
 10
74.196343114688375
 20
50.052059575621229
 30
0.0
 11
74.696343114688432
 21
50.052059575621293
 31
0.0
  0
LINE
  5
209
  8
0
 10
74.196343114688375
 20
55.052059575621342
 30
0.0
 11
74.696343114688318
 21
55.052059575621342
 31
0.0
  0
LINE
  5
20A
  8
2
 10
74.696343114688432
 20
50.052059575621293
 30
0.0
 11
93.196343114688489
 21
50.052059575621293
 31
0.0
  0
LINE
  5
20B
  8
2
 10
74.696343114688318
 20
55.052059575621342
 30
0.0
 11
93.196343114688489
 21
55.052059575621229
 31
0.0
  0
LINE
  5
20C
  8
0
 10
96.496343114688514
 20
47.952059575621313
 30
0.0
 11
95.196343114688474
 21
47.952059575621313
 31
0.0
  0
LINE
  5
20D
  8
0
 10
95.196343114688474
 20
47.952059575621313
 30
0.0
 11
95.196343114688474
 21
57.152059575621372
 31
0.0
  0
LINE
  5
20E
  8
0
 10
95.196343114688474
 20
57.152059575621372
 30
0.0
 11
96.496343114688514
 21
57.152059575621372
 31
0.0
  0
LINE
  5
20F
  8
0
 10
96.496343114688514
 20
57.152059575621372
 30
0.0
 11
96.496343114688514
 21
47.952059575621313
 31
0.0
  0
LINE
  5
210
  8
0
 10
74.196343114688375
 20
57.552059575621293
 30
0.0
 11
74.196343114688375
 21
47.552059575621278
 31
0.0
  0
LINE
  5
211
  8
0
 10
73.196343114688375
 20
57.552059575621293
 30
0.0
 11
73.196343114688375
 21
47.552059575621278
 31
0.0
  0
LINE
  5
212
  8
0
 10
73.196343114688375
 20
57.552059575621293
 30
0.0
 11
74.196343114688375
 21
57.552059575621293
 31
0.0
  0
LINE
  5
213
  8
0
 10
73.196343114688375
 20
47.552059575621278
 30
0.0
 11
74.196343114688375
 21
47.552059575621278
 31
0.0
  0
LINE
  5
214
  8
0
 10
73.196343114688375
 20
47.802059575621278
 30
0.0
 11
73.196343114688375
 21
57.302059575621278
 31
0.0
  0
LINE
  5
215
  8
2
 10
73.196343114688375
 20
50.052059575621293
 30
0.0
 11
74.196343114688375
 21
50.052059575621229
 31
0.0
  0
LINE
  5
216
  8
2
 10
79.196343114688375
 20
50.485059575621101
 30
0.0
 11
93.196343114688489
 21
50.485059575621101
 31
0.0
  0
LINE
  5
217
  8
2
 10
79.196343114688375
 20
54.61905957562152
 30
0.0
 11
93.196343114688489
 21
54.61905957562152
 31
0.0
  0
LINE
  5
218
  8
2
 10
73.196343114688375
 20
55.052059575621293
 30
0.0
 11
74.196343114688375
 21
55.052059575621342
 31
0.0
  0
LINE
  5
21A
  8
2
 10
79.196343114688375
 20
55.052059575621342
 30
0.0
 11
79.196343114688375
 21
50.052059575621342
 31
0.0
  0
LINE
  5
21B
  8
2
 10
79.196343114688375
 20
54.619059575621577
 30
0.0
 11
78.446365115011417
 21
55.052059575621342
 31
0.0
  0
LINE
  5
21F
  8
2
 10
79.196343114688375
 20
50.485059575621172
 30
0.0
 11
78.446365115011417
 21
50.052059575621342
 31
0.0
  0
LINE
  5
220
  8
0
 10
72.696343114688659
 20
57.302059575621278
 30
0.0
 11
73.196343114688375
 21
57.302059575621278
 31
0.0
  0
LINE
  5
221
  8
0
 10
72.696343114688375
 20
47.802059575621278
 30
0.0
 11
72.696343114688375
 21
57.302059575621278
 31
0.0
  0
LINE
  5
222
  8
0
 10
69.796343114688383
 20
50.702059575640078
 30
0.0
 11
69.796343114688383
 21
54.402059575621031
 31
0.0
  0
ARC
  5
223
  8
0
 10
72.794729371408891
 20
54.303673318900792
 30
0.0
 40
3.0
 50
91.879376083980418
 51
178.12062391637639
  0
ARC
  5
224
  8
0
 10
72.794729371408891
 20
50.800445832341829
 30
0.0
 40
3.0
 50
181.87937608362191
 51
268.12062391601961
  0
LINE
  5
225
  8
0
 10
72.696343114688659
 20
47.802059575621278
 30
0.0
 11
73.196343114688375
 21
47.802059575621278
 31
0.0
  0
LINE
  5
226
  8
1
 10
105.6963431146884
 20
52.552059575621342
 30
0.0
 11
67.296343114688383
 21
52.552059575621342
 31
0.0
  0
LINE
  5
227
  8
0
 10
100.0813424978619
 20
47.933257422104582
 30
0.0
 11
96.496343114688514
 21
47.933257422104298
 31
0.0
  0
LINE
  5
228
  8
0
 10
96.496343114688514
 20
50.242658498862902
 30
0.0
 11
100.0813424978538
 21
50.242658498862902
 31
0.0
  0
LINE
  5
229
  8
0
 10
100.08134249785179
 20
54.861460652379883
 30
0.0
 11
96.496343114688514
 21
54.861460652367612
 31
0.0
  0
LINE
  5
22A
  8
0
 10
100.4963431146885
 20
56.452059575622393
 30
0.0
 11
100.4963431146885
 21
48.6520595756188
 31
0.0
  0
LINE
  5
22B
  8
0
 10
100.0813424978619
 20
57.17086172913838
 30
0.0
 11
96.496343114688557
 21
57.17086172913838
 31
0.0
  0
LINE
  5
22C
  8
0
 10
100.0813424978619
 20
47.933257422104411
 30
0.0
 11
100.4963431146885
 21
48.652059575618637
 31
0.0
  0
ARC
  5
22D
  8
0
 10
98.393949889024384
 20
49.087957960483656
 30
0.0
 40
2.044658198744437
 50
334.38424746668107
 51
34.384247467925782
  0
ARC
  5
22E
  8
0
 10
92.795873677732786
 20
52.552059575608553
 30
0.0
 40
7.6427344100359971
 50
342.4120462259732
 51
17.587953774226829
  0
ARC
  5
22F
  8
0
 10
98.393949889024384
 20
56.016161190759128
 30
0.0
 40
2.044658198744437
 50
325.61575253207423
 51
25.615752533318869
  0
LINE
  5
230
  8
0
 10
100.0813424978619
 20
57.17086172913838
 30
0.0
 11
100.4963431146885
 21
56.452059575624162
 31
0.0
  0
LINE
  5
231
  8
0
 10
96.496343114688557
 20
57.17086172913838
 30
0.0
 11
96.496343114688514
 21
47.933257422104298
 31
0.0
  0
TEXT
  5
2D7
  8
0
 62
     3
 10
0.0
 20
0.0
 30
0.0
 40
10.0
  1
RLP08E
  7
STANDARD1
  0
LINE
  5
326
  8
0
 10
100.4963431146885
 20
90.052059575621286
 30
0.0
 11
102.2963431146883
 21
90.052059575621286
 31
0.0
  0
LINE
  5
327
  8
3
 10
100.4963431146885
 20
89.619059575621392
 30
0.0
 11
102.72934311468831
 21
89.619059575621364
 31
0.0
  0
LINE
  5
328
  8
0
 10
100.4963431146885
 20
85.052059575621229
 30
0.0
 11
102.2963431146883
 21
85.052059575621229
 31
0.0
  0
LINE
  5
329
  8
3
 10
100.4963431146885
 20
85.485059575621108
 30
0.0
 11
102.72934311468831
 21
85.485059575621136
 31
0.0
  0
LINE
  5
32D
  8
0
 10
102.2963431146883
 20
55.052059575621293
 30
0.0
 11
102.2963431146883
 21
50.052059575621293
 31
0.0
  0
LINE
  5
32E
  8
0
 10
103.1963431146883
 20
50.952059575621263
 30
0.0
 11
102.2963431146884
 21
50.052059575621293
 31
0.0
  0
LINE
  5
32F
  8
0
 10
102.2963431146884
 20
55.052059575621293
 30
0.0
 11
103.1963431146883
 21
54.152059575621251
 31
0.0
  0
LINE
  5
330
  8
0
 10
103.1963431146883
 20
54.152059575621251
 30
0.0
 11
103.1963431146883
 21
50.952059575621263
 31
0.0
  0
LINE
  5
332
  8
2
 10
95.196343114688545
 20
55.052059575621293
 30
0.0
 11
100.4963431146885
 21
55.052059575621293
 31
0.0
  0
LINE
  5
333
  8
2
 10
95.196343114688545
 20
54.61905957562152
 30
0.0
 11
100.4963431146885
 21
54.619059575621392
 31
0.0
  0
LINE
  5
334
  8
2
 10
95.196343114688474
 20
50.485059575621101
 30
0.0
 11
100.4963431146885
 21
50.485059575621108
 31
0.0
  0
LINE
  5
335
  8
2
 10
95.196343114688545
 20
50.052059575621229
 30
0.0
 11
100.4963431146885
 21
50.052059575621371
 31
0.0
  0
LINE
  5
336
  8
0
 10
100.4963431146885
 20
55.052059575621293
 30
0.0
 11
102.2963431146883
 21
55.052059575621293
 31
0.0
  0
LINE
  5
337
  8
3
 10
100.4963431146885
 20
54.619059575621392
 30
0.0
 11
102.72934311468831
 21
54.619059575621371
 31
0.0
  0
LINE
  5
338
  8
0
 10
100.4963431146885
 20
50.052059575621229
 30
0.0
 11
102.2963431146883
 21
50.052059575621229
 31
0.0
  0
LINE
  5
339
  8
3
 10
100.4963431146885
 20
50.485059575621122
 30
0.0
 11
102.72934311468831
 21
50.485059575621129
 31
0.0
  0
LINE
  5
465
  8
0
 10
93.052005547391104
 20
45.552059575621598
 30
0.0
 11
93.196343114688304
 21
45.802059575621307
 31
0.0
  0
LINE
  5
466
  8
0
 10
92.426790765052147
 20
94.834963344275081
 30
0.0
 11
93.196343114688261
 21
93.502059575621274
 31
0.0
  0
ARC
  5
467
  8
0
 10
89.462750809805826
 20
80.689881749131331
 30
0.0
 40
3.5781518477922791
 50
331.25254769442
 51
34.384247468040193
  0
ARC
  5
468
  8
0
 10
79.666117439944799
 20
86.752059575623065
 30
0.0
 40
13.37478521765334
 50
342.41204622599213
 51
17.587953773997761
  0
LINE
  5
469
  8
0
 10
92.426790765052147
 20
78.669155806967581
 30
0.0
 11
93.196343114688261
 21
80.002059575621388
 31
0.0
  0
ARC
  5
46A
  8
0
 10
89.462750809805826
 20
92.814237402112838
 30
0.0
 40
3.5781518477922791
 50
325.6157525319598
 51
28.747452305040099
  0
LINE
  5
46B
  8
0
 10
93.196343114688261
 20
80.002059575621345
 30
0.0
 11
93.196343114688446
 21
93.482828806389705
 31
0.0
  0
LINE
  5
46C
  8
0
 10
93.052005547391104
 20
59.552059575621087
 30
0.0
 11
93.196343114688304
 21
59.302059575621371
 31
0.0
  0
ARC
  5
46D
  8
0
 10
82.931661896561081
 20
56.052059575621122
 30
0.0
 40
10.10924076103711
 50
339.74384199958303
 51
20.25615800041701
  0
ARC
  5
46E
  8
0
 10
82.931661896561081
 20
49.052059575621591
 30
0.0
 40
10.10924076103711
 50
339.74384199958303
 51
20.25615800041701
  0
LINE
  5
46F
  8
0
 10
93.196343114688347
 20
45.802059575621307
 30
0.0
 11
93.196343114688304
 21
59.302059575621342
 31
0.0
  0
CIRCLE
  5
4D5
  8
0
 10
136.27924687347081
 20
86.752059575621317
 30
0.0
 40
6.7499999999999432
  0
ENDSEC
  0
EOF
