  0
SECTION
  2
HEADER
  9
$ACADVER
  1
AC1009
  9
$INSBASE
 10
0.0
 20
0.0
 30
0.0
  9
$EXTMIN
 10
0.0
 20
-2.960436562073669
 30
0.0
  9
$EXTMAX
 10
173.16983456658079
 20
103.8892752943638
 30
0.0
  9
$LIMMIN
 10
0.0
 20
0.0
  9
$LIMMAX
 10
187.5
 20
135.0
  9
$ORTHOMODE
 70
     1
  9
$REGENMODE
 70
     1
  9
$FILLMODE
 70
     1
  9
$QTEXTMODE
 70
     0
  9
$MIRRTEXT
 70
     0
  9
$DRAGMODE
 70
     2
  9
$LTSCALE
 40
5.0
  9
$OSMODE
 70
    37
  9
$ATTMODE
 70
     1
  9
$TEXTSIZE
 40
0.2
  9
$TRACEWID
 40
0.05
  9
$TEXTSTYLE
  7
STANDARD
  9
$CLAYER
  8
0
  9
$CELTYPE
  6
BYLAYER
  9
$CECOLOR
 62
   256
  9
$DIMSCALE
 40
0.5
  9
$DIMASZ
 40
3.0
  9
$DIMEXO
 40
2.0
  9
$DIMDLI
 40
0.3799999999999999
  9
$DIMRND
 40
0.0
  9
$DIMDLE
 40
0.0
  9
$DIMEXE
 40
2.0
  9
$DIMTP
 40
0.0
  9
$DIMTM
 40
0.0
  9
$DIMTXT
 40
3.2000000000000002
  9
$DIMCEN
 40
0.09
  9
$DIMTSZ
 40
0.0
  9
$DIMTOL
 70
     0
  9
$DIMLIM
 70
     0
  9
$DIMTIH
 70
     0
  9
$DIMTOH
 70
     0
  9
$DIMSE1
 70
     0
  9
$DIMSE2
 70
     0
  9
$DIMTAD
 70
     1
  9
$DIMZIN
 70
     0
  9
$DIMBLK
  1

  9
$DIMASO
 70
     0
  9
$DIMSHO
 70
     0
  9
$DIMPOST
  1

  9
$DIMAPOST
  1

  9
$DIMALT
 70
     0
  9
$DIMALTD
 70
     2
  9
$DIMALTF
 40
25.399999999999999
  9
$DIMLFAC
 40
1.0
  9
$DIMTOFL
 70
     0
  9
$DIMTVP
 40
1.6000000000000001
  9
$DIMTIX
 70
     1
  9
$DIMSOXD
 70
     0
  9
$DIMSAH
 70
     0
  9
$DIMBLK1
  1

  9
$DIMBLK2
  1

  9
$DIMSTYLE
  2
STANDARD
  9
$DIMCLRD
 70
     0
  9
$DIMCLRE
 70
     0
  9
$DIMCLRT
 70
     0
  9
$DIMTFAC
 40
1.0
  9
$DIMGAP
 40
0.09
  9
$LUNITS
 70
     2
  9
$LUPREC
 70
     4
  9
$SKETCHINC
 40
0.1
  9
$FILLETRAD
 40
0.4
  9
$AUNITS
 70
     0
  9
$AUPREC
 70
     0
  9
$MENU
  1
E:\r13\win\SUPPORT\ACAD
  9
$ELEVATION
 40
0.0
  9
$PELEVATION
 40
0.0
  9
$THICKNESS
 40
0.0
  9
$LIMCHECK
 70
     0
  9
$BLIPMODE
 70
     0
  9
$CHAMFERA
 40
0.0
  9
$CHAMFERB
 40
0.0
  9
$SKPOLY
 70
     0
  9
$TDCREATE
 40
2451824.6906229062
  9
$TDUPDATE
 40
2457436.593878692
  9
$TDINDWG
 40
0.0513090046
  9
$TDUSRTIMER
 40
0.0513090046
  9
$USRTIMER
 70
     1
  9
$ANGBASE
 50
0.0
  9
$ANGDIR
 70
     0
  9
$PDMODE
 70
     0
  9
$PDSIZE
 40
0.0
  9
$PLINEWID
 40
0.0
  9
$COORDS
 70
     1
  9
$SPLFRAME
 70
     0
  9
$SPLINETYPE
 70
     6
  9
$SPLINESEGS
 70
     8
  9
$ATTDIA
 70
     0
  9
$ATTREQ
 70
     1
  9
$HANDLING
 70
     1
  9
$HANDSEED
  5
5AC
  9
$SURFTAB1
 70
     6
  9
$SURFTAB2
 70
     6
  9
$SURFTYPE
 70
     6
  9
$SURFU
 70
     6
  9
$SURFV
 70
     6
  9
$UCSNAME
  2

  9
$UCSORG
 10
0.0
 20
0.0
 30
0.0
  9
$UCSXDIR
 10
1.0
 20
0.0
 30
0.0
  9
$UCSYDIR
 10
0.0
 20
1.0
 30
0.0
  9
$PUCSNAME
  2

  9
$PUCSORG
 10
0.0
 20
0.0
 30
0.0
  9
$PUCSXDIR
 10
1.0
 20
0.0
 30
0.0
  9
$PUCSYDIR
 10
0.0
 20
1.0
 30
0.0
  9
$USERI1
 70
     0
  9
$USERI2
 70
     1
  9
$USERI3
 70
     0
  9
$USERI4
 70
     0
  9
$USERI5
 70
     0
  9
$USERR1
 40
0.0
  9
$USERR2
 40
0.0
  9
$USERR3
 40
0.0
  9
$USERR4
 40
0.0
  9
$USERR5
 40
0.0
  9
$WORLDVIEW
 70
     1
  9
$SHADEDGE
 70
     3
  9
$SHADEDIF
 70
    70
  9
$TILEMODE
 70
     1
  9
$MAXACTVP
 70
    16
  9
$PLIMCHECK
 70
     0
  9
$PEXTMIN
 10
1.0000000000000000E+020
 20
1.0000000000000000E+020
 30
1.0000000000000000E+020
  9
$PEXTMAX
 10
-1.0000000000000000E+020
 20
-1.0000000000000000E+020
 30
-1.0000000000000000E+020
  9
$PLIMMIN
 10
0.0
 20
0.0
  9
$PLIMMAX
 10
12.0
 20
9.0
  9
$UNITMODE
 70
     0
  9
$VISRETAIN
 70
     0
  9
$PLINEGEN
 70
     0
  9
$PSLTSCALE
 70
     0
  0
ENDSEC
  0
SECTION
  2
TABLES
  0
TABLE
  2
VPORT
 70
     1
  0
VPORT
  2
*ACTIVE
 70
     0
 10
0.0
 20
0.0
 11
1.0
 21
1.0
 12
172.54273504273499
 22
95.0
 13
0.0
 23
0.0
 14
5.0
 24
5.0
 15
5.0
 25
5.0
 16
0.0
 26
0.0
 36
1.0
 17
0.0
 27
0.0
 37
0.0
 40
190.0
 41
1.816239316239316
 42
50.0
 43
0.0
 44
0.0
 50
0.0
 51
0.0
 71
     0
 72
   500
 73
     1
 74
     0
 75
     0
 76
     0
 77
     0
 78
     2
  0
ENDTAB
  0
TABLE
  2
LTYPE
 70
     4
  0
LTYPE
  2
CONTINUOUS
 70
     0
  3
Solid Line
 72
    65
 73
     0
 40
0.0
  0
LTYPE
  2
CENTER
 70
     0
  3
____ _ ____ _ ____ _ ____ _ ____ _ ____ _ ____
 72
    65
 73
     4
 40
2.0
 49
1.25
 49
-0.25
 49
0.25
 49
-0.25
  0
LTYPE
  2
HIDDEN
 70
     0
  3
__ __ __ __ __ __ __ __ __ __ __ __ __ __ __ __
 72
    65
 73
     2
 40
0.375
 49
0.25
 49
-0.125
  0
LTYPE
  2
PHANTOM2
 70
     0
  3
___ _ _ ___ _ _ ___ _ _ ___ _ _
 72
    65
 73
     6
 40
1.25
 49
0.625
 49
-0.125
 49
0.125
 49
-0.125
 49
0.125
 49
-0.125
  0
ENDTAB
  0
TABLE
  2
LAYER
 70
     4
  0
LAYER
  2
0
 70
     0
 62
     7
  6
CONTINUOUS
  0
LAYER
  2
1
 70
     0
 62
     1
  6
CENTER
  0
LAYER
  2
2
 70
     0
 62
     2
  6
HIDDEN
  0
LAYER
  2
3
 70
     0
 62
     3
  6
CONTINUOUS
  0
ENDTAB
  0
TABLE
  2
STYLE
 70
     2
  0
STYLE
  2
STANDARD
 70
     0
 40
0.0
 41
1.0
 50
0.0
 71
     0
 42
0.2
  3
TXT
  4
BIGFONT
  0
STYLE
  2
STANDARD1
 70
     0
 40
0.0
 41
1.0
 50
0.0
 71
     0
 42
3.0
  3
txt
  4

  0
ENDTAB
  0
TABLE
  2
VIEW
 70
     0
  0
ENDTAB
  0
TABLE
  2
UCS
 70
     0
  0
ENDTAB
  0
TABLE
  2
APPID
 70
     4
  0
APPID
  2
ACAD
 70
     0
  0
APPID
  2
ACAD_MLEADERVER
 70
     0
  0
APPID
  2
ACAD_EXEMPT_FROM_CAD_STANDARDS
 70
     0
  0
APPID
  2
ACAD_NAV_VCDISPLAY
 70
     0
  0
ENDTAB
  0
TABLE
  2
DIMSTYLE
 70
     1
  0
DIMSTYLE
  2
STANDARD
 70
     0
  3

  4

  5

  6

  7

 40
1.0
 41
0.18
 42
0.0625
 43
0.38
 44
0.18
 45
0.0
 46
0.0
 47
0.0
 48
0.0
140
0.18
141
0.09
142
0.0
143
25.399999999999999
144
1.0
145
0.0
146
1.0
147
0.09
 71
     0
 72
     0
 73
     1
 74
     1
 75
     0
 76
     0
 77
     0
 78
     0
170
     0
171
     2
172
     0
173
     0
174
     0
175
     0
176
     0
177
     0
178
     0
  0
ENDTAB
  0
ENDSEC
  0
SECTION
  2
BLOCKS
  0
BLOCK
  8
0
  2
$MODEL_SPACE
 70
     0
 10
0.0
 20
0.0
 30
0.0
  3
$MODEL_SPACE
  1

  0
ENDBLK
  5
9
  8
0
  0
BLOCK
 67
     1
  8
0
  2
$PAPER_SPACE
 70
     0
 10
0.0
 20
0.0
 30
0.0
  3
$PAPER_SPACE
  1

  0
ENDBLK
  5
E
 67
     1
  8
0
  0
ENDSEC
  0
SECTION
  2
ENTITIES
  0
LINE
  5
2E8
  8
0
 10
161.61542993320671
 20
97.188635016518703
 30
0.0
 11
158.6698345665809
 21
98.889275294363784
 31
0.0
  0
LINE
  5
2E9
  8
0
 10
153.9814553369911
 20
96.182438284097117
 30
0.0
 11
150.16983456658099
 21
93.981798006252092
 31
0.0
  0
LINE
  5
2EA
  8
1
 10
144.1698345665809
 20
89.074320718140171
 30
0.0
 11
173.16983456658079
 21
89.074320718140171
 31
0.0
  0
LINE
  5
2EB
  8
0
 10
90.469834566580886
 20
95.074320718140214
 30
0.0
 11
90.469834566580815
 21
83.074320718140186
 31
0.0
  0
LINE
  5
2EC
  8
0
 10
27.615668883173502
 20
94.816550838140387
 30
0.0
 11
26.169834566580992
 21
93.981798006252092
 31
0.0
  0
LINE
  5
2ED
  8
0
 10
35.24964347938905
 20
98.554522462475504
 30
0.0
 11
34.669834566580931
 21
98.889275294363784
 31
0.0
  0
LINE
  5
2EE
  8
0
 10
34.669834566580931
 20
98.889275294363784
 30
0.0
 11
34.090025653772898
 21
98.554522462475546
 31
0.0
  0
LINE
  5
2EF
  8
0
 10
26.169834566580992
 20
93.981798006252092
 30
0.0
 11
26.169834566580931
 21
84.166843430028365
 31
0.0
  0
LINE
  5
2F0
  8
0
 10
26.169834566580931
 20
84.166843430028365
 30
0.0
 11
34.669834566580988
 21
79.259366141916544
 31
0.0
  0
LINE
  5
2F1
  8
0
 10
34.669834566580988
 20
79.259366141916544
 30
0.0
 11
43.169834566580931
 21
84.166843430028365
 31
0.0
  0
LINE
  5
2F2
  8
0
 10
43.169834566580931
 20
84.166843430028365
 30
0.0
 11
43.169834566580931
 21
93.981798006251978
 31
0.0
  0
LINE
  5
2F3
  8
0
 10
43.169834566580931
 20
93.981798006251978
 30
0.0
 11
41.724000249988393
 21
94.816550838140316
 31
0.0
  0
ARC
  5
2F4
  8
0
 10
34.669834566580931
 20
89.074320718140171
 30
0.0
 40
7.9000000000000901
 50
214.02078894062589
 51
325.97921105937422
  0
LINE
  5
2F5
  8
1
 10
20.169834566580931
 20
89.074320718140171
 30
0.0
 11
49.169834566580867
 21
89.074320718140171
 31
0.0
  0
LINE
  5
2F6
  8
1
 10
124.1698345665809
 20
89.074320718140171
 30
0.0
 11
69.169834566580874
 21
89.074320718140171
 31
0.0
  0
LINE
  5
2F7
  8
0
 10
91.116244728094813
 20
53.574320718140257
 30
0.0
 11
90.769834566581068
 21
52.974320718140177
 31
0.0
  0
ARC
  5
2F8
  8
0
 10
95.461143400423495
 20
96.435536650315825
 30
0.0
 40
4.3448986723233833
 50
154.3842474678911
 51
214.38424746800479
  0
LINE
  5
2F9
  8
0
 10
91.875434106649465
 20
79.259366141916729
 30
0.0
 11
90.76983456658084
 21
81.174320718140308
 31
0.0
  0
LINE
  5
2FA
  8
0
 10
90.469834566580886
 20
51.0743207181402
 30
0.0
 11
90.469834566580815
 21
39.074320718140171
 31
0.0
  0
ARC
  5
2FB
  8
0
 10
95.461143400423495
 20
81.713104785964646
 30
0.0
 40
4.3448986723233833
 50
145.61575253199521
 51
205.6157525321089
  0
ARC
  5
2FC
  8
0
 10
107.35705534956671
 20
89.074320718131887
 30
0.0
 40
16.24081062146659
 50
162.4120462260278
 51
197.58795377397209
  0
LINE
  5
2FD
  8
0
 10
91.875434106649408
 20
79.259366141916672
 30
0.0
 11
105.1642350265124
 21
79.259366141916445
 31
0.0
  0
LINE
  5
2FE
  8
0
 10
91.875434106651554
 20
84.166843430027455
 30
0.0
 11
105.1642350265107
 21
84.166843430028223
 31
0.0
  0
LINE
  5
2FF
  8
0
 10
91.875434106656854
 20
93.981798006253001
 30
0.0
 11
105.16423502650549
 21
93.981798006251893
 31
0.0
  0
LINE
  5
300
  8
0
 10
91.875434106649465
 20
98.889275294363784
 30
0.0
 11
105.1642350265126
 21
98.889275294363628
 31
0.0
  0
LINE
  5
301
  8
0
 10
91.875434106649465
 20
98.889275294363784
 30
0.0
 11
90.76983456658084
 21
96.974320718140206
 31
0.0
  0
LINE
  5
302
  8
0
 10
90.76983456658084
 20
81.174320718140194
 30
0.0
 11
90.769834566581068
 21
96.974320718140277
 31
0.0
  0
ARC
  5
304
  8
0
 10
103.3917513665167
 20
49.324320718140257
 30
0.0
 40
12.275506638416489
 50
159.74384199960571
 51
200.25615800039421
  0
LINE
  5
305
  8
0
 10
91.116244728094856
 20
53.574320718140306
 30
0.0
 11
105.92342440506719
 21
53.574320718140093
 31
0.0
  0
LINE
  5
306
  8
0
 10
91.875434106654168
 20
45.074320718140306
 30
0.0
 11
105.1642350265078
 21
45.074320718140108
 31
0.0
  0
LINE
  5
307
  8
0
 10
91.116244728094813
 20
36.574320718140143
 30
0.0
 11
105.92342440506719
 21
36.574320718140143
 31
0.0
  0
LINE
  5
308
  8
0
 10
91.116244728094813
 20
36.574320718140143
 30
0.0
 11
90.769834566581068
 21
37.174320718140223
 31
0.0
  0
ARC
  5
309
  8
0
 10
103.3917513665167
 20
40.82432071814025
 30
0.0
 40
12.275506638416489
 50
159.74384199960571
 51
200.25615800039421
  0
LINE
  5
30A
  8
0
 10
90.769834566581125
 20
52.974320718140177
 30
0.0
 11
90.769834566581068
 21
37.174320718140173
 31
0.0
  0
LINE
  5
30C
  8
0
 10
158.6698345665809
 20
98.889275294363784
 30
0.0
 11
155.72423919995521
 21
97.188635016518759
 31
0.0
  0
LINE
  5
30D
  8
0
 10
167.1698345665809
 20
93.981798006251978
 30
0.0
 11
163.35821379617059
 21
96.182438284097174
 31
0.0
  0
LINE
  5
30E
  8
0
 10
167.1698345665809
 20
84.166843430028365
 30
0.0
 11
167.1698345665809
 21
93.981798006251978
 31
0.0
  0
LINE
  5
30F
  8
0
 10
158.66983456658099
 20
79.259366141916544
 30
0.0
 11
167.1698345665809
 21
84.166843430028365
 31
0.0
  0
LINE
  5
310
  8
0
 10
150.1698345665809
 20
84.166843430028365
 30
0.0
 11
158.66983456658099
 21
79.259366141916544
 31
0.0
  0
LINE
  5
311
  8
0
 10
150.16983456658099
 20
93.981798006252092
 30
0.0
 11
150.1698345665809
 21
84.166843430028365
 31
0.0
  0
LINE
  5
312
  8
0
 10
81.769834566580954
 20
95.074320718140171
 30
0.0
 11
81.269834566580954
 21
94.574320718140157
 31
0.0
  0
LINE
  5
313
  8
0
 10
81.769834566580954
 20
83.074320718140228
 30
0.0
 11
81.269834566580954
 21
83.574320718140214
 31
0.0
  0
LINE
  5
314
  8
0
 10
81.769834566580954
 20
95.074320718140171
 30
0.0
 11
81.769834566580954
 21
83.074320718140228
 31
0.0
  0
LINE
  5
315
  8
0
 10
81.269834566580954
 20
83.574320718140214
 30
0.0
 11
81.269834566580954
 21
94.574320718140157
 31
0.0
  0
LINE
  5
316
  8
0
 10
90.469834566580886
 20
83.074320718140186
 30
0.0
 11
81.769834566580954
 21
83.074320718140228
 31
0.0
  0
LINE
  5
317
  8
0
 10
90.469834566580886
 20
95.074320718140214
 30
0.0
 11
81.769834566580954
 21
95.074320718140171
 31
0.0
  0
ARC
  5
318
  8
0
 10
90.469834566580886
 20
82.774320718140174
 30
0.0
 40
0.3
 50
0.0
 51
90.0
  0
ARC
  5
319
  8
0
 10
90.469834566581
 20
82.774320718140217
 30
0.0
 40
0.3
 50
0.0
 51
90.0
  0
ARC
  5
31A
  8
0
 10
90.469834566580886
 20
95.374320718140225
 30
0.0
 40
0.3
 50
270.0
 51
0.0
  0
LINE
  5
31B
  8
1
 10
124.1698345665809
 20
90.074320718140171
 30
0.0
 11
69.169834566580874
 21
90.074320718140171
 31
0.0
  0
LINE
  5
31C
  8
0
 10
80.769834566580954
 20
98.574320718139774
 30
0.0
 11
79.169834566580931
 21
98.574320718139717
 31
0.0
  0
LINE
  5
31D
  8
0
 10
80.769834566580954
 20
81.574320718140626
 30
0.0
 11
79.169834566580931
 21
81.574320718140626
 31
0.0
  0
LINE
  5
31E
  8
0
 10
80.769834566580954
 20
81.574320718140626
 30
0.0
 11
80.769834566580954
 21
98.574320718139717
 31
0.0
  0
LINE
  5
31F
  8
0
 10
79.169834566580931
 20
81.574320718140626
 30
0.0
 11
79.169834566580931
 21
98.574320718139717
 31
0.0
  0
CIRCLE
  5
320
  8
0
 10
34.669834566580931
 20
90.074320718140171
 30
0.0
 40
8.5
  0
LINE
  5
321
  8
0
 10
78.369834566579954
 20
83.074320718140186
 30
0.0
 11
79.169834566580931
 21
83.074320718140186
 31
0.0
  0
ARC
  5
322
  8
0
 10
79.856296284814135
 20
88.887274490554461
 30
0.0
 40
6.0
 50
198.60445265516151
 51
255.65596870178669
  0
ARC
  5
323
  8
0
 10
79.856296284814135
 20
91.261366945725925
 30
0.0
 40
6.0
 50
104.3440312982149
 51
161.39554734483849
  0
LINE
  5
324
  8
0
 10
74.169834566580931
 20
86.973076714182099
 30
0.0
 11
74.169834566580931
 21
93.175564722097334
 31
0.0
  0
LINE
  5
325
  8
0
 10
78.369834566580977
 20
83.074320718139774
 30
0.0
 11
78.369834566580977
 21
97.074320718140285
 31
0.0
  0
LINE
  5
326
  8
0
 10
78.369834566579954
 20
97.074320718140186
 30
0.0
 11
79.169834566580931
 21
97.074320718140186
 31
0.0
  0
LINE
  5
327
  8
2
 10
89.169834566580917
 20
86.750820718140076
 30
0.0
 11
87.998102195260714
 21
86.074320718140171
 31
0.0
  0
LINE
  5
328
  8
2
 10
89.169834566580917
 20
93.397820718140267
 30
0.0
 11
87.998102195260714
 21
94.074320718140171
 31
0.0
  0
LINE
  5
329
  8
2
 10
89.169834566580917
 20
94.074320718140171
 30
0.0
 11
89.169834566580818
 21
86.074320718140171
 31
0.0
  0
LINE
  5
32A
  8
0
 10
117.969834566581
 20
94.074320718140171
 30
0.0
 11
117.9698345665809
 21
86.074320718140171
 31
0.0
  0
LINE
  5
32B
  8
0
 10
119.1698345665809
 20
87.27432071814016
 30
0.0
 11
117.9698345665809
 21
86.074320718140171
 31
0.0
  0
LINE
  5
32C
  8
0
 10
117.969834566581
 20
94.074320718140171
 30
0.0
 11
119.1698345665809
 21
92.874320718140183
 31
0.0
  0
LINE
  5
32D
  8
2
 10
79.169834566580931
 20
94.074320718140171
 30
0.0
 11
80.769834566580954
 21
94.074320718140171
 31
0.0
  0
LINE
  5
32E
  8
2
 10
89.169834566580917
 20
93.397820718140267
 30
0.0
 11
106.2698345665809
 21
93.397820718140267
 31
0.0
  0
LINE
  5
32F
  8
2
 10
89.169834566580818
 20
86.750820718140076
 30
0.0
 11
106.2698345665809
 21
86.750820718140076
 31
0.0
  0
LINE
  5
330
  8
2
 10
79.169834566580931
 20
86.074320718140171
 30
0.0
 11
80.769834566580954
 21
86.074320718140171
 31
0.0
  0
LINE
  5
331
  8
0
 10
119.1698345665809
 20
92.874320718140183
 30
0.0
 11
119.1698345665809
 21
87.27432071814016
 31
0.0
  0
LINE
  5
332
  8
0
 10
79.169834566580931
 20
83.074320718140186
 30
0.0
 11
79.169834566580931
 21
97.074320718140186
 31
0.0
  0
CIRCLE
  5
333
  8
0
 10
34.669834566580931
 20
90.074320718140171
 30
0.0
 40
3.1012440039571478
  0
CIRCLE
  5
334
  8
0
 10
34.669834566580931
 20
90.074320718140171
 30
0.0
 40
7.0
  0
LINE
  5
335
  8
0
 10
32.169834566580619
 20
91.517696391114015
 30
0.0
 11
32.169834566581187
 21
88.630945045166328
 31
0.0
  0
LINE
  5
336
  8
0
 10
34.669834566580931
 20
92.961072064088427
 30
0.0
 11
32.169834566580619
 21
91.517696391114015
 31
0.0
  0
LINE
  5
337
  8
0
 10
37.169834566580931
 20
91.517696391114924
 30
0.0
 11
34.669834566580931
 21
92.961072064088427
 31
0.0
  0
LINE
  5
338
  8
0
 10
37.169834566580931
 20
88.630945045166328
 30
0.0
 11
37.169834566580931
 21
91.517696391114924
 31
0.0
  0
LINE
  5
339
  8
0
 10
34.669834566581159
 20
87.187569372192243
 30
0.0
 11
37.169834566580931
 21
88.630945045166328
 31
0.0
  0
LINE
  5
33A
  8
0
 10
32.169834566581187
 20
88.630945045166328
 30
0.0
 11
34.669834566581159
 21
87.187569372192243
 31
0.0
  0
LINE
  5
33B
  8
1
 10
20.169834566580931
 20
90.074320718140171
 30
0.0
 11
49.169834566580867
 21
90.074320718140171
 31
0.0
  0
LINE
  5
33C
  8
1
 10
34.669834566580931
 20
74.259366141916502
 30
0.0
 11
34.669834566580931
 21
103.8892752943638
 31
0.0
  0
LINE
  5
33D
  8
2
 10
81.269834566580954
 20
94.074320718140171
 30
0.0
 11
106.2698345665809
 21
94.074320718140171
 31
0.0
  0
LINE
  5
33E
  8
2
 10
81.269834566581068
 20
86.074320718140171
 30
0.0
 11
106.2698345665809
 21
86.074320718140171
 31
0.0
  0
LINE
  5
33F
  8
0
 10
162.42261131631321
 20
96.574320718139944
 30
0.0
 11
154.9170578168484
 21
96.574320718139944
 31
0.0
  0
LINE
  5
340
  8
0
 10
154.9170578168484
 20
96.574320718139944
 30
0.0
 11
151.16428106711601
 21
90.074320718140171
 31
0.0
  0
LINE
  5
341
  8
0
 10
151.16428106711601
 20
90.074320718140171
 30
0.0
 11
154.9170578168484
 21
83.574320718140399
 31
0.0
  0
LINE
  5
342
  8
0
 10
154.9170578168484
 20
83.574320718140399
 30
0.0
 11
162.42261131631321
 21
83.574320718140399
 31
0.0
  0
LINE
  5
343
  8
0
 10
162.42261131631321
 20
83.574320718140399
 30
0.0
 11
166.1753880660456
 21
90.074320718140171
 31
0.0
  0
LINE
  5
344
  8
0
 10
166.1753880660456
 20
90.074320718140171
 30
0.0
 11
162.42261131631321
 21
96.574320718139944
 31
0.0
  0
CIRCLE
  5
345
  8
0
 10
158.6698345665809
 20
90.074320718140171
 30
0.0
 40
6.25
  0
CIRCLE
  5
346
  8
0
 10
158.6698345665809
 20
90.074320718140171
 30
0.0
 40
3.3235000000000001
  0
CIRCLE
  5
347
  8
3
 10
158.6698345665809
 20
90.074320718140171
 30
0.0
 40
4.0
  0
LINE
  5
348
  8
0
 10
110.2698345665809
 20
96.574320718139944
 30
0.0
 11
110.2698345665809
 21
83.574320718140399
 31
0.0
  0
LINE
  5
349
  8
0
 10
116.7698345665809
 20
96.32432071813875
 30
0.0
 11
116.7698345665809
 21
83.824320718141479
 31
0.0
  0
LINE
  5
34A
  8
0
 10
116.6254969992829
 20
96.574320718139887
 30
0.0
 11
116.7698345665809
 21
96.32432071813875
 31
0.0
  0
ARC
  5
34B
  8
0
 10
107.2383448640342
 20
93.324320718139873
 30
0.0
 40
9.3871521352487513
 50
339.7438419995832
 51
20.256158000416779
  0
LINE
  5
34C
  8
0
 10
116.6254969992829
 20
96.574320718139887
 30
0.0
 11
110.2698345665809
 21
96.574320718139944
 31
0.0
  0
LINE
  5
34D
  8
0
 10
116.04494041568169
 20
90.074320718140115
 30
0.0
 11
110.2698345665809
 21
90.074320718140171
 31
0.0
  0
LINE
  5
34E
  8
0
 10
116.6254969992829
 20
83.574320718140342
 30
0.0
 11
110.2698345665809
 21
83.574320718140399
 31
0.0
  0
ARC
  5
34F
  8
0
 10
107.2383448640342
 20
86.824320718140342
 30
0.0
 40
9.3871521352487513
 50
339.7438419995832
 51
20.256158000416779
  0
LINE
  5
350
  8
0
 10
116.6254969992829
 20
83.574320718140342
 30
0.0
 11
116.7698345665809
 21
83.824320718141479
 31
0.0
  0
LINE
  5
351
  8
0
 10
110.2698345665809
 20
52.579874217605067
 30
0.0
 11
110.2698345665809
 21
37.568767218675283
 31
0.0
  0
LINE
  5
352
  8
0
 10
116.7698345665809
 20
51.324320718139937
 30
0.0
 11
116.7698345665809
 21
38.82432071814177
 31
0.0
  0
ARC
  5
353
  8
0
 10
113.3029274263329
 20
39.445155593541557
 30
0.0
 40
3.3225695729499738
 50
334.3842474678242
 51
34.384247468040051
  0
LINE
  5
354
  8
0
 10
116.04494041568221
 20
37.568767218675283
 30
0.0
 11
116.7698345665809
 21
38.824320718141543
 31
0.0
  0
LINE
  5
355
  8
0
 10
116.04494041568221
 20
37.568767218675283
 30
0.0
 11
110.2698345665809
 21
37.568767218675283
 31
0.0
  0
LINE
  5
356
  8
0
 10
116.04494041568221
 20
41.321543968409543
 30
0.0
 11
110.2698345665809
 21
41.32154396840658
 31
0.0
  0
LINE
  5
357
  8
0
 10
116.04494041568221
 20
48.8270974678708
 30
0.0
 11
110.2698345665809
 21
48.827097467873763
 31
0.0
  0
LINE
  5
358
  8
0
 10
116.04494041568221
 20
52.579874217605067
 30
0.0
 11
110.2698345665809
 21
52.579874217605067
 31
0.0
  0
LINE
  5
359
  8
0
 10
116.04494041568221
 20
52.579874217605067
 30
0.0
 11
116.7698345665809
 21
51.3243207181388
 31
0.0
  0
ARC
  5
35A
  8
0
 10
104.2060535828905
 20
45.074320718139198
 30
0.0
 40
12.41944341639239
 50
342.41204622600219
 51
17.587953774008081
  0
ARC
  5
35B
  8
0
 10
113.3029274263329
 20
50.703485842738672
 30
0.0
 40
3.3225695729499738
 50
325.6157525319598
 51
25.615752532175708
  0
LINE
  5
35C
  8
0
 10
108.2698345665809
 20
89.806371525709054
 30
0.0
 11
110.2698345665809
 21
90.342269910571332
 31
0.0
  0
LINE
  5
35D
  8
0
 10
108.2698345665809
 20
82.374320718140169
 30
0.0
 11
108.2698345665809
 21
97.774320718140217
 31
0.0
  0
LINE
  5
35E
  8
0
 10
110.2698345665809
 20
82.374320718140169
 30
0.0
 11
108.2698345665809
 21
82.374320718140169
 31
0.0
  0
LINE
  5
35F
  8
0
 10
110.2698345665809
 20
97.774320718140217
 30
0.0
 11
110.2698345665809
 21
82.374320718140169
 31
0.0
  0
LINE
  5
360
  8
0
 10
108.2698345665809
 20
97.774320718140217
 30
0.0
 11
110.2698345665809
 21
97.774320718140217
 31
0.0
  0
LINE
  5
361
  8
1
 10
158.6698345665809
 20
74.259366141916544
 30
0.0
 11
158.6698345665809
 21
103.8892752943638
 31
0.0
  0
LINE
  5
362
  8
1
 10
144.1698345665809
 20
90.074320718140171
 30
0.0
 11
173.16983456658079
 21
90.074320718140171
 31
0.0
  0
CIRCLE
  5
363
  8
0
 10
158.6698345665809
 20
90.074320718140171
 30
0.0
 40
7.7000000000000446
  0
LINE
  5
364
  8
0
 10
106.2698345665809
 20
94.074320718140171
 30
0.0
 11
108.2698345665809
 21
94.074320718140171
 31
0.0
  0
LINE
  5
365
  8
3
 10
106.2698345665809
 20
93.397820718140309
 30
0.0
 11
108.2698345665809
 21
93.397820718140366
 31
0.0
  0
LINE
  5
366
  8
3
 10
106.2698345665809
 20
86.750820718140076
 30
0.0
 11
108.2698345665809
 21
86.750820718140076
 31
0.0
  0
LINE
  5
367
  8
0
 10
106.2698345665809
 20
86.074320718140171
 30
0.0
 11
108.2698345665808
 21
86.074320718140171
 31
0.0
  0
LINE
  5
368
  8
0
 10
80.769834566580954
 20
86.074320718140171
 30
0.0
 11
81.269834566580954
 21
86.074320718140171
 31
0.0
  0
LINE
  5
369
  8
0
 10
80.769834566580954
 20
94.074320718140171
 30
0.0
 11
81.269834566580954
 21
94.074320718140171
 31
0.0
  0
LINE
  5
36A
  8
2
 10
108.2698345665809
 20
94.074320718140171
 30
0.0
 11
116.7698345665809
 21
94.074320718140115
 31
0.0
  0
LINE
  5
36B
  8
2
 10
108.2698345665808
 20
93.397820718140366
 30
0.0
 11
116.7698345665809
 21
93.397820718140267
 31
0.0
  0
LINE
  5
36C
  8
2
 10
108.2698345665809
 20
86.750820718140076
 30
0.0
 11
116.7698345665809
 21
86.750820718140076
 31
0.0
  0
LINE
  5
36D
  8
2
 10
108.2698345665809
 20
86.074320718140171
 30
0.0
 11
116.7698345665809
 21
86.074320718140171
 31
0.0
  0
LINE
  5
36E
  8
3
 10
116.7698345665809
 20
93.397820718140267
 30
0.0
 11
118.6463345665808
 21
93.397820718140267
 31
0.0
  0
LINE
  5
36F
  8
0
 10
116.7698345665809
 20
94.074320718140171
 30
0.0
 11
117.969834566581
 21
94.074320718140171
 31
0.0
  0
LINE
  5
370
  8
0
 10
116.7698345665809
 20
86.074320718140171
 30
0.0
 11
117.9698345665809
 21
86.074320718140171
 31
0.0
  0
LINE
  5
371
  8
3
 10
116.7698345665809
 20
86.750820718140076
 30
0.0
 11
118.6463345665808
 21
86.750820718140076
 31
0.0
  0
LINE
  5
372
  8
3
 10
116.7698345665809
 20
41.750820718140091
 30
0.0
 11
118.6463345665808
 21
41.750820718140091
 31
0.0
  0
LINE
  5
373
  8
0
 10
116.7698345665809
 20
41.074320718140171
 30
0.0
 11
117.9698345665809
 21
41.074320718140171
 31
0.0
  0
LINE
  5
374
  8
0
 10
116.7698345665809
 20
49.074320718140143
 30
0.0
 11
117.969834566581
 21
49.074320718140171
 31
0.0
  0
LINE
  5
375
  8
3
 10
116.7698345665809
 20
48.397820718140252
 30
0.0
 11
118.6463345665808
 21
48.397820718140281
 31
0.0
  0
LINE
  5
376
  8
2
 10
108.2698345665809
 20
41.074320718140171
 30
0.0
 11
116.7698345665809
 21
41.074320718140193
 31
0.0
  0
LINE
  5
377
  8
2
 10
108.2698345665809
 20
41.750820718140091
 30
0.0
 11
116.7698345665809
 21
41.750820718140119
 31
0.0
  0
LINE
  5
378
  8
2
 10
108.2698345665808
 20
48.397820718140338
 30
0.0
 11
116.7698345665809
 21
48.397820718140252
 31
0.0
  0
LINE
  5
379
  8
2
 10
108.2698345665809
 20
49.074320718140143
 30
0.0
 11
116.7698345665809
 21
49.074320718140108
 31
0.0
  0
LINE
  5
37A
  8
0
 10
80.769834566580954
 20
49.074320718140143
 30
0.0
 11
81.269834566580954
 21
49.074320718140143
 31
0.0
  0
LINE
  5
37B
  8
0
 10
80.769834566580954
 20
41.074320718140171
 30
0.0
 11
81.269834566580954
 21
41.074320718140171
 31
0.0
  0
LINE
  5
37C
  8
0
 10
106.2698345665809
 20
41.074320718140171
 30
0.0
 11
108.2698345665808
 21
41.074320718140143
 31
0.0
  0
LINE
  5
37D
  8
3
 10
106.2698345665809
 20
41.750820718140091
 30
0.0
 11
108.2698345665809
 21
41.750820718140091
 31
0.0
  0
LINE
  5
37E
  8
3
 10
106.2698345665809
 20
48.397820718140309
 30
0.0
 11
108.2698345665809
 21
48.397820718140338
 31
0.0
  0
LINE
  5
37F
  8
0
 10
106.2698345665809
 20
49.074320718140171
 30
0.0
 11
108.2698345665809
 21
49.0743207181402
 31
0.0
  0
LINE
  5
380
  8
0
 10
108.2698345665809
 20
52.774320718140181
 30
0.0
 11
110.2698345665809
 21
52.774320718140181
 31
0.0
  0
LINE
  5
381
  8
0
 10
110.2698345665809
 20
52.774320718140181
 30
0.0
 11
110.2698345665809
 21
37.374320718140183
 31
0.0
  0
LINE
  5
382
  8
0
 10
110.2698345665809
 20
37.374320718140183
 30
0.0
 11
108.2698345665809
 21
37.374320718140183
 31
0.0
  0
LINE
  5
383
  8
0
 10
108.2698345665809
 20
37.374320718140183
 30
0.0
 11
108.2698345665809
 21
52.774320718140181
 31
0.0
  0
LINE
  5
384
  8
2
 10
81.269834566581068
 20
41.074320718140193
 30
0.0
 11
106.2698345665809
 21
41.074320718140171
 31
0.0
  0
LINE
  5
385
  8
2
 10
81.269834566580954
 20
49.0743207181402
 30
0.0
 11
106.2698345665809
 21
49.074320718140143
 31
0.0
  0
LINE
  5
386
  8
0
 10
81.769834566580954
 20
51.074320718140171
 30
0.0
 11
81.269834566580954
 21
50.574320718140171
 31
0.0
  0
LINE
  5
387
  8
0
 10
81.769834566580954
 20
39.074320718140228
 30
0.0
 11
81.269834566580954
 21
39.574320718140228
 31
0.0
  0
LINE
  5
388
  8
0
 10
79.169834566580931
 20
38.074320718140171
 30
0.0
 11
79.169834566580931
 21
52.074320718140171
 31
0.0
  0
LINE
  5
389
  8
0
 10
119.1698345665809
 20
47.874320718140183
 30
0.0
 11
119.1698345665809
 21
42.27432071814016
 31
0.0
  0
LINE
  5
38A
  8
2
 10
79.169834566580931
 20
41.074320718140171
 30
0.0
 11
80.769834566580954
 21
41.074320718140171
 31
0.0
  0
LINE
  5
38B
  8
2
 10
89.169834566580818
 20
41.750820718140091
 30
0.0
 11
106.2698345665809
 21
41.750820718140091
 31
0.0
  0
LINE
  5
38C
  8
2
 10
89.169834566580917
 20
48.397820718140281
 30
0.0
 11
106.2698345665809
 21
48.397820718140252
 31
0.0
  0
LINE
  5
38D
  8
2
 10
79.169834566580931
 20
49.074320718140171
 30
0.0
 11
80.769834566580954
 21
49.074320718140143
 31
0.0
  0
LINE
  5
38E
  8
0
 10
117.969834566581
 20
49.074320718140171
 30
0.0
 11
119.1698345665809
 21
47.874320718140183
 31
0.0
  0
LINE
  5
38F
  8
0
 10
119.1698345665809
 20
42.27432071814016
 30
0.0
 11
117.9698345665809
 21
41.074320718140171
 31
0.0
  0
LINE
  5
390
  8
0
 10
117.969834566581
 20
49.0743207181402
 30
0.0
 11
117.9698345665809
 21
41.074320718140171
 31
0.0
  0
LINE
  5
391
  8
2
 10
89.169834566580917
 20
49.0743207181402
 30
0.0
 11
89.169834566580818
 21
41.074320718140143
 31
0.0
  0
LINE
  5
392
  8
2
 10
89.169834566580917
 20
48.397820718140281
 30
0.0
 11
87.998102195260714
 21
49.074320718140171
 31
0.0
  0
LINE
  5
393
  8
2
 10
89.169834566580917
 20
41.750820718140062
 30
0.0
 11
87.998102195260714
 21
41.074320718140193
 31
0.0
  0
LINE
  5
394
  8
0
 10
78.369834566579954
 20
52.074320718140171
 30
0.0
 11
79.169834566580931
 21
52.074320718140171
 31
0.0
  0
LINE
  5
395
  8
0
 10
78.369834566580977
 20
38.074320718139766
 30
0.0
 11
78.369834566580977
 21
52.074320718140292
 31
0.0
  0
LINE
  5
396
  8
0
 10
74.169834566580931
 20
41.973076714182071
 30
0.0
 11
74.169834566580931
 21
48.175564722097342
 31
0.0
  0
ARC
  5
397
  8
0
 10
79.856296284814135
 20
46.261366945725932
 30
0.0
 40
6.0
 50
104.3440312982149
 51
161.39554734483849
  0
ARC
  5
398
  8
0
 10
79.856296284814135
 20
43.887274490554432
 30
0.0
 40
6.0
 50
198.60445265516151
 51
255.65596870178669
  0
LINE
  5
399
  8
0
 10
78.369834566579954
 20
38.074320718140171
 30
0.0
 11
79.169834566580931
 21
38.074320718140171
 31
0.0
  0
LINE
  5
39A
  8
0
 10
79.169834566580931
 20
36.574320718140633
 30
0.0
 11
79.169834566580931
 21
53.57432071813971
 31
0.0
  0
LINE
  5
39B
  8
0
 10
80.769834566580954
 20
36.574320718140633
 30
0.0
 11
80.769834566580954
 21
53.57432071813971
 31
0.0
  0
LINE
  5
39C
  8
0
 10
80.769834566580954
 20
36.574320718140633
 30
0.0
 11
79.169834566580931
 21
36.574320718140633
 31
0.0
  0
LINE
  5
39D
  8
0
 10
80.769834566580954
 20
53.574320718139781
 30
0.0
 11
79.169834566580931
 21
53.57432071813971
 31
0.0
  0
ARC
  5
39E
  8
0
 10
90.469834566580886
 20
38.77432071814016
 30
0.0
 40
0.3
 50
0.0
 51
90.0
  0
ARC
  5
39F
  8
0
 10
90.469834566581
 20
38.774320718140189
 30
0.0
 40
0.3
 50
0.0
 51
90.0
  0
ARC
  5
3A0
  8
0
 10
90.469834566580886
 20
51.374320718140211
 30
0.0
 40
0.3
 50
270.0
 51
0.0
  0
LINE
  5
3A1
  8
0
 10
81.769834566580954
 20
51.074320718140171
 30
0.0
 11
81.769834566580954
 21
39.074320718140228
 31
0.0
  0
LINE
  5
3A2
  8
0
 10
81.269834566580954
 20
39.574320718140228
 30
0.0
 11
81.269834566580954
 21
50.574320718140171
 31
0.0
  0
LINE
  5
3A3
  8
0
 10
90.469834566580886
 20
39.074320718140171
 30
0.0
 11
81.769834566580954
 21
39.074320718140228
 31
0.0
  0
LINE
  5
3A4
  8
0
 10
90.469834566580886
 20
51.074320718140228
 30
0.0
 11
81.769834566580954
 21
51.074320718140171
 31
0.0
  0
LINE
  5
3A5
  8
1
 10
124.1698345665809
 20
45.074320718140143
 30
0.0
 11
69.169834566580874
 21
45.0743207181402
 31
0.0
  0
TEXT
  5
44B
  8
0
 62
     3
 10
0.0
 20
0.0
 30
0.0
 40
10.0
  1
RLP12E
  7
STANDARD1
  0
LINE
  5
494
  8
0
 10
105.92342440506719
 20
53.574320718140257
 30
0.0
 11
106.2698345665809
 21
52.974320718140177
 31
0.0
  0
ARC
  5
495
  8
0
 10
101.5785257327385
 20
96.435536650315825
 30
0.0
 40
4.3448986723233833
 50
325.6157525319951
 51
25.615752532108701
  0
LINE
  5
496
  8
0
 10
105.1642350265125
 20
79.259366141916729
 30
0.0
 11
106.2698345665811
 21
81.174320718140308
 31
0.0
  0
ARC
  5
497
  8
0
 10
101.5785257327385
 20
81.713104785964646
 30
0.0
 40
4.3448986723233833
 50
334.38424746789133
 51
34.384247468004851
  0
ARC
  5
498
  8
0
 10
89.682613783595286
 20
89.074320718131887
 30
0.0
 40
16.24081062146659
 50
342.4120462260276
 51
17.587953773972391
  0
LINE
  5
499
  8
0
 10
105.1642350265125
 20
98.889275294363784
 30
0.0
 11
106.2698345665811
 21
96.974320718140206
 31
0.0
  0
LINE
  5
49A
  8
0
 10
106.2698345665811
 20
81.174320718140194
 30
0.0
 11
106.2698345665809
 21
96.974320718140277
 31
0.0
  0
ARC
  5
49B
  8
0
 10
93.647917766645321
 20
49.324320718140257
 30
0.0
 40
12.275506638416489
 50
339.74384199960582
 51
20.25615800039424
  0
LINE
  5
49C
  8
0
 10
105.92342440506719
 20
36.574320718140143
 30
0.0
 11
106.2698345665809
 21
37.174320718140223
 31
0.0
  0
ARC
  5
49D
  8
0
 10
93.647917766645321
 20
40.82432071814025
 30
0.0
 40
12.275506638416489
 50
339.74384199960582
 51
20.25615800039424
  0
LINE
  5
49E
  8
0
 10
106.2698345665809
 20
52.974320718140177
 30
0.0
 11
106.2698345665809
 21
37.174320718140173
 31
0.0
  0
ARC
  5
51D
  8
0
 10
158.6698345665809
 20
89.074320718140115
 30
0.0
 40
7.8999999999999773
 50
164.88486742530409
 51
15.115132574695849
  0
ENDSEC
  0
EOF
