  0
SECTION
  2
HEADER
  9
$ACADVER
  1
AC1009
  9
$INSBASE
 10
0.0
 20
0.0
 30
0.0
  9
$EXTMIN
 10
0.0
 20
-2.960436562073669
 30
0.0
  9
$EXTMAX
 10
121.20000011308289
 20
84.624355739020942
 30
0.0
  9
$LIMMIN
 10
0.0
 20
0.0
  9
$LIMMAX
 10
750.0
 20
540.0
  9
$ORTHOMODE
 70
     1
  9
$REGENMODE
 70
     1
  9
$FILLMODE
 70
     1
  9
$QTEXTMODE
 70
     0
  9
$MIRRTEXT
 70
     0
  9
$DRAGMODE
 70
     2
  9
$LTSCALE
 40
10.0
  9
$OSMODE
 70
    37
  9
$ATTMODE
 70
     1
  9
$TEXTSIZE
 40
0.2
  9
$TRACEWID
 40
0.05
  9
$TEXTSTYLE
  7
STANDARD
  9
$CLAYER
  8
0
  9
$CELTYPE
  6
BYLAYER
  9
$CECOLOR
 62
   256
  9
$DIMSCALE
 40
1.0
  9
$DIMASZ
 40
3.0
  9
$DIMEXO
 40
2.0
  9
$DIMDLI
 40
0.38
  9
$DIMRND
 40
0.0
  9
$DIMDLE
 40
0.0
  9
$DIMEXE
 40
2.0
  9
$DIMTP
 40
0.0
  9
$DIMTM
 40
0.0
  9
$DIMTXT
 40
3.2000000000000002
  9
$DIMCEN
 40
0.0
  9
$DIMTSZ
 40
0.0
  9
$DIMTOL
 70
     0
  9
$DIMLIM
 70
     0
  9
$DIMTIH
 70
     0
  9
$DIMTOH
 70
     0
  9
$DIMSE1
 70
     0
  9
$DIMSE2
 70
     0
  9
$DIMTAD
 70
     1
  9
$DIMZIN
 70
     0
  9
$DIMBLK
  1

  9
$DIMASO
 70
     0
  9
$DIMSHO
 70
     0
  9
$DIMPOST
  1

  9
$DIMAPOST
  1

  9
$DIMALT
 70
     0
  9
$DIMALTD
 70
     2
  9
$DIMALTF
 40
25.399999999999999
  9
$DIMLFAC
 40
1.0
  9
$DIMTOFL
 70
     0
  9
$DIMTVP
 40
1.6000000000000001
  9
$DIMTIX
 70
     1
  9
$DIMSOXD
 70
     0
  9
$DIMSAH
 70
     0
  9
$DIMBLK1
  1

  9
$DIMBLK2
  1

  9
$DIMSTYLE
  2
STANDARD
  9
$DIMCLRD
 70
     0
  9
$DIMCLRE
 70
     0
  9
$DIMCLRT
 70
     0
  9
$DIMTFAC
 40
1.0
  9
$DIMGAP
 40
0.09
  9
$LUNITS
 70
     2
  9
$LUPREC
 70
     4
  9
$SKETCHINC
 40
0.1
  9
$FILLETRAD
 40
0.0
  9
$AUNITS
 70
     0
  9
$AUPREC
 70
     4
  9
$MENU
  1
E:\r13\win\SUPPORT\ACAD
  9
$ELEVATION
 40
0.0
  9
$PELEVATION
 40
0.0
  9
$THICKNESS
 40
0.0
  9
$LIMCHECK
 70
     0
  9
$BLIPMODE
 70
     0
  9
$CHAMFERA
 40
0.0
  9
$CHAMFERB
 40
0.0
  9
$SKPOLY
 70
     0
  9
$TDCREATE
 40
2449840.6227546302
  9
$TDUPDATE
 40
2457436.593883391
  9
$TDINDWG
 40
0.0191635995
  9
$TDUSRTIMER
 40
2456598.257479988
  9
$USRTIMER
 70
     1
  9
$ANGBASE
 50
0.0
  9
$ANGDIR
 70
     0
  9
$PDMODE
 70
     0
  9
$PDSIZE
 40
0.0
  9
$PLINEWID
 40
0.0
  9
$COORDS
 70
     1
  9
$SPLFRAME
 70
     0
  9
$SPLINETYPE
 70
     6
  9
$SPLINESEGS
 70
     8
  9
$ATTDIA
 70
     0
  9
$ATTREQ
 70
     1
  9
$HANDLING
 70
     1
  9
$HANDSEED
  5
6DB
  9
$SURFTAB1
 70
     6
  9
$SURFTAB2
 70
     6
  9
$SURFTYPE
 70
     6
  9
$SURFU
 70
     6
  9
$SURFV
 70
     6
  9
$UCSNAME
  2

  9
$UCSORG
 10
0.0
 20
0.0
 30
0.0
  9
$UCSXDIR
 10
1.0
 20
0.0
 30
0.0
  9
$UCSYDIR
 10
0.0
 20
1.0
 30
0.0
  9
$PUCSNAME
  2

  9
$PUCSORG
 10
0.0
 20
0.0
 30
0.0
  9
$PUCSXDIR
 10
1.0
 20
0.0
 30
0.0
  9
$PUCSYDIR
 10
0.0
 20
1.0
 30
0.0
  9
$USERI1
 70
     0
  9
$USERI2
 70
     1
  9
$USERI3
 70
     0
  9
$USERI4
 70
     0
  9
$USERI5
 70
     0
  9
$USERR1
 40
0.0
  9
$USERR2
 40
0.0
  9
$USERR3
 40
0.0
  9
$USERR4
 40
0.0
  9
$USERR5
 40
0.0
  9
$WORLDVIEW
 70
     1
  9
$SHADEDGE
 70
     3
  9
$SHADEDIF
 70
    70
  9
$TILEMODE
 70
     1
  9
$MAXACTVP
 70
    16
  9
$PLIMCHECK
 70
     0
  9
$PEXTMIN
 10
1.0000000000000000E+020
 20
1.0000000000000000E+020
 30
1.0000000000000000E+020
  9
$PEXTMAX
 10
-1.0000000000000000E+020
 20
-1.0000000000000000E+020
 30
-1.0000000000000000E+020
  9
$PLIMMIN
 10
0.0
 20
0.0
  9
$PLIMMAX
 10
12.0
 20
9.0
  9
$UNITMODE
 70
     0
  9
$VISRETAIN
 70
     0
  9
$PLINEGEN
 70
     0
  9
$PSLTSCALE
 70
     0
  0
ENDSEC
  0
SECTION
  2
TABLES
  0
TABLE
  2
VPORT
 70
     1
  0
VPORT
  2
*ACTIVE
 70
     0
 10
0.0
 20
0.0
 11
1.0
 21
1.0
 12
172.54273504273499
 22
95.0
 13
0.0
 23
0.0
 14
20.0
 24
20.0
 15
20.0
 25
20.0
 16
0.0
 26
0.0
 36
1.0
 17
0.0
 27
0.0
 37
0.0
 40
190.0
 41
1.816239316239316
 42
50.0
 43
0.0
 44
0.0
 50
0.0
 51
0.0
 71
    16
 72
   100
 73
     1
 74
     0
 75
     0
 76
     0
 77
     0
 78
     2
  0
ENDTAB
  0
TABLE
  2
LTYPE
 70
     4
  0
LTYPE
  2
CONTINUOUS
 70
     0
  3
Solid Line
 72
    65
 73
     0
 40
0.0
  0
LTYPE
  2
CENTER
 70
     0
  3
____ _ ____ _ ____ _ ____ _ ____ _ ____ _ ____
 72
    65
 73
     4
 40
2.0
 49
1.25
 49
-0.25
 49
0.25
 49
-0.25
  0
LTYPE
  2
HIDDEN
 70
     0
  3
_ _ _ _ _ _ _ _ _ _ _ _ _ _ _ _ _ _ _ _ _ _ _
 72
    65
 73
     2
 40
0.375
 49
0.25
 49
-0.125
  0
LTYPE
  2
PHANTOM2
 70
     0
  3
___ _ _ ___ _ _ ___ _ _ ___ _ _
 72
    65
 73
     6
 40
1.25
 49
0.625
 49
-0.125
 49
0.125
 49
-0.125
 49
0.125
 49
-0.125
  0
ENDTAB
  0
TABLE
  2
LAYER
 70
     4
  0
LAYER
  2
0
 70
     0
 62
     7
  6
CONTINUOUS
  0
LAYER
  2
1
 70
     0
 62
     1
  6
CENTER
  0
LAYER
  2
2
 70
     0
 62
     2
  6
HIDDEN
  0
LAYER
  2
3
 70
     0
 62
     3
  6
CONTINUOUS
  0
ENDTAB
  0
TABLE
  2
STYLE
 70
     2
  0
STYLE
  2
STANDARD
 70
     0
 40
0.0
 41
1.0
 50
0.0
 71
     0
 42
0.2
  3
TXT
  4
BIGFONT
  0
STYLE
  2
STANDARD1
 70
     0
 40
0.0
 41
1.0
 50
0.0
 71
     0
 42
3.0
  3
txt
  4

  0
ENDTAB
  0
TABLE
  2
VIEW
 70
     1
  0
VIEW
  2
ALL
 70
     0
 40
540.0
 10
441.98319299999991
 20
270.0
 41
0.0
 11
0.0
 21
0.0
 31
1.0
 12
0.0
 22
0.0
 32
0.0
 42
50.0
 43
0.0
 44
0.0
 50
0.0
 71
     0
  0
ENDTAB
  0
TABLE
  2
UCS
 70
     0
  0
ENDTAB
  0
TABLE
  2
APPID
 70
     6
  0
APPID
  2
ACAD
 70
     0
  0
APPID
  2
ACAD_NAV_VCDISPLAY
 70
     0
  0
APPID
  2
ACAD_EXEMPT_FROM_CAD_STANDARDS
 70
     0
  0
APPID
  2
ACAD_DSTYLE_DIMJAG
 70
     0
  0
APPID
  2
ACAD_DSTYLE_DIMTALN
 70
     0
  0
APPID
  2
ACAD_MLEADERVER
 70
     0
  0
ENDTAB
  0
TABLE
  2
DIMSTYLE
 70
     1
  0
DIMSTYLE
  2
STANDARD
 70
     0
  3

  4

  5

  6

  7

 40
1.0
 41
0.18
 42
0.0625
 43
0.38
 44
0.18
 45
0.0
 46
0.0
 47
0.0
 48
0.0
140
0.18
141
0.09
142
0.0
143
25.399999999999999
144
1.0
145
0.0
146
1.0
147
0.09
 71
     0
 72
     0
 73
     1
 74
     1
 75
     0
 76
     0
 77
     0
 78
     0
170
     0
171
     2
172
     0
173
     0
174
     0
175
     0
176
     0
177
     0
178
     0
  0
ENDTAB
  0
ENDSEC
  0
SECTION
  2
BLOCKS
  0
BLOCK
  8
0
  2
$MODEL_SPACE
 70
     0
 10
0.0
 20
0.0
 30
0.0
  3
$MODEL_SPACE
  1

  0
ENDBLK
  5
11D
  8
0
  0
BLOCK
 67
     1
  8
0
  2
$PAPER_SPACE
 70
     0
 10
0.0
 20
0.0
 30
0.0
  3
$PAPER_SPACE
  1

  0
ENDBLK
  5
11B
 67
     1
  8
0
  0
ENDSEC
  0
SECTION
  2
ENTITIES
  0
CIRCLE
  5
3DB
  8
0
 10
20.50000011308288
 20
73.500000086038852
 30
0.0
 40
3.1012440039571478
  0
LINE
  5
3DC
  8
0
 10
18.00000011308256
 20
74.943375759012696
 30
0.0
 11
18.000000113083129
 21
72.056624413064995
 31
0.0
  0
LINE
  5
3DD
  8
0
 10
20.50000011308288
 20
76.386751431987093
 30
0.0
 11
18.00000011308256
 21
74.943375759012696
 31
0.0
  0
LINE
  5
3DE
  8
0
 10
23.00000011308288
 20
74.943375759013605
 30
0.0
 11
20.50000011308288
 21
76.386751431987093
 31
0.0
  0
LINE
  5
3DF
  8
0
 10
23.00000011308288
 20
72.056624413064995
 30
0.0
 11
23.00000011308288
 21
74.943375759013605
 31
0.0
  0
LINE
  5
3E0
  8
0
 10
20.5000001130831
 20
70.613248740090938
 30
0.0
 11
23.00000011308288
 21
72.056624413064995
 31
0.0
  0
LINE
  5
3E1
  8
0
 10
18.000000113083129
 20
72.056624413064995
 30
0.0
 11
20.5000001130831
 21
70.613248740090938
 31
0.0
  0
CIRCLE
  5
3E2
  8
0
 10
20.50000011308288
 20
73.500000086038852
 30
0.0
 40
8.5
  0
CIRCLE
  5
3E3
  8
0
 10
20.50000011308288
 20
73.500000086038852
 30
0.0
 40
7.0
  0
LINE
  5
3E4
  8
0
 10
29.00000011308288
 20
72.500000086038852
 30
0.0
 11
28.985281487321458
 21
73.00000008603871
 31
0.0
  0
LINE
  5
3E5
  8
0
 10
27.537532813063368
 20
78.251833263497971
 30
0.0
 11
29.00000011308288
 21
77.407477374150659
 31
0.0
  0
ARC
  5
3E6
  8
0
 10
20.50000011308288
 20
72.500000086038852
 30
0.0
 40
8.5000000000000124
 50
240.00000000000179
 51
300.0
  0
ARC
  5
3E7
  8
0
 10
20.50000011308288
 20
72.500000086038852
 30
0.0
 40
8.5000000000000124
 50
180.0
 51
240.00000000000179
  0
LINE
  5
3E8
  8
0
 10
12.014718738844291
 20
73.000000086038682
 30
0.0
 11
12.00000011308288
 21
72.500000086038852
 31
0.0
  0
ARC
  5
3E9
  8
0
 10
20.50000011308288
 20
72.500000086038852
 30
0.0
 40
8.5000000000000089
 50
300.0
 51
0.0
  0
LINE
  5
3EA
  8
0
 10
20.50000011308288
 20
62.685045509815197
 30
0.0
 11
12.00000011308288
 21
67.592522797927032
 31
0.0
  0
LINE
  5
3EB
  8
0
 10
29.00000011308288
 20
67.592522797927032
 30
0.0
 11
20.50000011308288
 21
62.685045509815197
 31
0.0
  0
LINE
  5
3EC
  8
0
 10
19.874597332112781
 20
81.953878198317469
 30
0.0
 11
20.50000011308288
 21
82.314954662262522
 31
0.0
  0
LINE
  5
3ED
  8
0
 10
20.50000011308288
 20
82.314954662262522
 30
0.0
 11
21.121201823529649
 21
81.956303687514989
 31
0.0
  0
LINE
  5
3EE
  8
0
 10
29.00000011308288
 20
77.407477374150659
 30
0.0
 11
29.00000011308288
 21
67.592522797927032
 31
0.0
  0
LINE
  5
3EF
  8
0
 10
12.00000011308288
 20
67.592522797927032
 30
0.0
 11
12.00000011308288
 21
77.407477374150687
 31
0.0
  0
LINE
  5
3F0
  8
0
 10
12.00000011308288
 20
77.407477374150687
 30
0.0
 11
13.496036102221179
 21
78.271214155197029
 31
0.0
  0
LINE
  5
3F1
  8
0
 10
51.800000113082859
 20
82.000000086038838
 30
0.0
 11
50.200000113082872
 21
82.000000086038838
 31
0.0
  0
LINE
  5
3F2
  8
0
 10
50.200000113082872
 20
65.000000086038824
 30
0.0
 11
51.800000113082859
 21
65.000000086038824
 31
0.0
  0
LINE
  5
3F3
  8
0
 10
50.200000113082872
 20
81.200000086038841
 30
0.0
 11
48.200000113082872
 21
81.200000086038841
 31
0.0
  0
LINE
  5
3F4
  8
0
 10
48.200000113082872
 20
65.80000008603885
 30
0.0
 11
50.200000113082872
 21
65.80000008603885
 31
0.0
  0
LINE
  5
3F5
  8
0
 10
47.200000113082851
 20
66.500000086038852
 30
0.0
 11
48.200000113082872
 21
66.500000086038852
 31
0.0
  0
LINE
  5
3F6
  8
0
 10
48.200000113082872
 20
80.500000086038867
 30
0.0
 11
47.200000113082851
 21
80.500000086038867
 31
0.0
  0
ARC
  5
3F7
  8
0
 10
67.400000113082854
 20
66.200000086038841
 30
0.0
 40
0.3000000000000114
 50
0.0
 51
90.0
  0
ARC
  5
3F8
  8
0
 10
67.400000113082854
 20
78.800000086038821
 30
0.0
 40
0.2999999999999829
 50
270.0
 51
0.0
  0
LINE
  5
3F9
  8
0
 10
67.400000113082854
 20
78.500000086038852
 30
0.0
 11
52.800000113082859
 21
78.500000086038852
 31
0.0
  0
LINE
  5
3FA
  8
0
 10
52.800000113082859
 20
66.500000086038852
 30
0.0
 11
67.400000113082854
 21
66.500000086038852
 31
0.0
  0
LINE
  5
3FB
  8
0
 10
52.800000113082859
 20
78.500000086038852
 30
0.0
 11
52.300000113082859
 21
78.000000086038852
 31
0.0
  0
LINE
  5
3FC
  8
0
 10
52.300000113082859
 20
67.000000086038852
 30
0.0
 11
52.800000113082859
 21
66.500000086038852
 31
0.0
  0
LINE
  5
3FD
  8
0
 10
68.459189491637687
 20
82.314954662262465
 30
0.0
 11
67.700000113082822
 21
81.000000086038852
 31
0.0
  0
LINE
  5
3FE
  8
0
 10
67.700000113082822
 20
64.000000086038852
 30
0.0
 11
68.459189491637687
 21
62.685045509815197
 31
0.0
  0
LINE
  5
3FF
  8
0
 10
50.200000113082872
 20
65.000000086038824
 30
0.0
 11
50.200000113082872
 21
82.000000086038838
 31
0.0
  0
LINE
  5
400
  8
0
 10
51.800000113082859
 20
65.000000086038824
 30
0.0
 11
51.800000113082859
 21
82.000000086038838
 31
0.0
  0
LINE
  5
401
  8
0
 10
48.200000113082872
 20
65.80000008603885
 30
0.0
 11
48.200000113082872
 21
81.200000086038841
 31
0.0
  0
LINE
  5
402
  8
0
 10
68.459189491637659
 20
77.407477374150645
 30
0.0
 11
79.440810734528043
 21
77.407477374150645
 31
0.0
  0
ARC
  5
403
  8
0
 10
72.592088680410541
 20
80.030517160913476
 30
0.0
 40
4.8950172040045246
 50
181.9820514452839
 51
212.40219602275681
  0
ARC
  5
404
  8
0
 10
72.631651724866543
 20
79.679674026945094
 30
0.0
 40
4.9349919062345284
 50
147.72394998004131
 51
177.89180255191701
  0
LINE
  5
405
  8
0
 10
68.459189491637687
 20
82.314954662262465
 30
0.0
 11
79.440810734528029
 21
82.314954662262465
 31
0.0
  0
LINE
  5
406
  8
0
 10
68.459189491637659
 20
67.592522797927003
 30
0.0
 11
79.440810734528029
 21
67.592522797927003
 31
0.0
  0
ARC
  5
407
  8
0
 10
85.362684249427815
 20
72.719964684301047
 30
0.0
 40
17.664053762508232
 50
180.71350376523651
 51
196.87445000875911
  0
ARC
  5
408
  8
0
 10
85.018633928041368
 20
72.333260257724632
 30
0.0
 40
17.319436462742441
 50
162.96365978710219
 51
179.4483864389033
  0
LINE
  5
409
  8
0
 10
68.459189491637687
 20
62.685045509815197
 30
0.0
 11
79.440810734528014
 21
62.685045509815211
 31
0.0
  0
ARC
  5
40A
  8
0
 10
72.592088680410285
 20
65.308085296577971
 30
0.0
 40
4.8950172040042679
 50
181.98205144528481
 51
212.4021960227592
  0
ARC
  5
40B
  8
0
 10
72.631651724867027
 20
64.957242162609518
 30
0.0
 40
4.934991906234985
 50
147.7239499800433
 51
177.8918025519161
  0
LINE
  5
40D
  8
0
 10
52.800000113082859
 20
78.500000086038852
 30
0.0
 11
52.800000113082859
 21
66.500000086038852
 31
0.0
  0
LINE
  5
40E
  8
0
 10
52.300000113082859
 20
67.000000086038852
 30
0.0
 11
52.300000113082859
 21
78.000000086038852
 31
0.0
  0
LINE
  5
40F
  8
0
 10
67.700000113082822
 20
64.000000086038852
 30
0.0
 11
67.700000113082822
 21
81.000000086038852
 31
0.0
  0
LINE
  5
410
  8
0
 10
47.200000113082851
 20
66.500000086038852
 30
0.0
 11
47.200000113082851
 21
80.500000086038867
 31
0.0
  0
ARC
  5
411
  8
0
 10
110.70000011308289
 20
73.500000086038852
 30
0.0
 40
8.5000000000000124
 50
93.911343556662516
 51
146.0886564433367
  0
ARC
  5
412
  8
0
 10
110.70000011308289
 20
73.500000086038852
 30
0.0
 40
8.5000000000000266
 50
33.911343556661492
 51
86.088656443337484
  0
LINE
  5
413
  8
0
 10
102.20000011308289
 20
67.592522797927003
 30
0.0
 11
110.70000011308289
 21
62.685045509815197
 31
0.0
  0
LINE
  5
414
  8
0
 10
102.20000011308289
 20
77.407477374150645
 30
0.0
 11
102.20000011308289
 21
67.592522797927003
 31
0.0
  0
LINE
  5
415
  8
0
 10
110.70000011308289
 20
82.314954662262465
 30
0.0
 11
102.20000011308289
 21
77.407477374150645
 31
0.0
  0
LINE
  5
416
  8
0
 10
119.20000011308289
 20
77.407477374150673
 30
0.0
 11
110.70000011308289
 21
82.314954662262465
 31
0.0
  0
LINE
  5
417
  8
0
 10
110.70000011308289
 20
62.685045509815197
 30
0.0
 11
119.20000011308289
 21
67.592522797927003
 31
0.0
  0
LINE
  5
418
  8
0
 10
119.20000011308289
 20
67.592522797927003
 30
0.0
 11
119.20000011308289
 21
77.407477374150673
 31
0.0
  0
LINE
  5
419
  8
0
 10
51.800000113082859
 20
47.000000086038838
 30
0.0
 11
50.200000113082893
 21
47.000000086038838
 31
0.0
  0
LINE
  5
41A
  8
0
 10
50.200000113082872
 20
30.00000008603886
 30
0.0
 11
51.800000113082859
 21
30.00000008603886
 31
0.0
  0
LINE
  5
41B
  8
0
 10
50.200000113082893
 20
46.200000086038841
 30
0.0
 11
48.200000113082893
 21
46.200000086038841
 31
0.0
  0
LINE
  5
41C
  8
0
 10
47.200000113082851
 20
31.500000086038849
 30
0.0
 11
48.200000113082872
 21
31.500000086038849
 31
0.0
  0
LINE
  5
41D
  8
0
 10
48.200000113082893
 20
45.500000086038838
 30
0.0
 11
47.200000113082893
 21
45.500000086038838
 31
0.0
  0
ARC
  5
41E
  8
0
 10
67.400000113082854
 20
32.20000008603887
 30
0.0
 40
0.3000000000000114
 50
0.000000000001357
 51
90.0
  0
ARC
  5
41F
  8
0
 10
67.400000113082882
 20
44.800000086038857
 30
0.0
 40
0.3000000000000114
 50
270.0
 51
0.0
  0
LINE
  5
420
  8
0
 10
67.400000113082882
 20
44.500000086038838
 30
0.0
 11
52.800000113082859
 21
44.500000086038838
 31
0.0
  0
LINE
  5
421
  8
0
 10
52.800000113082859
 20
32.500000086038867
 30
0.0
 11
67.400000113082854
 21
32.500000086038867
 31
0.0
  0
LINE
  5
422
  8
0
 10
52.800000113082859
 20
44.500000086038838
 30
0.0
 11
52.300000113082859
 21
44.000000086038852
 31
0.0
  0
LINE
  5
423
  8
0
 10
52.300000113082859
 20
33.000000086038881
 30
0.0
 11
52.800000113082859
 21
32.500000086038867
 31
0.0
  0
LINE
  5
424
  8
0
 10
51.800000113082859
 20
30.00000008603886
 30
0.0
 11
51.800000113082859
 21
47.000000086038838
 31
0.0
  0
LINE
  5
425
  8
0
 10
50.200000113082872
 20
30.00000008603886
 30
0.0
 11
50.200000113082893
 21
47.000000086038838
 31
0.0
  0
LINE
  5
426
  8
0
 10
48.200000113082872
 20
30.810396715253059
 30
0.0
 11
50.200000113082872
 21
30.810396715253049
 31
0.0
  0
LINE
  5
427
  8
0
 10
48.200000113082872
 20
30.810396715253059
 30
0.0
 11
48.200000113082893
 21
46.200000086038841
 31
0.0
  0
LINE
  5
428
  8
0
 10
68.459189491637702
 20
38.500000086038867
 30
0.0
 11
79.440810734528
 21
38.500000086038852
 31
0.0
  0
ARC
  5
429
  8
0
 10
80.991716556499483
 20
42.931528483768091
 30
0.0
 40
13.29295597568027
 50
180.78245458461299
 51
199.47370341580239
  0
ARC
  5
42A
  8
0
 10
81.06519078191954
 20
42.555346782065712
 30
0.0
 40
13.36660807845829
 50
160.57825017224619
 51
179.1655918273369
  0
LINE
  5
42B
  8
0
 10
67.700000113082893
 20
47.000000086038838
 30
0.0
 11
80.200000113082879
 21
47.000000086038838
 31
0.0
  0
LINE
  5
42C
  8
0
 10
80.200000113082879
 20
47.000000086038838
 30
0.0
 11
80.200000113082879
 21
30.00000008603887
 31
0.0
  0
LINE
  5
42D
  8
0
 10
67.700000113082865
 20
30.00000008603887
 30
0.0
 11
80.200000113082879
 21
30.00000008603887
 31
0.0
  0
ARC
  5
42E
  8
0
 10
80.991716556499597
 20
34.431528483768119
 30
0.0
 40
13.292955975680361
 50
180.78245458461291
 51
199.47370341580239
  0
ARC
  5
42F
  8
0
 10
81.065190781919554
 20
34.05534678206574
 30
0.0
 40
13.36660807845832
 50
160.57825017224641
 51
179.1655918273369
  0
LINE
  5
430
  8
0
 10
67.700000113082865
 20
30.00000008603887
 30
0.0
 11
67.700000113082893
 21
47.000000086038838
 31
0.0
  0
LINE
  5
431
  8
0
 10
52.800000113082859
 20
44.500000086038838
 30
0.0
 11
52.800000113082859
 21
32.500000086038867
 31
0.0
  0
LINE
  5
432
  8
0
 10
52.300000113082859
 20
33.000000086038881
 30
0.0
 11
52.300000113082859
 21
44.000000086038852
 31
0.0
  0
LINE
  5
433
  8
0
 10
47.200000113082851
 20
31.500000086038849
 30
0.0
 11
47.200000113082893
 21
45.500000086038838
 31
0.0
  0
LINE
  5
434
  8
1
 10
41.000000113082884
 20
73.500000086038852
 30
0.0
 11
90.200000113082865
 21
73.500000086038852
 31
0.0
  0
LINE
  5
435
  8
0
 10
51.800000113082902
 20
69.500000086039392
 30
0.0
 11
52.300000113082859
 21
69.500000086039392
 31
0.0
  0
LINE
  5
436
  8
0
 10
52.300000113082859
 20
77.500000086039421
 30
0.0
 11
51.800000113082902
 21
77.500000086039421
 31
0.0
  0
LINE
  5
437
  8
3
 10
80.200000113082879
 20
70.176500086039809
 30
0.0
 11
87.676500113082739
 21
70.176500086039823
 31
0.0
  0
LINE
  5
438
  8
0
 10
80.200000113082879
 20
69.50000008603989
 30
0.0
 11
87.000000113082805
 21
69.500000086039918
 31
0.0
  0
LINE
  5
439
  8
0
 10
80.200000113082879
 20
77.500000086039861
 30
0.0
 11
87.000000113082947
 21
77.500000086039918
 31
0.0
  0
LINE
  5
43A
  8
3
 10
80.200000113082879
 20
76.823500086039971
 30
0.0
 11
87.676500113082739
 21
76.823500086040028
 31
0.0
  0
LINE
  5
43B
  8
2
 10
52.30000011308303
 20
69.500000086039933
 30
0.0
 11
80.200000113082879
 21
69.50000008603989
 31
0.0
  0
LINE
  5
43C
  8
2
 10
52.300000113082902
 20
77.500000086039933
 30
0.0
 11
80.200000113082879
 21
77.500000086039861
 31
0.0
  0
LINE
  5
43D
  8
0
 10
88.200000113082865
 20
76.300000086039915
 30
0.0
 11
88.200000113082865
 21
70.700000086039907
 31
0.0
  0
LINE
  5
43E
  8
2
 10
48.200000113082872
 20
69.500000086039918
 30
0.0
 11
51.80000011308298
 21
69.50000008603989
 31
0.0
  0
LINE
  5
43F
  8
2
 10
58.200000113082751
 20
70.176500086039823
 30
0.0
 11
80.200000113082808
 21
70.176500086039809
 31
0.0
  0
LINE
  5
440
  8
2
 10
58.200000113082872
 20
76.823500086040028
 30
0.0
 11
80.200000113082808
 21
76.823500086039971
 31
0.0
  0
LINE
  5
441
  8
2
 10
48.200000113082872
 20
77.500000086039918
 30
0.0
 11
51.80000011308298
 21
77.500000086039876
 31
0.0
  0
LINE
  5
442
  8
0
 10
87.000000113082947
 20
77.500000086039918
 30
0.0
 11
88.200000113082865
 21
76.300000086039915
 31
0.0
  0
LINE
  5
443
  8
0
 10
88.200000113082865
 20
70.700000086039907
 30
0.0
 11
87.000000113082805
 21
69.500000086039918
 31
0.0
  0
LINE
  5
444
  8
0
 10
87.000000113082947
 20
77.500000086039933
 30
0.0
 11
87.000000113082805
 21
69.500000086039918
 31
0.0
  0
LINE
  5
445
  8
2
 10
58.200000113082872
 20
77.500000086039933
 30
0.0
 11
58.200000113082751
 21
69.50000008603989
 31
0.0
  0
LINE
  5
446
  8
2
 10
58.200000113082872
 20
76.823500086040028
 30
0.0
 11
57.028267741762647
 21
77.500000086039918
 31
0.0
  0
LINE
  5
447
  8
2
 10
58.200000113082872
 20
70.176500086039809
 30
0.0
 11
57.028267741762647
 21
69.500000086039947
 31
0.0
  0
ARC
  5
448
  8
0
 10
48.686461831316016
 20
72.312953858453596
 30
0.0
 40
6.0
 50
198.6044526551608
 51
255.65596870178669
  0
ARC
  5
449
  8
0
 10
48.686461831316016
 20
74.687046313625061
 30
0.0
 40
6.0
 50
104.3440312982149
 51
161.395547344839
  0
LINE
  5
44A
  8
0
 10
43.00000011308282
 20
70.398756082081235
 30
0.0
 11
43.00000011308282
 21
76.60124408999647
 31
0.0
  0
LINE
  5
44B
  8
0
 10
48.200000113082872
 20
73.232050893607706
 30
0.0
 11
50.200000113082872
 21
73.76794927846997
 31
0.0
  0
LINE
  5
44C
  8
1
 10
41.000000113082884
 20
38.500000086038852
 30
0.0
 11
90.200000113082865
 21
38.500000086038852
 31
0.0
  0
LINE
  5
44D
  8
0
 10
51.800000113082902
 20
34.5000000860394
 30
0.0
 11
52.300000113082859
 21
34.5000000860394
 31
0.0
  0
LINE
  5
44E
  8
0
 10
52.300000113082859
 20
42.5000000860394
 30
0.0
 11
51.800000113082902
 21
42.5000000860394
 31
0.0
  0
LINE
  5
44F
  8
3
 10
80.200000113082879
 20
35.176500086039809
 30
0.0
 11
87.676500113082739
 21
35.176500086039837
 31
0.0
  0
LINE
  5
450
  8
0
 10
80.200000113082879
 20
34.50000008603989
 30
0.0
 11
87.000000113082805
 21
34.500000086039918
 31
0.0
  0
LINE
  5
451
  8
0
 10
80.200000113082879
 20
42.500000086039847
 30
0.0
 11
87.000000113082947
 21
42.500000086039918
 31
0.0
  0
LINE
  5
452
  8
3
 10
80.200000113082879
 20
41.823500086039971
 30
0.0
 11
87.676500113082739
 21
41.823500086040028
 31
0.0
  0
LINE
  5
453
  8
2
 10
52.30000011308303
 20
34.500000086039947
 30
0.0
 11
80.200000113082879
 21
34.50000008603989
 31
0.0
  0
LINE
  5
454
  8
2
 10
52.300000113082902
 20
42.500000086039933
 30
0.0
 11
80.200000113082879
 21
42.500000086039847
 31
0.0
  0
LINE
  5
455
  8
0
 10
88.200000113082865
 20
41.300000086039923
 30
0.0
 11
88.200000113082865
 21
35.700000086039907
 31
0.0
  0
LINE
  5
456
  8
2
 10
48.200000113082872
 20
34.500000086039918
 30
0.0
 11
51.80000011308298
 21
34.500000086039911
 31
0.0
  0
LINE
  5
457
  8
2
 10
58.200000113082751
 20
35.176500086039837
 30
0.0
 11
80.200000113082808
 21
35.176500086039809
 31
0.0
  0
LINE
  5
458
  8
2
 10
58.200000113082872
 20
41.823500086040028
 30
0.0
 11
80.200000113082808
 21
41.823500086039971
 31
0.0
  0
LINE
  5
459
  8
2
 10
48.200000113082872
 20
42.500000086039918
 30
0.0
 11
51.80000011308298
 21
42.500000086039883
 31
0.0
  0
LINE
  5
45A
  8
0
 10
87.000000113082947
 20
42.500000086039918
 30
0.0
 11
88.200000113082865
 21
41.300000086039923
 31
0.0
  0
LINE
  5
45B
  8
0
 10
88.200000113082865
 20
35.700000086039907
 30
0.0
 11
87.000000113082805
 21
34.500000086039918
 31
0.0
  0
LINE
  5
45C
  8
0
 10
87.000000113082947
 20
42.500000086039933
 30
0.0
 11
87.000000113082805
 21
34.500000086039918
 31
0.0
  0
LINE
  5
45D
  8
2
 10
58.200000113082872
 20
42.500000086039933
 30
0.0
 11
58.200000113082751
 21
34.50000008603989
 31
0.0
  0
LINE
  5
45E
  8
2
 10
58.200000113082872
 20
41.823500086040028
 30
0.0
 11
57.028267741762647
 21
42.500000086039918
 31
0.0
  0
LINE
  5
45F
  8
2
 10
58.200000113082872
 20
35.176500086039809
 30
0.0
 11
57.028267741762647
 21
34.500000086039947
 31
0.0
  0
ARC
  5
460
  8
0
 10
48.686461831316016
 20
37.312953858453596
 30
0.0
 40
6.0
 50
198.6044526551608
 51
255.65596870178669
  0
ARC
  5
461
  8
0
 10
48.686461831316016
 20
39.687046313625082
 30
0.0
 40
6.0
 50
104.344031298215
 51
161.39554734483909
  0
LINE
  5
462
  8
0
 10
43.00000011308282
 20
35.398756082081242
 30
0.0
 11
43.00000011308282
 21
41.601244089996477
 31
0.0
  0
CIRCLE
  5
463
  8
0
 10
110.70000011308289
 20
73.500000086038852
 30
0.0
 40
4.0000000000000284
  0
CIRCLE
  5
464
  8
3
 10
110.70000011308289
 20
73.500000086038852
 30
0.0
 40
3.3235000000011738
  0
LINE
  5
465
  8
1
 10
104.70000011308279
 20
73.500000086038852
 30
0.0
 11
116.70000011308289
 21
73.500000086038852
 31
0.0
  0
LINE
  5
466
  8
1
 10
100.20000011308289
 20
72.50000008603881
 30
0.0
 11
121.20000011308289
 21
72.500000086038852
 31
0.0
  0
LINE
  5
467
  8
1
 10
110.70000011308289
 20
84.624355739020942
 30
0.0
 11
110.70000011308289
 21
60.375644433056699
 31
0.0
  0
CIRCLE
  5
468
  8
0
 10
20.50000011308288
 20
73.500000086038852
 30
0.0
 40
7.7000000000000144
  0
LINE
  5
469
  8
1
 10
10.000000113082869
 20
72.500000086038852
 30
0.0
 11
31.00000011308288
 21
72.500000086038852
 31
0.0
  0
LINE
  5
46A
  8
1
 10
20.50000011308288
 20
84.624355739020942
 30
0.0
 11
20.50000011308288
 21
60.375644433056713
 31
0.0
  0
LINE
  5
46B
  8
1
 10
10.000000113082869
 20
73.500000086038852
 30
0.0
 11
31.00000011308288
 21
73.500000086038852
 31
0.0
  0
LINE
  5
46C
  8
1
 10
50.300000113082859
 20
72.500000086038852
 30
0.0
 11
82.200000113082837
 21
72.50000008603881
 31
0.0
  0
TEXT
  5
51D
  8
0
 62
     3
 10
0.0
 20
0.0
 30
0.0
 40
10.0
  1
RLP12EWA
  7
STANDARD1
  0
LINE
  5
5DD
  8
0
 10
79.440810734528014
 20
82.314954662262465
 30
0.0
 11
80.200000113082879
 21
81.000000086038852
 31
0.0
  0
LINE
  5
5DE
  8
0
 10
80.200000113082879
 20
64.000000086038852
 30
0.0
 11
79.440810734528014
 21
62.685045509815197
 31
0.0
  0
ARC
  5
5DF
  8
0
 10
75.307911545755161
 20
80.030517160913476
 30
0.0
 40
4.8950172040045246
 50
327.59780397724342
 51
358.0179485547161
  0
ARC
  5
5E0
  8
0
 10
75.268348501299144
 20
79.679674026945094
 30
0.0
 40
4.9349919062345284
 50
2.1081974480829522
 51
32.276050019958952
  0
ARC
  5
5E1
  8
0
 10
62.537315976737901
 20
72.719964684301047
 30
0.0
 40
17.664053762508232
 50
343.1255499912408
 51
359.28649623476349
  0
ARC
  5
5E2
  8
0
 10
62.881366298124327
 20
72.333260257724632
 30
0.0
 40
17.319436462742441
 50
0.5516135610966986
 51
17.036340212897759
  0
ARC
  5
5E3
  8
0
 10
75.307911545755417
 20
65.308085296577971
 30
0.0
 40
4.8950172040042679
 50
327.5978039772408
 51
358.01794855471519
  0
ARC
  5
5E4
  8
0
 10
75.268348501298675
 20
64.957242162609518
 30
0.0
 40
4.934991906234985
 50
2.1081974480839691
 51
32.276050019956628
  0
LINE
  5
5E5
  8
0
 10
80.200000113082879
 20
64.000000086038852
 30
0.0
 11
80.200000113082879
 21
81.000000086038852
 31
0.0
  0
ARC
  5
5E6
  8
0
 10
66.908283669666218
 20
42.931528483768091
 30
0.0
 40
13.29295597568027
 50
340.52629658419778
 51
359.21754541538712
  0
ARC
  5
5E7
  8
0
 10
66.834809444246162
 20
42.555346782065712
 30
0.0
 40
13.36660807845829
 50
0.8344081726630919
 51
19.42174982775391
  0
ARC
  5
5E8
  8
0
 10
66.908283669666105
 20
34.431528483768119
 30
0.0
 40
13.292955975680361
 50
340.52629658419778
 51
359.21754541538712
  0
ARC
  5
5E9
  8
0
 10
66.834809444246133
 20
34.05534678206574
 30
0.0
 40
13.36660807845832
 50
0.8344081726630919
 51
19.421749827753729
  0
CIRCLE
  5
645
  8
0
 10
110.70000011308289
 20
72.500000086038924
 30
0.0
 40
8.4999999999999272
  0
ENDSEC
  0
EOF
