  0
SECTION
  2
HEADER
  9
$ACADVER
  1
AC1009
  9
$INSBASE
 10
0.0
 20
0.0
 30
0.0
  9
$EXTMIN
 10
0.0
 20
-2.960436562073669
 30
0.0
  9
$EXTMAX
 10
100.6334735390172
 20
60.982121558816999
 30
0.0
  9
$LIMMIN
 10
0.0
 20
0.0
  9
$LIMMAX
 10
187.5
 20
135.0
  9
$ORTHOMODE
 70
     1
  9
$REGENMODE
 70
     1
  9
$FILLMODE
 70
     1
  9
$QTEXTMODE
 70
     0
  9
$MIRRTEXT
 70
     0
  9
$DRAGMODE
 70
     2
  9
$LTSCALE
 40
5.0
  9
$OSMODE
 70
    55
  9
$ATTMODE
 70
     1
  9
$TEXTSIZE
 40
0.2
  9
$TRACEWID
 40
0.05
  9
$TEXTSTYLE
  7
STANDARD
  9
$CLAYER
  8
0
  9
$CELTYPE
  6
BYLAYER
  9
$CECOLOR
 62
   256
  9
$DIMSCALE
 40
0.5
  9
$DIMASZ
 40
3.0
  9
$DIMEXO
 40
2.0
  9
$DIMDLI
 40
0.38
  9
$DIMRND
 40
0.0
  9
$DIMDLE
 40
0.0
  9
$DIMEXE
 40
2.0
  9
$DIMTP
 40
0.0
  9
$DIMTM
 40
0.0
  9
$DIMTXT
 40
3.2000000000000002
  9
$DIMCEN
 40
0.0
  9
$DIMTSZ
 40
0.0
  9
$DIMTOL
 70
     0
  9
$DIMLIM
 70
     0
  9
$DIMTIH
 70
     0
  9
$DIMTOH
 70
     0
  9
$DIMSE1
 70
     0
  9
$DIMSE2
 70
     0
  9
$DIMTAD
 70
     1
  9
$DIMZIN
 70
     8
  9
$DIMBLK
  1

  9
$DIMASO
 70
     1
  9
$DIMSHO
 70
     0
  9
$DIMPOST
  1

  9
$DIMAPOST
  1

  9
$DIMALT
 70
     0
  9
$DIMALTD
 70
     2
  9
$DIMALTF
 40
25.399999999999999
  9
$DIMLFAC
 40
1.0
  9
$DIMTOFL
 70
     1
  9
$DIMTVP
 40
1.6000000000000001
  9
$DIMTIX
 70
     1
  9
$DIMSOXD
 70
     0
  9
$DIMSAH
 70
     0
  9
$DIMBLK1
  1

  9
$DIMBLK2
  1

  9
$DIMSTYLE
  2
STANDARD
  9
$DIMCLRD
 70
     0
  9
$DIMCLRE
 70
     0
  9
$DIMCLRT
 70
     0
  9
$DIMTFAC
 40
1.0
  9
$DIMGAP
 40
1.0
  9
$LUNITS
 70
     2
  9
$LUPREC
 70
     4
  9
$SKETCHINC
 40
0.1
  9
$FILLETRAD
 40
1.5
  9
$AUNITS
 70
     0
  9
$AUPREC
 70
     4
  9
$MENU
  1
E:\r13\win\SUPPORT\ACAD
  9
$ELEVATION
 40
0.0
  9
$PELEVATION
 40
0.0
  9
$THICKNESS
 40
0.0
  9
$LIMCHECK
 70
     0
  9
$BLIPMODE
 70
     0
  9
$CHAMFERA
 40
1.0
  9
$CHAMFERB
 40
1.0
  9
$SKPOLY
 70
     0
  9
$TDCREATE
 40
2449839.7895949078
  9
$TDUPDATE
 40
2456598.4918117942
  9
$TDINDWG
 40
0.160017419
  9
$TDUSRTIMER
 40
0.160017419
  9
$USRTIMER
 70
     1
  9
$ANGBASE
 50
0.0
  9
$ANGDIR
 70
     0
  9
$PDMODE
 70
     0
  9
$PDSIZE
 40
0.0
  9
$PLINEWID
 40
0.0
  9
$COORDS
 70
     1
  9
$SPLFRAME
 70
     0
  9
$SPLINETYPE
 70
     6
  9
$SPLINESEGS
 70
     8
  9
$ATTDIA
 70
     0
  9
$ATTREQ
 70
     1
  9
$HANDLING
 70
     1
  9
$HANDSEED
  5
BEE2
  9
$SURFTAB1
 70
     6
  9
$SURFTAB2
 70
     6
  9
$SURFTYPE
 70
     6
  9
$SURFU
 70
     6
  9
$SURFV
 70
     6
  9
$UCSNAME
  2

  9
$UCSORG
 10
0.0
 20
0.0
 30
0.0
  9
$UCSXDIR
 10
1.0
 20
0.0
 30
0.0
  9
$UCSYDIR
 10
0.0
 20
1.0
 30
0.0
  9
$PUCSNAME
  2

  9
$PUCSORG
 10
0.0
 20
0.0
 30
0.0
  9
$PUCSXDIR
 10
1.0
 20
0.0
 30
0.0
  9
$PUCSYDIR
 10
0.0
 20
1.0
 30
0.0
  9
$USERI1
 70
     0
  9
$USERI2
 70
     1
  9
$USERI3
 70
     1
  9
$USERI4
 70
     0
  9
$USERI5
 70
     0
  9
$USERR1
 40
0.0
  9
$USERR2
 40
0.0
  9
$USERR3
 40
0.0
  9
$USERR4
 40
0.0
  9
$USERR5
 40
0.0
  9
$WORLDVIEW
 70
     1
  9
$SHADEDGE
 70
     3
  9
$SHADEDIF
 70
    70
  9
$TILEMODE
 70
     1
  9
$MAXACTVP
 70
    16
  9
$PLIMCHECK
 70
     0
  9
$PEXTMIN
 10
1.0000000000000000E+020
 20
1.0000000000000000E+020
 30
1.0000000000000000E+020
  9
$PEXTMAX
 10
-1.0000000000000000E+020
 20
-1.0000000000000000E+020
 30
-1.0000000000000000E+020
  9
$PLIMMIN
 10
0.0
 20
0.0
  9
$PLIMMAX
 10
12.0
 20
9.0
  9
$UNITMODE
 70
     0
  9
$VISRETAIN
 70
     0
  9
$PLINEGEN
 70
     0
  9
$PSLTSCALE
 70
     0
  0
ENDSEC
  0
SECTION
  2
TABLES
  0
TABLE
  2
VPORT
 70
     1
  0
VPORT
  2
*ACTIVE
 70
     0
 10
0.0
 20
0.0
 11
1.0
 21
1.0
 12
93.74713919532617
 22
86.941769983850563
 13
0.0
 23
0.0
 14
5.0
 24
5.0
 15
5.0
 25
5.0
 16
0.0
 26
0.0
 36
1.0
 17
0.0
 27
0.0
 37
0.0
 40
181.41026326986619
 41
1.7807262569832401
 42
50.0
 43
0.0
 44
0.0
 50
0.0
 51
0.0
 71
     0
 72
   500
 73
     1
 74
     0
 75
     0
 76
     0
 77
     0
 78
     2
  0
ENDTAB
  0
TABLE
  2
LTYPE
 70
     3
  0
LTYPE
  2
CONTINUOUS
 70
     0
  3
Solid Line
 72
    65
 73
     0
 40
0.0
  0
LTYPE
  2
CENTER
 70
     0
  3
____ _ ____ _ ____ _ ____ _ ____ _ ____ _ ____
 72
    65
 73
     4
 40
2.0
 49
1.25
 49
-0.25
 49
0.25
 49
-0.25
  0
LTYPE
  2
PHANTOM2
 70
     0
  3
___ _ _ ___ _ _ ___ _ _ ___ _ _
 72
    65
 73
     6
 40
1.25
 49
0.625
 49
-0.125
 49
0.125
 49
-0.125
 49
0.125
 49
-0.125
  0
ENDTAB
  0
TABLE
  2
LAYER
 70
     4
  0
LAYER
  2
0
 70
     0
 62
     7
  6
CONTINUOUS
  0
LAYER
  2
1
 70
     0
 62
     1
  6
CENTER
  0
LAYER
  2
DEFPOINTS
 70
     0
 62
     7
  6
CONTINUOUS
  0
LAYER
  2
3
 70
     0
 62
     3
  6
CONTINUOUS
  0
ENDTAB
  0
TABLE
  2
STYLE
 70
     2
  0
STYLE
  2
STANDARD
 70
     0
 40
0.0
 41
1.0
 50
0.0
 71
     0
 42
0.2
  3
TXT
  4
BIGFONT
  0
STYLE
  2
STANDARD1
 70
     0
 40
0.0
 41
1.0
 50
0.0
 71
     0
 42
3.0
  3
txt
  4

  0
ENDTAB
  0
TABLE
  2
VIEW
 70
     2
  0
VIEW
  2
ALL
 70
     0
 40
135.0
 10
110.4957983193277
 20
67.5
 41
0.0
 11
0.0
 21
0.0
 31
1.0
 12
0.0
 22
0.0
 32
0.0
 42
0.0
 43
0.0
 44
0.0
 50
0.0
 71
     0
  0
VIEW
  2
OLE1
 70
     0
 40
167.61635794673921
 10
902.4035316351866
 20
-84.898870369570844
 41
190.6608896488849
 11
0.0
 21
0.0
 31
1.0
 12
0.0
 22
0.0
 32
0.0
 42
50.0
 43
0.0
 44
0.0
 50
0.0
 71
     0
  0
ENDTAB
  0
TABLE
  2
UCS
 70
     0
  0
ENDTAB
  0
TABLE
  2
APPID
 70
    10
  0
APPID
  2
ACAD
 70
     0
  0
APPID
  2
GENIUS_GENODEF_13
 70
     0
  0
APPID
  2
GENIUS_GENFIL_13
 70
     0
  0
APPID
  2
GENIUS_GENOBJ-N-CHA_13
 70
     0
  0
APPID
  2
ACAD_MLEADERVER
 70
     0
  0
APPID
  2
ACAD_EXEMPT_FROM_CAD_STANDARDS
 70
     0
  0
APPID
  2
ACAD_DSTYLE_DIMRADIAL_EXTENSION
 70
     0
  0
APPID
  2
ACAD_DSTYLE_DIMJAG
 70
     0
  0
APPID
  2
ACAD_DSTYLE_DIMTALN
 70
     0
  0
APPID
  2
ACAD_NAV_VCDISPLAY
 70
     0
  0
ENDTAB
  0
TABLE
  2
DIMSTYLE
 70
     1
  0
DIMSTYLE
  2
STANDARD
 70
     0
  3

  4

  5

  6

  7

 40
1.0
 41
0.18
 42
0.0625
 43
0.38
 44
0.18
 45
0.0
 46
0.0
 47
0.0
 48
0.0
140
0.18
141
0.09
142
0.0
143
25.399999999999999
144
1.0
145
0.0
146
1.0
147
0.09
 71
     0
 72
     0
 73
     1
 74
     1
 75
     0
 76
     0
 77
     0
 78
     0
170
     0
171
     2
172
     0
173
     0
174
     0
175
     0
176
     0
177
     0
178
     0
  0
ENDTAB
  0
ENDSEC
  0
SECTION
  2
BLOCKS
  0
BLOCK
  8
0
  2
$MODEL_SPACE
 70
     0
 10
0.0
 20
0.0
 30
0.0
  3
$MODEL_SPACE
  1

  0
ENDBLK
  5
3C9
  8
0
  0
BLOCK
 67
     1
  8
0
  2
$PAPER_SPACE
 70
     0
 10
0.0
 20
0.0
 30
0.0
  3
$PAPER_SPACE
  1

  0
ENDBLK
  5
3C7
 67
     1
  8
0
  0
ENDSEC
  0
SECTION
  2
ENTITIES
  0
POLYLINE
  5
8F0E
  8
0
 66
     1
 10
0.0
 20
0.0
 30
0.0
 70
     8
  0
VERTEX
  5
8F0F
  8
0
 10
82.302153780056216
 20
36.090167353686873
 30
0.0
 70
    32
  0
VERTEX
  5
8F10
  8
0
 10
82.297097796318283
 20
36.077117072004206
 30
0.0
 70
    32
  0
VERTEX
  5
8F11
  8
0
 10
82.287058665008047
 20
36.051458440220159
 30
0.0
 70
    32
  0
VERTEX
  5
8F12
  8
0
 10
82.277118239981036
 20
36.026394390280991
 30
0.0
 70
    32
  0
VERTEX
  5
8F13
  8
0
 10
82.272185619481107
 20
36.014087239452387
 30
0.0
 70
    32
  0
VERTEX
  5
8F14
  8
0
 10
82.267278346058717
 20
36.00193094123911
 30
0.0
 70
    32
  0
VERTEX
  5
8F15
  8
0
 10
82.257540709144379
 20
35.97807366697014
 30
0.0
 70
    32
  0
VERTEX
  5
8F16
  8
0
 10
82.247907061459514
 20
35.954827953182601
 30
0.0
 70
    32
  0
VERTEX
  5
8F17
  8
0
 10
82.238379122046695
 20
35.932198937040162
 30
0.0
 70
    32
  0
VERTEX
  5
8F18
  8
0
 10
82.228958590216578
 20
35.910191480608447
 30
0.0
 70
    32
  0
VERTEX
  5
8F19
  8
0
 10
82.219647139279701
 20
35.888810146003927
 30
0.0
 70
    32
  0
VERTEX
  5
8F1A
  8
0
 10
82.215032833461237
 20
35.878355612285787
 30
0.0
 70
    32
  0
VERTEX
  5
8F1B
  8
0
 10
82.210446410532413
 20
35.868059172186378
 30
0.0
 70
    32
  0
VERTEX
  5
8F1C
  8
0
 10
82.201358007490796
 20
35.84794245340678
 30
0.0
 70
    32
  0
VERTEX
  5
8F1D
  8
0
 10
82.192383490367916
 20
35.828463519321701
 30
0.0
 70
    32
  0
VERTEX
  5
8F1E
  8
0
 10
82.183524370787197
 20
35.809625516786497
 30
0.0
 70
    32
  0
VERTEX
  5
8F1F
  8
0
 10
82.174782106725971
 20
35.791431193340728
 30
0.0
 70
    32
  0
VERTEX
  5
8F20
  8
0
 10
82.166158097681645
 20
35.773882882402461
 30
0.0
 70
    32
  0
VERTEX
  5
8F21
  8
0
 10
82.161890859002355
 20
35.765351594326297
 30
0.0
 70
    32
  0
VERTEX
  5
8F22
  8
0
 10
82.157653680053656
 20
35.756982490190538
 30
0.0
 70
    32
  0
VERTEX
  5
8F23
  8
0
 10
82.149270122734933
 20
35.740731484398303
 30
0.0
 70
    32
  0
VERTEX
  5
8F24
  8
0
 10
82.141008622905474
 20
35.725130884646759
 30
0.0
 70
    32
  0
VERTEX
  5
8F25
  8
0
 10
82.136923998068468
 20
35.717574681206862
 30
0.0
 70
    32
  0
SEQEND
  5
8F26
  8
0
  0
POLYLINE
  5
8F27
  8
0
 66
     1
 10
0.0
 20
0.0
 30
0.0
 70
     8
  0
VERTEX
  5
8F28
  8
0
 10
81.975789398515445
 20
35.54036828836125
 30
0.0
 70
    32
  0
VERTEX
  5
8F29
  8
0
 10
81.972302559257713
 20
35.540499449082169
 30
0.0
 70
    32
  0
VERTEX
  5
8F2A
  8
0
 10
81.965468352494469
 20
35.541549918616951
 30
0.0
 70
    32
  0
VERTEX
  5
8F2B
  8
0
 10
81.958822272474933
 20
35.543653393587199
 30
0.0
 70
    32
  0
VERTEX
  5
8F2C
  8
0
 10
81.955570552476715
 20
35.545100593823847
 30
0.0
 70
    32
  0
SEQEND
  5
8F2D
  8
0
  0
LINE
  5
8F31
  8
1
 10
100.6334735390172
 20
46.257992780570142
 30
0.0
 11
70.227870070241238
 21
46.257992780570127
 31
0.0
  0
LINE
  5
8F32
  8
0
 10
92.092169518183894
 20
43.057992780570132
 30
0.0
 11
92.392169518183906
 21
43.057992780570132
 31
0.0
  0
LINE
  5
8F33
  8
0
 10
92.392169518183906
 20
49.45799278057013
 30
0.0
 11
92.092169518183894
 21
49.45799278057013
 31
0.0
  0
LINE
  5
8F34
  8
0
 10
91.692169518183888
 20
40.257992780570127
 30
0.0
 11
92.092169518183894
 21
40.657992780570133
 31
0.0
  0
LINE
  5
8F35
  8
0
 10
92.092169518183894
 20
51.85799278057015
 30
0.0
 11
91.692169518183888
 21
52.257992780570142
 31
0.0
  0
LINE
  5
8F36
  8
0
 10
82.392169518183906
 20
40.257992780570127
 30
0.0
 11
91.692169518183888
 21
40.257992780570127
 31
0.0
  0
LINE
  5
8F37
  8
0
 10
91.692169518183888
 20
52.257992780570142
 30
0.0
 11
82.392169518183906
 21
52.257992780570142
 31
0.0
  0
LINE
  5
8F38
  8
0
 10
82.392169518183906
 20
56.757992780570127
 30
0.0
 11
81.955570552476729
 21
58.387402303121391
 31
0.0
  0
ARC
  5
8F39
  8
0
 10
81.472607639332182
 20
58.25799278057012
 30
0.0
 40
0.5000000000000054
 50
15.00000000000121
 51
90.0
  0
LINE
  5
8F3A
  8
0
 10
81.472607639332182
 20
58.757992780570127
 30
0.0
 11
73.765542621177303
 21
58.757992780570127
 31
0.0
  0
ARC
  5
8F3B
  8
0
 10
73.765542621177303
 20
57.757992780570127
 30
0.0
 40
1.0
 50
90.0
 51
173.99999999999989
  0
LINE
  5
8F3C
  8
0
 10
72.469174091074507
 20
37.52534320944735
 30
0.0
 11
72.49894926499914
 21
37.242051353040338
 31
0.0
  0
LINE
  5
8F3D
  8
0
 10
72.771020725809024
 20
57.862521243837783
 30
0.0
 11
72.469174091074507
 21
54.990642351692919
 31
0.0
  0
LINE
  5
8F3E
  8
0
 10
72.932993856493113
 20
35.54036828836125
 30
0.0
 11
81.975789398527084
 21
35.54036828836125
 31
0.0
  0
LINE
  5
8F3F
  8
0
 10
92.392169518183906
 20
49.45799278057013
 30
0.0
 11
92.392169518183906
 21
43.057992780570132
 31
0.0
  0
LINE
  5
8F40
  8
0
 10
92.092169518183894
 20
51.85799278057015
 30
0.0
 11
92.092169518183894
 21
40.657992780570133
 31
0.0
  0
LINE
  5
8F41
  8
0
 10
91.692169518183888
 20
52.257992780570142
 30
0.0
 11
91.692169518183888
 21
40.257992780570127
 31
0.0
  0
LINE
  5
8F42
  8
0
 10
82.392169518183906
 20
56.757992780570127
 30
0.0
 11
82.392169518183906
 21
36.318646266291097
 31
0.0
  0
LINE
  5
8F43
  8
0
 10
72.469174091074507
 20
54.990642351692919
 30
0.0
 11
72.469174091074507
 21
37.52534320944735
 31
0.0
  0
LINE
  5
8F44
  8
0
 10
80.464161917326734
 20
56.720796806275843
 30
0.0
 11
73.843453596216463
 21
56.720796806275843
 31
0.0
  0
POLYLINE
  5
8F45
  8
0
 66
     1
 10
0.0
 20
0.0
 30
0.0
 70
     8
  0
VERTEX
  5
8F46
  8
0
 10
72.771020725809009
 20
35.648493379428373
 30
0.0
 70
    32
  0
VERTEX
  5
8F47
  8
0
 10
72.772662642766122
 20
35.642511059378151
 30
0.0
 70
    32
  0
VERTEX
  5
8F48
  8
0
 10
72.776548762445316
 20
35.631058096585832
 30
0.0
 70
    32
  0
VERTEX
  5
8F49
  8
0
 10
72.781211754703733
 20
35.620288798172567
 30
0.0
 70
    32
  0
VERTEX
  5
8F4A
  8
0
 10
72.783825084381888
 20
35.615160940860719
 30
0.0
 70
    32
  0
VERTEX
  5
8F4B
  8
0
 10
72.786621398358477
 20
35.610204439629172
 30
0.0
 70
    32
  0
VERTEX
  5
8F4C
  8
0
 10
72.792748698474256
 20
35.600805808296407
 30
0.0
 70
    32
  0
VERTEX
  5
8F4D
  8
0
 10
72.799565751256566
 20
35.592093207317433
 30
0.0
 70
    32
  0
VERTEX
  5
8F4E
  8
0
 10
72.807045622202594
 20
35.584066451193983
 30
0.0
 70
    32
  0
VERTEX
  5
8F4F
  8
0
 10
72.81516223726814
 20
35.576724855242183
 30
0.0
 70
    32
  0
VERTEX
  5
8F50
  8
0
 10
72.823890286627872
 20
35.570067220908371
 30
0.0
 70
    32
  0
VERTEX
  5
8F51
  8
0
 10
72.828475877856562
 20
35.566994370091678
 30
0.0
 70
    32
  0
VERTEX
  5
8F52
  8
0
 10
72.833205140478881
 20
35.564091818600261
 30
0.0
 70
    32
  0
VERTEX
  5
8F53
  8
0
 10
72.843082776255429
 20
35.558796369417962
 30
0.0
 70
    32
  0
VERTEX
  5
8F54
  8
0
 10
72.853499716578781
 20
35.554178026932462
 30
0.0
 70
    32
  0
VERTEX
  5
8F55
  8
0
 10
72.864432977252463
 20
35.55023335995584
 30
0.0
 70
    32
  0
VERTEX
  5
8F56
  8
0
 10
72.875862036419633
 20
35.546957829817003
 30
0.0
 70
    32
  0
VERTEX
  5
8F57
  8
0
 10
72.887772276511186
 20
35.544345770283378
 30
0.0
 70
    32
  0
VERTEX
  5
8F58
  8
0
 10
72.893902270731118
 20
35.543287250997409
 30
0.0
 70
    32
  0
VERTEX
  5
8F59
  8
0
 10
72.900145894659403
 20
35.542393055261712
 30
0.0
 70
    32
  0
VERTEX
  5
8F5A
  8
0
 10
72.912965400325888
 20
35.541095532413522
 30
0.0
 70
    32
  0
VERTEX
  5
8F5B
  8
0
 10
72.926213884609879
 20
35.540448903914992
 30
0.0
 70
    32
  0
VERTEX
  5
8F5C
  8
0
 10
72.932993856637836
 20
35.54036828836125
 30
0.0
 70
    32
  0
SEQEND
  5
8F5D
  8
0
  0
POLYLINE
  5
8F5E
  8
0
 66
     1
 10
0.0
 20
0.0
 30
0.0
 70
     8
  0
VERTEX
  5
8F5F
  8
0
 10
81.955570552476715
 20
35.545100593823847
 30
0.0
 70
    32
  0
VERTEX
  5
8F60
  8
0
 10
81.958822272474762
 20
35.543653393587292
 30
0.0
 70
    32
  0
VERTEX
  5
8F61
  8
0
 10
81.965468352493914
 20
35.541549918617108
 30
0.0
 70
    32
  0
VERTEX
  5
8F62
  8
0
 10
81.972302559256718
 20
35.540499449082247
 30
0.0
 70
    32
  0
VERTEX
  5
8F63
  8
0
 10
81.975789398514223
 20
35.54036828836125
 30
0.0
 70
    32
  0
SEQEND
  5
8F64
  8
0
  0
POLYLINE
  5
8F65
  8
0
 66
     1
 10
0.0
 20
0.0
 30
0.0
 70
     8
  0
VERTEX
  5
8F66
  8
0
 10
81.975789398514223
 20
35.54036828836125
 30
0.0
 70
    32
  0
VERTEX
  5
8F67
  8
0
 10
81.982435992630698
 20
35.540826563639158
 30
0.0
 70
    32
  0
VERTEX
  5
8F68
  8
0
 10
81.9962030799838
 20
35.54448164970028
 30
0.0
 70
    32
  0
VERTEX
  5
8F69
  8
0
 10
82.010585112713684
 20
35.551757291289597
 30
0.0
 70
    32
  0
VERTEX
  5
8F6A
  8
0
 10
82.018000022566909
 20
35.556738548927029
 30
0.0
 70
    32
  0
VERTEX
  5
8F6B
  8
0
 10
82.025560573079886
 20
35.562606523648263
 30
0.0
 70
    32
  0
VERTEX
  5
8F6C
  8
0
 10
82.041106758235046
 20
35.576971577758101
 30
0.0
 70
    32
  0
VERTEX
  5
8F6D
  8
0
 10
82.057198336187554
 20
35.594782700959669
 30
0.0
 70
    32
  0
VERTEX
  5
8F6E
  8
0
 10
82.073807465481806
 20
35.615957605411367
 30
0.0
 70
    32
  0
VERTEX
  5
8F6F
  8
0
 10
82.090903943842349
 20
35.640401272459471
 30
0.0
 70
    32
  0
VERTEX
  5
8F70
  8
0
 10
82.108455398296513
 20
35.668006087967044
 30
0.0
 70
    32
  0
VERTEX
  5
8F71
  8
0
 10
82.117391090183602
 20
35.682956960408561
 30
0.0
 70
    32
  0
VERTEX
  5
8F72
  8
0
 10
82.126427528465342
 20
35.698652306360991
 30
0.0
 70
    32
  0
VERTEX
  5
8F73
  8
0
 10
82.144867256075827
 20
35.732365137520993
 30
0.0
 70
    32
  0
VERTEX
  5
8F74
  8
0
 10
82.163933023750602
 20
35.769421650148857
 30
0.0
 70
    32
  0
VERTEX
  5
8F75
  8
0
 10
82.183617089834513
 20
35.809820613731731
 30
0.0
 70
    32
  0
VERTEX
  5
8F76
  8
0
 10
82.203903549527425
 20
35.853537886864487
 30
0.0
 70
    32
  0
VERTEX
  5
8F77
  8
0
 10
82.224774948327138
 20
35.900538352243203
 30
0.0
 70
    32
  0
VERTEX
  5
8F78
  8
0
 10
82.23542419501571
 20
35.925256038084669
 30
0.0
 70
    32
  0
VERTEX
  5
8F79
  8
0
 10
82.246212582907063
 20
35.950776876514297
 30
0.0
 70
    32
  0
VERTEX
  5
8F7A
  8
0
 10
82.268196833727885
 20
36.004199501940008
 30
0.0
 70
    32
  0
VERTEX
  5
8F7B
  8
0
 10
82.290707538963005
 20
36.060744885333577
 30
0.0
 70
    32
  0
VERTEX
  5
8F7C
  8
0
 10
82.302153780056216
 20
36.090167353686908
 30
0.0
 70
    32
  0
SEQEND
  5
8F7D
  8
0
  0
POLYLINE
  5
8F7E
  8
0
 66
     1
 10
0.0
 20
0.0
 30
0.0
 70
     8
  0
VERTEX
  5
8F7F
  8
0
 10
72.690239170846283
 20
36.090167353686908
 30
0.0
 70
    32
  0
VERTEX
  5
8F80
  8
0
 10
72.692796652950605
 20
36.07335416630589
 30
0.0
 70
    32
  0
VERTEX
  5
8F81
  8
0
 10
72.6978626516768
 20
36.040473048150027
 30
0.0
 70
    32
  0
VERTEX
  5
8F82
  8
0
 10
72.702862056954274
 20
36.00859627045692
 30
0.0
 70
    32
  0
VERTEX
  5
8F83
  8
0
 10
72.705336328419136
 20
35.993038173976728
 30
0.0
 70
    32
  0
VERTEX
  5
8F84
  8
0
 10
72.707793408246204
 20
35.977735443548937
 30
0.0
 70
    32
  0
VERTEX
  5
8F85
  8
0
 10
72.712655279777849
 20
35.947901373063232
 30
0.0
 70
    32
  0
VERTEX
  5
8F86
  8
0
 10
72.717446255676762
 20
35.919104180349102
 30
0.0
 70
    32
  0
VERTEX
  5
8F87
  8
0
 10
72.722164943655457
 20
35.891353177992059
 30
0.0
 70
    32
  0
VERTEX
  5
8F88
  8
0
 10
72.726809984190183
 20
35.864656779239503
 30
0.0
 70
    32
  0
VERTEX
  5
8F89
  8
0
 10
72.731380059165033
 20
35.839022415888842
 30
0.0
 70
    32
  0
VERTEX
  5
8F8A
  8
0
 10
72.733636585989103
 20
35.826605533262551
 30
0.0
 70
    32
  0
VERTEX
  5
8F8B
  8
0
 10
72.735873899999106
 20
35.814456464638297
 30
0.0
 70
    32
  0
VERTEX
  5
8F8C
  8
0
 10
72.740290295276594
 20
35.790964181900009
 30
0.0
 70
    32
  0
VERTEX
  5
8F8D
  8
0
 10
72.744628097902606
 20
35.768549647085017
 30
0.0
 70
    32
  0
VERTEX
  5
8F8E
  8
0
 10
72.748886231806637
 20
35.747215714389803
 30
0.0
 70
    32
  0
VERTEX
  5
8F8F
  8
0
 10
72.753063698217403
 20
35.726963973140862
 30
0.0
 70
    32
  0
VERTEX
  5
8F90
  8
0
 10
72.757159581530672
 20
35.707794716790048
 30
0.0
 70
    32
  0
VERTEX
  5
8F91
  8
0
 10
72.759179182648452
 20
35.698604417244113
 30
0.0
 70
    32
  0
VERTEX
  5
8F92
  8
0
 10
72.761186000364162
 20
35.68964973297291
 30
0.0
 70
    32
  0
VERTEX
  5
8F93
  8
0
 10
72.765160652660455
 20
35.672455743819548
 30
0.0
 70
    32
  0
VERTEX
  5
8F94
  8
0
 10
72.76908134128432
 20
35.656233577282578
 30
0.0
 70
    32
  0
VERTEX
  5
8F95
  8
0
 10
72.771020725809009
 20
35.648493379428373
 30
0.0
 70
    32
  0
SEQEND
  5
8F96
  8
0
  0
LINE
  5
8F97
  8
0
 10
82.302153780056216
 20
36.090167353686908
 30
0.0
 11
82.294030421510115
 21
36.069146680345703
 31
0.0
  0
LINE
  5
8F98
  8
0
 10
82.294030421510115
 20
36.069146680345703
 30
0.0
 11
82.392169518183906
 21
36.318646266291097
 31
0.0
  0
POLYLINE
  5
8F99
  8
0
 66
     1
 10
0.0
 20
0.0
 30
0.0
 70
     8
  0
VERTEX
  5
8F9A
  8
0
 10
72.49894926499914
 20
37.242051353040338
 30
0.0
 70
    32
  0
VERTEX
  5
8F9B
  8
0
 10
72.499105562235655
 20
37.24119636569074
 30
0.0
 70
    32
  0
VERTEX
  5
8F9C
  8
0
 10
72.500380174175262
 20
37.234218636400769
 30
0.0
 70
    32
  0
VERTEX
  5
8F9D
  8
0
 10
72.502981309647353
 20
37.219949897493017
 30
0.0
 70
    32
  0
VERTEX
  5
8F9E
  8
0
 10
72.504791141782249
 20
37.20999887695892
 30
0.0
 70
    32
  0
VERTEX
  5
8F9F
  8
0
 10
72.5069442962197
 20
37.198135536657212
 30
0.0
 70
    32
  0
VERTEX
  5
8FA0
  8
0
 10
72.512284640382063
 20
37.168596085737022
 30
0.0
 70
    32
  0
VERTEX
  5
8FA1
  8
0
 10
72.518998552926945
 20
37.131225336229377
 30
0.0
 70
    32
  0
VERTEX
  5
8FA2
  8
0
 10
72.527063322326455
 20
37.085991509123822
 30
0.0
 70
    32
  0
VERTEX
  5
8FA3
  8
0
 10
72.536438095087391
 20
37.03293825762006
 30
0.0
 70
    32
  0
VERTEX
  5
8FA4
  8
0
 10
72.547065551474475
 20
36.972182374462818
 30
0.0
 70
    32
  0
VERTEX
  5
8FA5
  8
0
 10
72.552827976247897
 20
36.93896670981519
 30
0.0
 70
    32
  0
VERTEX
  5
8FA6
  8
0
 10
72.558877044698477
 20
36.90389257130748
 30
0.0
 70
    32
  0
VERTEX
  5
8FA7
  8
0
 10
72.571791080796814
 20
36.828306712090907
 30
0.0
 70
    32
  0
VERTEX
  5
8FA8
  8
0
 10
72.585712542570434
 20
36.745746173920431
 30
0.0
 70
    32
  0
VERTEX
  5
8FA9
  8
0
 10
72.600536652127644
 20
36.656602681555469
 30
0.0
 70
    32
  0
VERTEX
  5
8FAA
  8
0
 10
72.616151340384476
 20
36.561333372077563
 30
0.0
 70
    32
  0
VERTEX
  5
8FAB
  8
0
 10
72.63243847973726
 20
36.46046167508176
 30
0.0
 70
    32
  0
VERTEX
  5
8FAC
  8
0
 10
72.640795745827802
 20
36.408107912669401
 30
0.0
 70
    32
  0
VERTEX
  5
8FAD
  8
0
 10
72.649274404595829
 20
36.354581711316463
 30
0.0
 70
    32
  0
VERTEX
  5
8FAE
  8
0
 10
72.666531580648311
 20
36.244354489578839
 30
0.0
 70
    32
  0
VERTEX
  5
8FAF
  8
0
 10
72.684243656986098
 20
36.129434084436262
 30
0.0
 70
    32
  0
VERTEX
  5
8FB0
  8
0
 10
72.693425593540937
 20
36.069146680345703
 30
0.0
 70
    32
  0
SEQEND
  5
8FB1
  8
0
  0
POLYLINE
  5
8FB2
  8
0
 66
     1
 10
0.0
 20
0.0
 30
0.0
 70
     8
  0
VERTEX
  5
8FB3
  8
0
 10
82.136923998068468
 20
35.717574681206862
 30
0.0
 70
    32
  0
VERTEX
  5
8FB4
  8
0
 10
82.131777851634993
 20
35.70820703709019
 30
0.0
 70
    32
  0
VERTEX
  5
8FB5
  8
0
 10
82.121605644064189
 20
35.690206835803501
 30
0.0
 70
    32
  0
VERTEX
  5
8FB6
  8
0
 10
82.11155772660365
 20
35.673130861654663
 30
0.0
 70
    32
  0
VERTEX
  5
8FB7
  8
0
 10
82.106582074460135
 20
35.664946165797858
 30
0.0
 70
    32
  0
VERTEX
  5
8FB8
  8
0
 10
82.101639659606334
 20
35.657000702004197
 30
0.0
 70
    32
  0
VERTEX
  5
8FB9
  8
0
 10
82.091857579021635
 20
35.641838161885872
 30
0.0
 70
    32
  0
VERTEX
  5
8FBA
  8
0
 10
82.082217448480392
 20
35.627663896605597
 30
0.0
 70
    32
  0
VERTEX
  5
8FBB
  8
0
 10
82.072725043396673
 20
35.614497371336903
 30
0.0
 70
    32
  0
VERTEX
  5
8FBC
  8
0
 10
82.063385936813233
 20
35.602356830718207
 30
0.0
 70
    32
  0
VERTEX
  5
8FBD
  8
0
 10
82.0542054869168
 20
35.591259278454068
 30
0.0
 70
    32
  0
VERTEX
  5
8FBE
  8
0
 10
82.049676371202949
 20
35.586106594545413
 30
0.0
 70
    32
  0
VERTEX
  5
8FBF
  8
0
 10
82.045188826170914
 20
35.581220466990651
 30
0.0
 70
    32
  0
VERTEX
  5
8FC0
  8
0
 10
82.036340852032637
 20
35.572254897398807
 30
0.0
 70
    32
  0
VERTEX
  5
8FC1
  8
0
 10
82.027666219241254
 20
35.564375829655823
 30
0.0
 70
    32
  0
VERTEX
  5
8FC2
  8
0
 10
82.019169333686094
 20
35.557595303565009
 30
0.0
 70
    32
  0
VERTEX
  5
8FC3
  8
0
 10
82.010854339516939
 20
35.551924165393579
 30
0.0
 70
    32
  0
VERTEX
  5
8FC4
  8
0
 10
82.00272506724427
 20
35.547372091839208
 30
0.0
 70
    32
  0
VERTEX
  5
8FC5
  8
0
 10
81.998731277103644
 20
35.545518469536049
 30
0.0
 70
    32
  0
VERTEX
  5
8FC6
  8
0
 10
81.994785349156885
 20
35.543947798500213
 30
0.0
 70
    32
  0
VERTEX
  5
8FC7
  8
0
 10
81.98703891310511
 20
35.541658906400897
 30
0.0
 70
    32
  0
VERTEX
  5
8FC8
  8
0
 10
81.979489317728905
 20
35.54051188793683
 30
0.0
 70
    32
  0
VERTEX
  5
8FC9
  8
0
 10
81.975789398515445
 20
35.54036828836125
 30
0.0
 70
    32
  0
SEQEND
  5
8FCA
  8
0
  0
CIRCLE
  5
8FCB
  8
0
 10
36.594127981458769
 20
46.240817537983709
 30
0.0
 40
7.9999999999999956
  0
ARC
  5
8FCC
  8
0
 10
31.086964053635359
 20
38.660856674656628
 30
0.0
 40
3.1306531061397118
 50
164.38751379519201
 51
303.61248620422111
  0
ARC
  5
8FCD
  8
0
 10
45.504906398294352
 20
49.136104954380713
 30
0.0
 40
3.1306531061397118
 50
308.38751379577798
 51
87.612486204807539
  0
ARC
  5
8FCE
  8
0
 10
36.594127981458811
 20
55.610164431844012
 30
0.0
 40
3.1306531061397118
 50
20.387513795192429
 51
159.6124862042212
  0
LINE
  5
8FCF
  8
1
 10
21.852823960625479
 20
46.240817537983709
 30
0.0
 11
51.335432002292052
 21
46.240817537983709
 31
0.0
  0
ARC
  5
8FD0
  8
0
 10
42.101291909282182
 20
38.660856674656628
 30
0.0
 40
3.1306531061397118
 50
236.3875137957788
 51
15.612486204808009
  0
ARC
  5
8FD1
  8
0
 10
27.683349564623182
 20
49.136104954380713
 30
0.0
 40
3.1306531061397118
 50
92.387513795192433
 51
231.61248620422191
  0
ARC
  5
8FD2
  8
0
 10
27.376282887378181
 20
58.928092871179622
 30
0.0
 40
6.6663933335568721
 50
271.51843649559271
 51
340.4815635048696
  0
ARC
  5
8FD3
  8
0
 10
45.811973075539349
 20
58.928092871179622
 30
0.0
 40
6.6663933335568721
 50
199.51843649513029
 51
268.4815635044074
  0
ARC
  5
8FD4
  8
0
 10
36.594127981459202
 20
30.558482776897051
 30
0.0
 40
6.6663933335568712
 50
55.518436495593129
 51
124.4815635048698
  0
ARC
  5
8FD5
  8
0
 10
21.679341316205178
 20
41.394709585331348
 30
0.0
 40
6.6663933335568712
 50
343.51843649513017
 51
52.481563504406267
  0
ARC
  5
8FD6
  8
0
 10
51.508914646712363
 20
41.394709585331348
 30
0.0
 40
6.6663933335568712
 50
127.5184364955938
 51
196.4815635048698
  0
ARC
  5
8FDC
  8
0
 10
72.069742123550782
 20
50.086151406381809
 30
0.0
 40
1.5383252020162099
 50
331.29936487828439
 51
28.700635121715521
  0
ARC
  5
8FDD
  8
0
 10
80.059496168665191
 20
55.059328937089582
 30
0.0
 40
7.8752268142290802
 50
195.458736792309
 51
212.51993663326201
  0
ARC
  5
8FDE
  8
0
 10
80.218385702023625
 20
45.888992594192992
 30
0.0
 40
7.6359277558157688
 50
152.92826291694479
 51
166.0638435930403
  0
ARC
  5
8FDF
  8
0
 10
103.6937628983096
 20
43.31223304801906
 30
0.0
 40
31.200478925062569
 50
171.86361530448681
 51
182.50982615954641
  0
ARC
  5
8FE0
  8
0
 10
162.49466493536511
 20
46.715858096898039
 30
0.0
 40
90.089438468204776
 50
183.03502766956871
 51
185.4249712065228
  0
ARC
  5
8FE1
  8
0
 10
73.495511029550272
 20
36.157559565840131
 30
0.0
 40
0.2700315916270337
 50
300.38705707576349
 51
45.618531993446858
  0
ARC
  5
8FE2
  8
0
 10
76.799087920811161
 20
38.924400624063409
 30
0.0
 40
4.0558076606628246
 50
190.30874191293469
 51
208.73795371820401
  0
ARC
  5
8FE3
  8
0
 10
72.249671111356903
 20
37.488274705224811
 30
0.0
 40
2.0871336189323371
 50
291.04596538129209
 51
311.48005713674831
  0
LINE
  5
8FE4
  8
0
 10
81.493631272346207
 20
56.757992780570127
 30
0.0
 11
81.493631272346178
 21
36.318646266291097
 31
0.0
  0
LINE
  5
8FE5
  8
0
 10
80.464161917326734
 20
52.282055332338153
 30
0.0
 11
73.843453596216463
 21
52.282055332338153
 31
0.0
  0
LINE
  5
8FE6
  8
0
 10
80.464161917326734
 20
45.467645017777862
 30
0.0
 11
73.843453596216463
 21
45.467645017777862
 31
0.0
  0
LINE
  5
8FE7
  8
0
 10
80.464161917326734
 20
39.51766634957211
 30
0.0
 11
73.843453596216463
 21
39.51766634957211
 31
0.0
  0
ARC
  5
8FE8
  8
0
 10
69.731233057404381
 20
34.020602715701422
 30
0.0
 40
4.588684746397746
 50
30.514704200307019
 51
40.068459346693913
  0
LINE
  5
902F
  8
0
 10
97.962669518183901
 20
44.257992780570127
 30
0.0
 11
92.392169518183934
 21
44.257992780570127
 31
0.0
  0
LINE
  5
9030
  8
0
 10
92.392169518183934
 20
48.25799278057012
 30
0.0
 11
97.962669518183901
 21
48.257992780570127
 31
0.0
  0
LINE
  5
9031
  8
0
 10
98.392169518183934
 20
44.687492780570132
 30
0.0
 11
97.962669518183901
 21
44.257992780570127
 31
0.0
  0
LINE
  5
9032
  8
0
 10
97.962669518183901
 20
48.257992780570127
 30
0.0
 11
98.392169518183934
 21
47.82849278057013
 31
0.0
  0
LINE
  5
9034
  8
0
 10
97.962669518183901
 20
48.257992780570127
 30
0.0
 11
97.962669518183901
 21
44.257992780570127
 31
0.0
  0
LINE
  5
9035
  8
0
 10
98.392169518183934
 20
47.82849278057013
 30
0.0
 11
98.392169518183934
 21
44.687492780570132
 31
0.0
  0
LINE
  5
9036
  8
3
 10
98.392169518183934
 20
44.687492780570132
 30
0.0
 11
93.492169518183914
 21
44.687492780570132
 31
0.0
  0
LINE
  5
9037
  8
3
 10
92.89216951818392
 20
44.257992780570127
 30
0.0
 11
93.492169518183914
 21
44.687492780570132
 31
0.0
  0
LINE
  5
9038
  8
0
 10
93.492169518183914
 20
44.257992780570127
 30
0.0
 11
93.492169518183914
 21
48.257992780570127
 31
0.0
  0
LINE
  5
9039
  8
3
 10
98.392169518183934
 20
47.82849278057013
 30
0.0
 11
93.492169518183914
 21
47.82849278057013
 31
0.0
  0
LINE
  5
903A
  8
3
 10
92.89216951818392
 20
48.257992780570127
 30
0.0
 11
93.492169518183914
 21
47.82849278057013
 31
0.0
  0
LINE
  5
9122
  8
1
 10
36.594127981458769
 20
60.982121558816999
 30
0.0
 11
36.594127981458769
 21
31.499513517150429
 31
0.0
  0
TEXT
  5
BE7B
  8
0
 62
     3
 10
0.0
 20
0.0
 30
0.0
 40
10.0
  1
SFK25AX6
  7
STANDARD1
  0
ENDSEC
  0
EOF
