  0
SECTION
  2
HEADER
  9
$ACADVER
  1
AC1009
  9
$INSBASE
 10
0.0
 20
0.0
 30
0.0
  9
$EXTMIN
 10
0.0
 20
-2.960436562073669
 30
0.0
  9
$EXTMAX
 10
136.73211381769281
 20
90.336860129069493
 30
0.0
  9
$LIMMIN
 10
0.0
 20
0.0
  9
$LIMMAX
 10
187.5
 20
135.0
  9
$ORTHOMODE
 70
     1
  9
$REGENMODE
 70
     1
  9
$FILLMODE
 70
     1
  9
$QTEXTMODE
 70
     0
  9
$MIRRTEXT
 70
     0
  9
$DRAGMODE
 70
     2
  9
$LTSCALE
 40
5.0
  9
$OSMODE
 70
    55
  9
$ATTMODE
 70
     1
  9
$TEXTSIZE
 40
4.000000000000048
  9
$TRACEWID
 40
0.05
  9
$TEXTSTYLE
  7
STANDARD
  9
$CLAYER
  8
0
  9
$CELTYPE
  6
BYLAYER
  9
$CECOLOR
 62
   256
  9
$DIMSCALE
 40
0.5
  9
$DIMASZ
 40
3.0
  9
$DIMEXO
 40
2.0
  9
$DIMDLI
 40
0.38
  9
$DIMRND
 40
0.0
  9
$DIMDLE
 40
0.0
  9
$DIMEXE
 40
2.0
  9
$DIMTP
 40
0.0
  9
$DIMTM
 40
0.0
  9
$DIMTXT
 40
3.2000000000000002
  9
$DIMCEN
 40
0.09
  9
$DIMTSZ
 40
0.0
  9
$DIMTOL
 70
     0
  9
$DIMLIM
 70
     0
  9
$DIMTIH
 70
     0
  9
$DIMTOH
 70
     0
  9
$DIMSE1
 70
     0
  9
$DIMSE2
 70
     0
  9
$DIMTAD
 70
     1
  9
$DIMZIN
 70
     0
  9
$DIMBLK
  1

  9
$DIMASO
 70
     1
  9
$DIMSHO
 70
     0
  9
$DIMPOST
  1

  9
$DIMAPOST
  1

  9
$DIMALT
 70
     0
  9
$DIMALTD
 70
     2
  9
$DIMALTF
 40
25.399999999999999
  9
$DIMLFAC
 40
1.0
  9
$DIMTOFL
 70
     0
  9
$DIMTVP
 40
1.6000000000000001
  9
$DIMTIX
 70
     1
  9
$DIMSOXD
 70
     0
  9
$DIMSAH
 70
     0
  9
$DIMBLK1
  1

  9
$DIMBLK2
  1

  9
$DIMSTYLE
  2
STANDARD
  9
$DIMCLRD
 70
     0
  9
$DIMCLRE
 70
     0
  9
$DIMCLRT
 70
     0
  9
$DIMTFAC
 40
1.0
  9
$DIMGAP
 40
0.09
  9
$LUNITS
 70
     2
  9
$LUPREC
 70
     4
  9
$SKETCHINC
 40
0.1
  9
$FILLETRAD
 40
1.8999999999999999
  9
$AUNITS
 70
     0
  9
$AUPREC
 70
     0
  9
$MENU
  1
E:\r13\win\SUPPORT\ACAD
  9
$ELEVATION
 40
0.0
  9
$PELEVATION
 40
0.0
  9
$THICKNESS
 40
0.0
  9
$LIMCHECK
 70
     0
  9
$BLIPMODE
 70
     0
  9
$CHAMFERA
 40
0.0
  9
$CHAMFERB
 40
0.0
  9
$SKPOLY
 70
     0
  9
$TDCREATE
 40
2451582.6882163188
  9
$TDUPDATE
 40
2456598.495711748
  9
$TDINDWG
 40
0.0001810069
  9
$TDUSRTIMER
 40
0.0001810069
  9
$USRTIMER
 70
     1
  9
$ANGBASE
 50
0.0
  9
$ANGDIR
 70
     0
  9
$PDMODE
 70
     0
  9
$PDSIZE
 40
0.0
  9
$PLINEWID
 40
0.0
  9
$COORDS
 70
     1
  9
$SPLFRAME
 70
     0
  9
$SPLINETYPE
 70
     6
  9
$SPLINESEGS
 70
     8
  9
$ATTDIA
 70
     0
  9
$ATTREQ
 70
     1
  9
$HANDLING
 70
     1
  9
$HANDSEED
  5
6AD
  9
$SURFTAB1
 70
     6
  9
$SURFTAB2
 70
     6
  9
$SURFTYPE
 70
     6
  9
$SURFU
 70
     6
  9
$SURFV
 70
     6
  9
$UCSNAME
  2

  9
$UCSORG
 10
0.0
 20
0.0
 30
0.0
  9
$UCSXDIR
 10
1.0
 20
0.0
 30
0.0
  9
$UCSYDIR
 10
0.0
 20
1.0
 30
0.0
  9
$PUCSNAME
  2

  9
$PUCSORG
 10
0.0
 20
0.0
 30
0.0
  9
$PUCSXDIR
 10
1.0
 20
0.0
 30
0.0
  9
$PUCSYDIR
 10
0.0
 20
1.0
 30
0.0
  9
$USERI1
 70
     0
  9
$USERI2
 70
     1
  9
$USERI3
 70
     1
  9
$USERI4
 70
     0
  9
$USERI5
 70
     0
  9
$USERR1
 40
0.0
  9
$USERR2
 40
0.0
  9
$USERR3
 40
0.0
  9
$USERR4
 40
0.0
  9
$USERR5
 40
0.0
  9
$WORLDVIEW
 70
     1
  9
$SHADEDGE
 70
     3
  9
$SHADEDIF
 70
    70
  9
$TILEMODE
 70
     1
  9
$MAXACTVP
 70
    16
  9
$PLIMCHECK
 70
     0
  9
$PEXTMIN
 10
1.0000000000000000E+020
 20
1.0000000000000000E+020
 30
1.0000000000000000E+020
  9
$PEXTMAX
 10
-1.0000000000000000E+020
 20
-1.0000000000000000E+020
 30
-1.0000000000000000E+020
  9
$PLIMMIN
 10
0.0
 20
0.0
  9
$PLIMMAX
 10
12.0
 20
9.0
  9
$UNITMODE
 70
     0
  9
$VISRETAIN
 70
     0
  9
$PLINEGEN
 70
     0
  9
$PSLTSCALE
 70
     0
  0
ENDSEC
  0
SECTION
  2
TABLES
  0
TABLE
  2
VPORT
 70
     1
  0
VPORT
  2
*ACTIVE
 70
     0
 10
0.0
 20
0.0
 11
1.0
 21
1.0
 12
93.74713919532617
 22
86.941769983850563
 13
0.0
 23
0.0
 14
5.0
 24
5.0
 15
5.0
 25
5.0
 16
0.0
 26
0.0
 36
1.0
 17
0.0
 27
0.0
 37
0.0
 40
181.41026326986619
 41
1.7807262569832401
 42
50.0
 43
0.0
 44
0.0
 50
0.0
 51
0.0
 71
     0
 72
   500
 73
     1
 74
     0
 75
     0
 76
     0
 77
     0
 78
     2
  0
ENDTAB
  0
TABLE
  2
LTYPE
 70
     4
  0
LTYPE
  2
CONTINUOUS
 70
     0
  3
Solid Line
 72
    65
 73
     0
 40
0.0
  0
LTYPE
  2
CENTER
 70
     0
  3
____ _ ____ _ ____ _ ____ _ ____ _ ____ _ ____
 72
    65
 73
     4
 40
2.0
 49
1.25
 49
-0.25
 49
0.25
 49
-0.25
  0
LTYPE
  2
HIDDEN
 70
     0
  3
_ _ _ _ _ _ _ _ _ _ _ _ _ _ _ _ _ _ _ _ _ _ _
 72
    65
 73
     2
 40
0.375
 49
0.25
 49
-0.125
  0
LTYPE
  2
PHANTOM2
 70
     0
  3
___ _ _ ___ _ _ ___ _ _ ___ _ _
 72
    65
 73
     6
 40
1.25
 49
0.625
 49
-0.125
 49
0.125
 49
-0.125
 49
0.125
 49
-0.125
  0
ENDTAB
  0
TABLE
  2
LAYER
 70
     3
  0
LAYER
  2
0
 70
     0
 62
     7
  6
CONTINUOUS
  0
LAYER
  2
1
 70
     0
 62
     1
  6
CENTER
  0
LAYER
  2
2
 70
     0
 62
     2
  6
HIDDEN
  0
ENDTAB
  0
TABLE
  2
STYLE
 70
     2
  0
STYLE
  2
STANDARD
 70
     0
 40
0.0
 41
1.0
 50
0.0
 71
     0
 42
4.000000000000048
  3
TXT
  4
BIGFONT
  0
STYLE
  2
STANDARD1
 70
     0
 40
0.0
 41
1.0
 50
0.0
 71
     0
 42
3.0
  3
txt
  4

  0
ENDTAB
  0
TABLE
  2
VIEW
 70
     1
  0
VIEW
  2
ALL
 70
     0
 40
135.0
 10
110.4957983193277
 20
67.5
 41
0.0
 11
0.0
 21
0.0
 31
1.0
 12
0.0
 22
0.0
 32
0.0
 42
0.0
 43
0.0
 44
0.0
 50
0.0
 71
     0
  0
ENDTAB
  0
TABLE
  2
UCS
 70
     0
  0
ENDTAB
  0
TABLE
  2
APPID
 70
     3
  0
APPID
  2
ACAD
 70
     0
  0
APPID
  2
ACAD_MLEADERVER
 70
     0
  0
APPID
  2
ACAD_NAV_VCDISPLAY
 70
     0
  0
ENDTAB
  0
TABLE
  2
DIMSTYLE
 70
     1
  0
DIMSTYLE
  2
STANDARD
 70
     0
  3

  4

  5

  6

  7

 40
1.0
 41
0.18
 42
0.0625
 43
0.38
 44
0.18
 45
0.0
 46
0.0
 47
0.0
 48
0.0
140
0.18
141
0.09
142
0.0
143
25.399999999999999
144
1.0
145
0.0
146
1.0
147
0.09
 71
     0
 72
     0
 73
     1
 74
     1
 75
     0
 76
     0
 77
     0
 78
     0
170
     0
171
     2
172
     0
173
     0
174
     0
175
     0
176
     0
177
     0
178
     0
  0
ENDTAB
  0
ENDSEC
  0
SECTION
  2
BLOCKS
  0
BLOCK
  8
0
  2
$MODEL_SPACE
 70
     0
 10
0.0
 20
0.0
 30
0.0
  3
$MODEL_SPACE
  1

  0
ENDBLK
  5
52E
  8
0
  0
BLOCK
 67
     1
  8
0
  2
$PAPER_SPACE
 70
     0
 10
0.0
 20
0.0
 30
0.0
  3
$PAPER_SPACE
  1

  0
ENDBLK
  5
52C
 67
     1
  8
0
  0
BLOCK
  8
0
  2
STDGX5
 70
     0
 10
0.0
 20
0.0
 30
0.0
  3
STDGX5
  1

  0
ENDBLK
  5
3DA
  8
0
  0
ENDSEC
  0
SECTION
  2
ENTITIES
  0
INSERT
  5
404
  8
0
  2
STDGX5
 10
0.0
 20
0.0
 30
0.0
 41
0.125
 42
0.125
 43
0.125
  0
INSERT
  5
405
  8
0
  2
STDGX5
 10
0.0
 20
0.0
 30
0.0
 41
0.125
 42
0.125
 43
0.125
  0
INSERT
  5
406
  8
0
  2
STDGX5
 10
34.375
 20
0.0
 30
0.0
 41
0.125
 42
0.125
 43
0.125
  0
INSERT
  5
407
  8
0
  2
STDGX5
 10
34.375
 20
0.0
 30
0.0
 41
0.125
 42
0.125
 43
0.125
  0
INSERT
  5
408
  8
0
  2
STDGX5
 10
0.0
 20
0.0
 30
0.0
 41
0.25
 42
0.25
 43
0.25
  0
INSERT
  5
409
  8
0
  2
STDGX5
 10
0.0
 20
0.0
 30
0.0
 41
0.25
 42
0.25
 43
0.25
  0
INSERT
  5
40A
  8
0
  2
STDGX5
 10
68.75
 20
0.0
 30
0.0
 41
0.25
 42
0.25
 43
0.25
  0
INSERT
  5
40B
  8
0
  2
STDGX5
 10
68.75
 20
0.0
 30
0.0
 41
0.25
 42
0.25
 43
0.25
  0
INSERT
  5
40D
  8
0
  2
STDGX5
 10
-17.5
 20
-50.0
 30
0.0
 41
0.1666666666666666
 42
0.1666666666666666
 43
0.1666666666666666
  0
INSERT
  5
40E
  8
0
  2
STDGX5
 10
-17.5
 20
-50.0
 30
0.0
 41
0.1666666666666666
 42
0.1666666666666666
 43
0.1666666666666666
  0
INSERT
  5
40F
  8
0
  2
STDGX5
 10
28.333333333333321
 20
-50.0
 30
0.0
 41
0.1666666666666666
 42
0.1666666666666666
 43
0.1666666666666666
  0
INSERT
  5
410
  8
0
  2
STDGX5
 10
28.333333333333321
 20
-50.0
 30
0.0
 41
0.1666666666666666
 42
0.1666666666666666
 43
0.1666666666666666
  0
INSERT
  5
412
  8
0
  2
STDGX5
 10
-17.5
 20
-50.0
 30
0.0
 41
0.1666666666666666
 42
0.1666666666666666
 43
0.1666666666666666
  0
INSERT
  5
413
  8
0
  2
STDGX5
 10
-17.5
 20
-50.0
 30
0.0
 41
0.1666666666666666
 42
0.1666666666666666
 43
0.1666666666666666
  0
INSERT
  5
414
  8
0
  2
STDGX5
 10
28.333333333333329
 20
-50.0
 30
0.0
 41
0.1666666666666666
 42
0.1666666666666666
 43
0.1666666666666666
  0
INSERT
  5
415
  8
0
  2
STDGX5
 10
28.333333333333329
 20
-50.0
 30
0.0
 41
0.1666666666666666
 42
0.1666666666666666
 43
0.1666666666666666
  0
INSERT
  5
416
  8
0
  2
STDGX5
 10
0.0
 20
0.0
 30
0.0
 41
0.5
 42
0.5
 43
0.5
  0
INSERT
  5
417
  8
0
  2
STDGX5
 10
0.0
 20
0.0
 30
0.0
 41
0.5
 42
0.5
 43
0.5
  0
INSERT
  5
418
  8
0
  2
STDGX5
 10
137.5
 20
0.0
 30
0.0
 41
0.5
 42
0.5
 43
0.5
  0
INSERT
  5
419
  8
0
  2
STDGX5
 10
137.5
 20
0.0
 30
0.0
 41
0.5
 42
0.5
 43
0.5
  0
ARC
  5
4B0
  8
0
 10
88.34041636174635
 20
65.005757794374148
 30
0.0
 40
10.83
 50
137.171709143849
 51
186.8282908561508
  0
ARC
  5
4B1
  8
0
 10
44.119551433638769
 20
65.005757794374261
 30
0.0
 40
10.83
 50
353.17170914384877
 51
42.828290856150709
1001
ACAD
1000
ASC_BOUNDS
1002
{
1070
    19
1002
}
  0
CIRCLE
  5
4B2
  8
0
 10
66.229983897692591
 20
72.189872794172715
 30
0.0
 40
10.5
  0
LINE
  5
4B3
  8
1
 10
66.229983897692591
 20
90.336860129069493
 30
0.0
 11
66.229983897692591
 21
54.189872794172913
 31
0.0
1001
ACAD
1000
ASC_BOUNDS
1002
{
1070
    19
1002
}
  0
ARC
  5
4B5
  8
0
 10
66.229983897692534
 20
48.941588296648781
 30
0.0
 40
10.83
 50
65.171709143851743
 51
114.828290856148
  0
ARC
  5
4B6
  8
0
 10
59.658544777062723
 20
63.145062797060831
 30
0.0
 40
4.8200000000000003
 50
173.17170914384889
 51
294.8282908561481
  0
ARC
  5
4B7
  8
0
 10
72.801423018322396
 20
63.145062797060831
 30
0.0
 40
4.8200000000000003
 50
245.1717091438517
 51
6.8282908561508071
  0
LINE
  5
4B8
  8
1
 10
48.22998389769279
 20
72.189872794172715
 30
0.0
 11
84.229983897692378
 21
72.189872794172715
 31
0.0
1001
ACAD
1000
ASC_BOUNDS
1002
{
1070
    19
1002
}
  0
ARC
  5
4B9
  8
0
 10
66.229983897692591
 20
83.369872794172721
 30
0.0
 40
4.8200000000000003
 50
29.17170914384878
 51
150.828290856151
1001
ACAD
1000
ASC_BOUNDS
1002
{
1070
    19
1002
}
  0
ARC
  5
4BA
  8
0
 10
55.597172045512757
 20
75.64468279128468
 30
0.0
 40
4.8200000000000003
 50
101.171709143849
 51
222.828290856151
1001
ACAD
1000
ASC_BOUNDS
1002
{
1070
    19
1002
}
  0
ARC
  5
4BB
  8
0
 10
52.564985128948308
 20
90.998130042733294
 30
0.0
 40
10.83
 50
281.17170914384877
 51
330.82829085615072
1001
ACAD
1000
ASC_BOUNDS
1002
{
1070
    19
1002
}
  0
ARC
  5
4BC
  8
0
 10
76.86279574987239
 20
75.644682791284652
 30
0.0
 40
4.8200000000000003
 50
317.17170914384877
 51
78.828290856150701
  0
ARC
  5
4BD
  8
0
 10
79.894982666436931
 20
90.998130042733237
 30
0.0
 40
10.83
 50
209.17170914384889
 51
258.82829085615077
  0
LINE
  5
4BE
  8
2
 10
121.73211381769281
 20
69.689872794172743
 30
0.0
 11
122.73211381769281
 21
68.689872794172743
 31
0.0
  0
ARC
  5
4BF
  8
0
 10
123.4096930183884
 20
67.349899645839571
 30
0.0
 40
10.764453390754349
 50
163.63659927534991
 51
198.4630796502488
  0
LINE
  5
4C0
  8
0
 10
122.23211381769261
 20
60.723210714173121
 30
0.0
 11
122.23211381769261
 21
72.189872794172715
 31
0.0
1001
ACAD
1000
ASC_BOUNDS
1002
{
1070
    19
1005
0
1002
}
  0
LINE
  5
4C1
  8
0
 10
134.73211381769281
 20
75.689872794172771
 30
0.0
 11
134.73211381769281
 21
68.689872794172743
 31
0.0
1001
ACAD
1000
ASC_BOUNDS
1002
{
1070
    19
1002
}
  0
LINE
  5
4C2
  8
0
 10
134.43211381769291
 20
78.65653967417262
 30
0.0
 11
134.43211381769279
 21
65.723205914172752
 31
0.0
1001
ACAD
1000
ASC_BOUNDS
1002
{
1070
    19
1005
0
1002
}
  0
LINE
  5
4C3
  8
0
 10
112.22998389769251
 20
82.689872794172629
 30
0.0
 11
112.22998389769251
 21
61.689872794173112
 31
0.0
1001
ACAD
1000
ASC_BOUNDS
1002
{
1070
    19
1005
0
1002
}
  0
LINE
  5
4C4
  8
0
 10
112.22998389769251
 20
76.253853249921946
 30
0.0
 11
112.22998389769251
 21
69.167168342719947
 31
0.0
  0
ARC
  5
4C5
  8
2
 10
85.667483897692193
 20
72.1898727941728
 30
0.0
 40
28.56250000000033
 50
338.43140426487508
 51
21.568595735124781
1001
ACAD
1000
ASC_BOUNDS
1002
{
1070
    19
1002
}
  0
LINE
  5
4C6
  8
0
 10
133.89878069769281
 20
79.189872794172743
 30
0.0
 11
133.89878069769281
 21
65.189872794172743
 31
0.0
  0
LINE
  5
4C7
  8
0
 10
121.2828238705133
 20
59.012379917704429
 30
0.0
 11
121.2828238705133
 21
87.123631316702074
 31
0.0
  0
LINE
  5
4D3
  8
0
 10
122.23211381769261
 20
65.189872794172743
 30
0.0
 11
133.89878069769281
 21
65.189872794172743
 31
0.0
1001
ACAD
1000
ASC_BOUNDS
1002
{
1070
    19
1005
0
1002
}
  0
LINE
  5
4D4
  8
2
 10
122.73211381769281
 20
68.689872794172743
 30
0.0
 11
134.43211381769291
 21
68.689872794172743
 31
0.0
  0
ARC
  5
4D5
  8
0
 10
121.1654475776925
 20
59.391729037060912
 30
0.0
 40
1.0666662399999991
 50
270.0
 51
359.99999999999972
  0
ARC
  5
4D6
  8
0
 10
114.2670948341834
 20
59.325062797060838
 30
0.0
 40
1.0
 50
195.06799885095751
 51
270.0
1001
ACAD
1000
ASC_BOUNDS
1002
{
1070
    19
1002
}
  0
ARC
  5
4D7
  8
0
 10
105.8444301524984
 20
60.599649403751563
 30
0.0
 40
8.0782408417948872
 50
345.19051880393209
 51
24.431652095235538
  0
LINE
  5
4D8
  8
0
 10
114.2670948341834
 20
58.325062797060923
 30
0.0
 11
121.1654475776925
 21
58.325062797060887
 31
0.0
  0
LINE
  5
4D9
  8
0
 10
114.0509428956195
 20
62.890351393375028
 30
0.0
 11
120.7910289561016
 21
62.890351393375028
 31
0.0
  0
ARC
  5
4DA
  8
0
 10
131.08356798650721
 20
67.85524320912242
 30
0.0
 40
19.83606375638934
 50
198.10842675135351
 51
206.304373118348
1001
ACAD
1000
ASC_BOUNDS
1002
{
1070
    19
1002
}
  0
LINE
  5
4DB
  8
0
 10
122.23211381769261
 20
60.723210714173092
 30
0.0
 11
122.23211381769249
 21
59.391729037060912
 31
0.0
1001
ACAD
1000
ASC_BOUNDS
1002
{
1070
    19
1002
}
  0
LINE
  5
4DC
  8
0
 10
134.43211381769279
 20
65.723205914172752
 30
0.0
 11
133.89878069769281
 21
65.189872794172743
 31
0.0
1001
ACAD
1000
ASC_BOUNDS
1002
{
1070
    19
1005
0
1002
}
  0
LINE
  5
4DD
  8
0
 10
134.73211381769281
 20
68.689872794172743
 30
0.0
 11
134.43211381769291
 21
68.689872794172743
 31
0.0
1001
ACAD
1000
ASC_BOUNDS
1002
{
1070
    19
1002
}
  0
LINE
  5
4DF
  8
1
 10
110.22998389769251
 20
72.189872794172743
 30
0.0
 11
136.73211381769281
 21
72.189872794172743
 31
0.0
  0
LINE
  5
4E0
  8
2
 10
123.73211381769281
 20
70.180620794172739
 30
0.0
 11
122.572071634623
 21
72.189872794172743
 31
0.0
  0
LINE
  5
4E1
  8
0
 10
122.23211381769249
 20
79.189872794172686
 30
0.0
 11
133.89878069769281
 21
79.189872794172743
 31
0.0
1001
ACAD
1000
ASC_BOUNDS
1002
{
1070
    19
1005
0
1002
}
  0
LINE
  5
4E2
  8
2
 10
122.73211381769281
 20
75.689872794172743
 30
0.0
 11
134.43211381769291
 21
75.689872794172743
 31
0.0
  0
LINE
  5
4E3
  8
2
 10
123.73211381769281
 20
74.199124794172747
 30
0.0
 11
122.572071634623
 21
72.189872794172743
 31
0.0
  0
ARC
  5
4E4
  8
0
 10
128.70612591076761
 20
82.189123816039555
 30
0.0
 40
16.229156419729382
 50
166.0831647064702
 51
193.27515037428921
  0
LINE
  5
4E5
  8
0
 10
122.23211381769249
 20
84.876555461374778
 30
0.0
 11
122.23211381769249
 21
72.189872794172743
 31
0.0
1001
ACAD
1000
ASC_BOUNDS
1002
{
1070
    19
1005
0
1002
}
  0
LINE
  5
4E6
  8
0
 10
113.99167989736689
 20
71.809447898304185
 30
0.0
 11
120.7910289561016
 21
71.809447898304185
 31
0.0
  0
LINE
  5
4E7
  8
0
 10
113.64758924273249
 20
78.63817460149906
 30
0.0
 11
121.0697720873616
 21
78.63817460149906
 31
0.0
  0
ARC
  5
4E8
  8
0
 10
98.200856632855903
 20
74.11007265421631
 30
0.0
 40
15.340172503387359
 50
345.93688149450128
 51
16.482642303707308
  0
LINE
  5
4E9
  8
2
 10
121.73211381769281
 20
74.689872794172743
 30
0.0
 11
122.73211381769281
 21
75.689872794172743
 31
0.0
  0
LINE
  5
4EA
  8
2
 10
121.73211381769281
 20
74.689872794172743
 30
0.0
 11
121.73211381769281
 21
72.189872794172743
 31
0.0
1001
ACAD
1000
ASC_BOUNDS
1002
{
1070
    19
1002
}
  0
LINE
  5
4EB
  8
2
 10
121.73211381769281
 20
69.689872794172743
 30
0.0
 11
121.73211381769281
 21
72.189872794172743
 31
0.0
1001
ACAD
1000
ASC_BOUNDS
1002
{
1070
    19
1002
}
  0
LINE
  5
4EC
  8
0
 10
113.9819657495938
 20
84.522385958636093
 30
0.0
 11
120.7910289561016
 21
84.522385958636093
 31
0.0
  0
LINE
  5
4ED
  8
0
 10
114.2670948341834
 20
88.189866394172782
 30
0.0
 11
121.1654475776925
 21
88.189866394172782
 31
0.0
1001
ACAD
1000
ASC_BOUNDS
1002
{
1070
    19
1005
0
1002
}
  0
ARC
  5
4EE
  8
0
 10
169.9832522034776
 20
72.189872794172828
 30
0.0
 40
58.700000000000003
 50
164.93200114904121
 51
169.69572419750301
1001
ACAD
1000
ASC_BOUNDS
1002
{
1070
    19
1002
}
  0
ARC
  5
4EF
  8
0
 10
114.2670948341834
 20
87.189866394172839
 30
0.0
 40
1.0
 50
90.0
 51
164.93200114904249
1001
ACAD
1000
ASC_BOUNDS
1002
{
1070
    19
1002
}
  0
LINE
  5
4F0
  8
0
 10
122.23211381769249
 20
84.876555461374778
 30
0.0
 11
122.23211381769249
 21
87.123200154172764
 31
0.0
1001
ACAD
1000
ASC_BOUNDS
1002
{
1070
    19
1005
0
1002
}
  0
ARC
  5
4F1
  8
0
 10
121.1654475776925
 20
87.123200154172764
 30
0.0
 40
1.0666662399999991
 50
0.0000000000002544
 51
90.0
1001
ACAD
1000
ASC_BOUNDS
1002
{
1070
    19
1005
0
1002
}
  0
LINE
  5
4F2
  8
2
 10
134.73211381769281
 20
69.689872794172743
 30
0.0
 11
124.73211381769281
 21
69.689872794172743
 31
0.0
  0
LINE
  5
4F3
  8
2
 10
134.24136581769281
 20
70.180620794172739
 30
0.0
 11
123.73211381769281
 21
70.180620794172739
 31
0.0
  0
LINE
  5
4F4
  8
2
 10
134.73211381769281
 20
74.689872794172743
 30
0.0
 11
124.73211381769281
 21
74.689872794172743
 31
0.0
  0
LINE
  5
4F5
  8
2
 10
134.24136581769281
 20
74.199124794172747
 30
0.0
 11
123.73211381769281
 21
74.199124794172747
 31
0.0
  0
LINE
  5
4F6
  8
2
 10
124.73211381769281
 20
69.689872794172743
 30
0.0
 11
124.73211381769281
 21
74.689872794172743
 31
0.0
  0
LINE
  5
4F7
  8
2
 10
123.73211381769281
 20
70.180620794172739
 30
0.0
 11
123.73211381769281
 21
74.199124794172747
 31
0.0
  0
LINE
  5
4F8
  8
2
 10
124.73211381769281
 20
69.689872794172743
 30
0.0
 11
123.88211334798
 21
70.180620794172739
 31
0.0
  0
LINE
  5
4F9
  8
2
 10
124.73211381769281
 20
74.689872794172743
 30
0.0
 11
123.88211334798
 21
74.199124794172747
 31
0.0
  0
LINE
  5
4FA
  8
2
 10
134.24136581769281
 20
70.180620794172739
 30
0.0
 11
134.24136581769281
 21
74.199124794172747
 31
0.0
  0
LINE
  5
4FB
  8
2
 10
134.73211381769281
 20
69.689872794172743
 30
0.0
 11
134.24136581769281
 21
70.180620794172739
 31
0.0
  0
LINE
  5
4FC
  8
2
 10
134.24136581769281
 20
74.199124794172747
 30
0.0
 11
134.73211381769281
 21
74.689872794172743
 31
0.0
  0
LINE
  5
4FD
  8
0
 10
134.43211381769279
 20
78.656539674172734
 30
0.0
 11
133.89878069769281
 21
79.189872794172743
 31
0.0
1001
ACAD
1000
ASC_BOUNDS
1002
{
1070
    19
1005
0
1002
}
  0
LINE
  5
4FE
  8
0
 10
134.73211381769281
 20
75.689872794172743
 30
0.0
 11
134.43211381769291
 21
75.689872794172743
 31
0.0
1001
ACAD
1000
ASC_BOUNDS
1002
{
1070
    19
1002
}
  0
TEXT
  5
618
  8
0
 62
     3
 10
0.0
 20
0.0
 30
0.0
 40
10.0
  1
SFK32A
  7
STANDARD1
  0
ENDSEC
  0
EOF
