  0
SECTION
  2
HEADER
  9
$ACADVER
  1
AC1009
  9
$INSBASE
 10
0.0
 20
0.0
 30
0.0
  9
$EXTMIN
 10
0.0
 20
-2.960436562073669
 30
0.0
  9
$EXTMAX
 10
138.38101636376479
 20
96.842132220502961
 30
0.0
  9
$LIMMIN
 10
0.0
 20
0.0
  9
$LIMMAX
 10
187.5
 20
135.0
  9
$ORTHOMODE
 70
     1
  9
$REGENMODE
 70
     1
  9
$FILLMODE
 70
     1
  9
$QTEXTMODE
 70
     0
  9
$MIRRTEXT
 70
     0
  9
$DRAGMODE
 70
     2
  9
$LTSCALE
 40
5.0
  9
$OSMODE
 70
    55
  9
$ATTMODE
 70
     1
  9
$TEXTSIZE
 40
4.000000000000048
  9
$TRACEWID
 40
0.05
  9
$TEXTSTYLE
  7
STANDARD
  9
$CLAYER
  8
0
  9
$CELTYPE
  6
BYLAYER
  9
$CECOLOR
 62
   256
  9
$DIMSCALE
 40
0.5
  9
$DIMASZ
 40
3.0
  9
$DIMEXO
 40
2.0
  9
$DIMDLI
 40
0.38
  9
$DIMRND
 40
0.0
  9
$DIMDLE
 40
0.0
  9
$DIMEXE
 40
2.0
  9
$DIMTP
 40
0.0
  9
$DIMTM
 40
0.0
  9
$DIMTXT
 40
3.2000000000000002
  9
$DIMCEN
 40
0.09
  9
$DIMTSZ
 40
0.0
  9
$DIMTOL
 70
     0
  9
$DIMLIM
 70
     0
  9
$DIMTIH
 70
     0
  9
$DIMTOH
 70
     0
  9
$DIMSE1
 70
     0
  9
$DIMSE2
 70
     0
  9
$DIMTAD
 70
     1
  9
$DIMZIN
 70
     0
  9
$DIMBLK
  1

  9
$DIMASO
 70
     1
  9
$DIMSHO
 70
     0
  9
$DIMPOST
  1

  9
$DIMAPOST
  1

  9
$DIMALT
 70
     0
  9
$DIMALTD
 70
     2
  9
$DIMALTF
 40
25.399999999999999
  9
$DIMLFAC
 40
1.0
  9
$DIMTOFL
 70
     0
  9
$DIMTVP
 40
1.6000000000000001
  9
$DIMTIX
 70
     1
  9
$DIMSOXD
 70
     0
  9
$DIMSAH
 70
     0
  9
$DIMBLK1
  1

  9
$DIMBLK2
  1

  9
$DIMSTYLE
  2
STANDARD
  9
$DIMCLRD
 70
     0
  9
$DIMCLRE
 70
     0
  9
$DIMCLRT
 70
     0
  9
$DIMTFAC
 40
1.0
  9
$DIMGAP
 40
0.09
  9
$LUNITS
 70
     2
  9
$LUPREC
 70
     4
  9
$SKETCHINC
 40
0.1
  9
$FILLETRAD
 40
1.8999999999999999
  9
$AUNITS
 70
     0
  9
$AUPREC
 70
     0
  9
$MENU
  1
E:\r13\win\SUPPORT\ACAD
  9
$ELEVATION
 40
0.0
  9
$PELEVATION
 40
0.0
  9
$THICKNESS
 40
0.0
  9
$LIMCHECK
 70
     0
  9
$BLIPMODE
 70
     0
  9
$CHAMFERA
 40
0.0
  9
$CHAMFERB
 40
0.0
  9
$SKPOLY
 70
     0
  9
$TDCREATE
 40
2451582.6892557871
  9
$TDUPDATE
 40
2456598.4960669102
  9
$TDINDWG
 40
0.0001475579
  9
$TDUSRTIMER
 40
0.0001475579
  9
$USRTIMER
 70
     1
  9
$ANGBASE
 50
0.0
  9
$ANGDIR
 70
     0
  9
$PDMODE
 70
     0
  9
$PDSIZE
 40
0.0
  9
$PLINEWID
 40
0.0
  9
$COORDS
 70
     1
  9
$SPLFRAME
 70
     0
  9
$SPLINETYPE
 70
     6
  9
$SPLINESEGS
 70
     8
  9
$ATTDIA
 70
     0
  9
$ATTREQ
 70
     1
  9
$HANDLING
 70
     1
  9
$HANDSEED
  5
82D
  9
$SURFTAB1
 70
     6
  9
$SURFTAB2
 70
     6
  9
$SURFTYPE
 70
     6
  9
$SURFU
 70
     6
  9
$SURFV
 70
     6
  9
$UCSNAME
  2

  9
$UCSORG
 10
0.0
 20
0.0
 30
0.0
  9
$UCSXDIR
 10
1.0
 20
0.0
 30
0.0
  9
$UCSYDIR
 10
0.0
 20
1.0
 30
0.0
  9
$PUCSNAME
  2

  9
$PUCSORG
 10
0.0
 20
0.0
 30
0.0
  9
$PUCSXDIR
 10
1.0
 20
0.0
 30
0.0
  9
$PUCSYDIR
 10
0.0
 20
1.0
 30
0.0
  9
$USERI1
 70
     0
  9
$USERI2
 70
     1
  9
$USERI3
 70
     1
  9
$USERI4
 70
     0
  9
$USERI5
 70
     0
  9
$USERR1
 40
0.0
  9
$USERR2
 40
0.0
  9
$USERR3
 40
0.0
  9
$USERR4
 40
0.0
  9
$USERR5
 40
0.0
  9
$WORLDVIEW
 70
     1
  9
$SHADEDGE
 70
     3
  9
$SHADEDIF
 70
    70
  9
$TILEMODE
 70
     1
  9
$MAXACTVP
 70
    16
  9
$PLIMCHECK
 70
     0
  9
$PEXTMIN
 10
1.0000000000000000E+020
 20
1.0000000000000000E+020
 30
1.0000000000000000E+020
  9
$PEXTMAX
 10
-1.0000000000000000E+020
 20
-1.0000000000000000E+020
 30
-1.0000000000000000E+020
  9
$PLIMMIN
 10
0.0
 20
0.0
  9
$PLIMMAX
 10
12.0
 20
9.0
  9
$UNITMODE
 70
     0
  9
$VISRETAIN
 70
     0
  9
$PLINEGEN
 70
     0
  9
$PSLTSCALE
 70
     0
  0
ENDSEC
  0
SECTION
  2
TABLES
  0
TABLE
  2
VPORT
 70
     1
  0
VPORT
  2
*ACTIVE
 70
     0
 10
0.0
 20
0.0
 11
1.0
 21
1.0
 12
93.74713919532617
 22
86.941769983850563
 13
0.0
 23
0.0
 14
5.0
 24
5.0
 15
5.0
 25
5.0
 16
0.0
 26
0.0
 36
1.0
 17
0.0
 27
0.0
 37
0.0
 40
181.41026326986619
 41
1.7807262569832401
 42
50.0
 43
0.0
 44
0.0
 50
0.0
 51
0.0
 71
     0
 72
   500
 73
     1
 74
     0
 75
     0
 76
     0
 77
     0
 78
     2
  0
ENDTAB
  0
TABLE
  2
LTYPE
 70
     4
  0
LTYPE
  2
CONTINUOUS
 70
     0
  3
Solid Line
 72
    65
 73
     0
 40
0.0
  0
LTYPE
  2
CENTER
 70
     0
  3
____ _ ____ _ ____ _ ____ _ ____ _ ____ _ ____
 72
    65
 73
     4
 40
2.0
 49
1.25
 49
-0.25
 49
0.25
 49
-0.25
  0
LTYPE
  2
HIDDEN
 70
     0
  3
_ _ _ _ _ _ _ _ _ _ _ _ _ _ _ _ _ _ _ _ _ _ _
 72
    65
 73
     2
 40
0.375
 49
0.25
 49
-0.125
  0
LTYPE
  2
PHANTOM2
 70
     0
  3
___ _ _ ___ _ _ ___ _ _ ___ _ _
 72
    65
 73
     6
 40
1.25
 49
0.625
 49
-0.125
 49
0.125
 49
-0.125
 49
0.125
 49
-0.125
  0
ENDTAB
  0
TABLE
  2
LAYER
 70
     3
  0
LAYER
  2
0
 70
     0
 62
     7
  6
CONTINUOUS
  0
LAYER
  2
1
 70
     0
 62
     1
  6
CENTER
  0
LAYER
  2
2
 70
     0
 62
     2
  6
HIDDEN
  0
ENDTAB
  0
TABLE
  2
STYLE
 70
     2
  0
STYLE
  2
STANDARD
 70
     0
 40
0.0
 41
1.0
 50
0.0
 71
     0
 42
4.000000000000048
  3
TXT
  4
BIGFONT
  0
STYLE
  2
STANDARD1
 70
     0
 40
0.0
 41
1.0
 50
0.0
 71
     0
 42
3.0
  3
txt
  4

  0
ENDTAB
  0
TABLE
  2
VIEW
 70
     1
  0
VIEW
  2
ALL
 70
     0
 40
135.0
 10
110.4957983193277
 20
67.5
 41
0.0
 11
0.0
 21
0.0
 31
1.0
 12
0.0
 22
0.0
 32
0.0
 42
0.0
 43
0.0
 44
0.0
 50
0.0
 71
     0
  0
ENDTAB
  0
TABLE
  2
UCS
 70
     0
  0
ENDTAB
  0
TABLE
  2
APPID
 70
     3
  0
APPID
  2
ACAD
 70
     0
  0
APPID
  2
ACAD_MLEADERVER
 70
     0
  0
APPID
  2
ACAD_NAV_VCDISPLAY
 70
     0
  0
ENDTAB
  0
TABLE
  2
DIMSTYLE
 70
     1
  0
DIMSTYLE
  2
STANDARD
 70
     0
  3

  4

  5

  6

  7

 40
1.0
 41
0.18
 42
0.0625
 43
0.38
 44
0.18
 45
0.0
 46
0.0
 47
0.0
 48
0.0
140
0.18
141
0.09
142
0.0
143
25.399999999999999
144
1.0
145
0.0
146
1.0
147
0.09
 71
     0
 72
     0
 73
     1
 74
     1
 75
     0
 76
     0
 77
     0
 78
     0
170
     0
171
     2
172
     0
173
     0
174
     0
175
     0
176
     0
177
     0
178
     0
  0
ENDTAB
  0
ENDSEC
  0
SECTION
  2
BLOCKS
  0
BLOCK
  8
0
  2
$MODEL_SPACE
 70
     0
 10
0.0
 20
0.0
 30
0.0
  3
$MODEL_SPACE
  1

  0
ENDBLK
  5
6AE
  8
0
  0
BLOCK
 67
     1
  8
0
  2
$PAPER_SPACE
 70
     0
 10
0.0
 20
0.0
 30
0.0
  3
$PAPER_SPACE
  1

  0
ENDBLK
  5
6AC
 67
     1
  8
0
  0
BLOCK
  8
0
  2
STDGX5
 70
     0
 10
0.0
 20
0.0
 30
0.0
  3
STDGX5
  1

  0
ENDBLK
  5
3DA
  8
0
  0
ENDSEC
  0
SECTION
  2
ENTITIES
  0
INSERT
  5
404
  8
0
  2
STDGX5
 10
0.0
 20
0.0
 30
0.0
 41
0.125
 42
0.125
 43
0.125
  0
INSERT
  5
405
  8
0
  2
STDGX5
 10
0.0
 20
0.0
 30
0.0
 41
0.125
 42
0.125
 43
0.125
  0
INSERT
  5
406
  8
0
  2
STDGX5
 10
34.375
 20
0.0
 30
0.0
 41
0.125
 42
0.125
 43
0.125
  0
INSERT
  5
407
  8
0
  2
STDGX5
 10
34.375
 20
0.0
 30
0.0
 41
0.125
 42
0.125
 43
0.125
  0
INSERT
  5
408
  8
0
  2
STDGX5
 10
0.0
 20
0.0
 30
0.0
 41
0.25
 42
0.25
 43
0.25
  0
INSERT
  5
409
  8
0
  2
STDGX5
 10
0.0
 20
0.0
 30
0.0
 41
0.25
 42
0.25
 43
0.25
  0
INSERT
  5
40A
  8
0
  2
STDGX5
 10
68.75
 20
0.0
 30
0.0
 41
0.25
 42
0.25
 43
0.25
  0
INSERT
  5
40B
  8
0
  2
STDGX5
 10
68.75
 20
0.0
 30
0.0
 41
0.25
 42
0.25
 43
0.25
  0
INSERT
  5
40D
  8
0
  2
STDGX5
 10
-17.5
 20
-50.0
 30
0.0
 41
0.1666666666666666
 42
0.1666666666666666
 43
0.1666666666666666
  0
INSERT
  5
40E
  8
0
  2
STDGX5
 10
-17.5
 20
-50.0
 30
0.0
 41
0.1666666666666666
 42
0.1666666666666666
 43
0.1666666666666666
  0
INSERT
  5
40F
  8
0
  2
STDGX5
 10
28.333333333333321
 20
-50.0
 30
0.0
 41
0.1666666666666666
 42
0.1666666666666666
 43
0.1666666666666666
  0
INSERT
  5
410
  8
0
  2
STDGX5
 10
28.333333333333321
 20
-50.0
 30
0.0
 41
0.1666666666666666
 42
0.1666666666666666
 43
0.1666666666666666
  0
INSERT
  5
412
  8
0
  2
STDGX5
 10
-17.5
 20
-50.0
 30
0.0
 41
0.1666666666666666
 42
0.1666666666666666
 43
0.1666666666666666
  0
INSERT
  5
413
  8
0
  2
STDGX5
 10
-17.5
 20
-50.0
 30
0.0
 41
0.1666666666666666
 42
0.1666666666666666
 43
0.1666666666666666
  0
INSERT
  5
414
  8
0
  2
STDGX5
 10
28.333333333333329
 20
-50.0
 30
0.0
 41
0.1666666666666666
 42
0.1666666666666666
 43
0.1666666666666666
  0
INSERT
  5
415
  8
0
  2
STDGX5
 10
28.333333333333329
 20
-50.0
 30
0.0
 41
0.1666666666666666
 42
0.1666666666666666
 43
0.1666666666666666
  0
INSERT
  5
416
  8
0
  2
STDGX5
 10
0.0
 20
0.0
 30
0.0
 41
0.5
 42
0.5
 43
0.5
  0
INSERT
  5
417
  8
0
  2
STDGX5
 10
0.0
 20
0.0
 30
0.0
 41
0.5
 42
0.5
 43
0.5
  0
INSERT
  5
418
  8
0
  2
STDGX5
 10
137.5
 20
0.0
 30
0.0
 41
0.5
 42
0.5
 43
0.5
  0
INSERT
  5
419
  8
0
  2
STDGX5
 10
137.5
 20
0.0
 30
0.0
 41
0.5
 42
0.5
 43
0.5
  0
ARC
  5
62E
  8
0
 10
86.112269169163511
 20
66.480676309081488
 30
0.0
 40
11.81
 50
134.0973091633376
 51
189.90269083666249
  0
CIRCLE
  5
62F
  8
0
 10
60.378353963764859
 20
74.84213222050299
 30
0.0
 40
13.0
  0
ARC
  5
630
  8
0
 10
34.644438758366213
 20
66.480676309081502
 30
0.0
 40
11.81
 50
350.09730916333729
 51
45.902690836662657
  0
LINE
  5
631
  8
1
 10
60.378353963764859
 20
96.842132220502961
 30
0.0
 11
60.378353963764859
 21
52.842132220503032
 31
0.0
  0
ARC
  5
633
  8
0
 10
60.37835396376483
 20
47.783892500275613
 30
0.0
 40
11.81
 50
62.097309163337329
 51
117.9026908366625
  0
ARC
  5
634
  8
0
 10
52.090581906440988
 20
63.434992599816191
 30
0.0
 40
5.8999999999999986
 50
170.0973091633372
 51
297.9026908366626
  0
ARC
  5
635
  8
0
 10
68.666126021088743
 20
63.434992599816262
 30
0.0
 40
5.8999999999999986
 50
242.0973091633372
 51
9.9026908366627673
  0
ARC
  5
636
  8
0
 10
60.378353963764859
 20
88.942132220503026
 30
0.0
 40
5.8999999999999986
 50
26.097309163313088
 51
153.9026908366871
  0
LINE
  5
637
  8
1
 10
38.378353963764908
 20
74.84213222050299
 30
0.0
 11
82.378353963764823
 21
74.84213222050299
 31
0.0
  0
ARC
  5
638
  8
0
 10
44.47391970322078
 20
96.732707992038229
 30
0.0
 40
11.81
 50
278.0973091633374
 51
333.9026908366871
  0
ARC
  5
639
  8
0
 10
46.968457084003198
 20
79.199271841189784
 30
0.0
 40
5.8999999999999986
 50
98.097309163337229
 51
225.90269083666271
  0
ARC
  5
63A
  8
0
 10
76.282788224308902
 20
96.732707992038229
 30
0.0
 40
11.81
 50
206.09730916331279
 51
261.9026908366626
  0
ARC
  5
63B
  8
0
 10
73.788250843526484
 20
79.199271841189784
 30
0.0
 40
5.8999999999999986
 50
314.0973091633374
 51
81.902690836662615
  0
LINE
  5
63C
  8
0
 10
136.0810163637648
 20
74.842132220503032
 30
0.0
 11
136.0810163637648
 21
68.008798620502972
 31
0.0
1001
ACAD
1000
ASC_BOUNDS
1002
{
1070
    19
1005
0
1002
}
  0
LINE
  5
63D
  8
0
 10
135.41434996376481
 20
82.342132220502975
 30
0.0
 11
135.41434996376481
 21
67.342132220502975
 31
0.0
  0
LINE
  5
63E
  8
0
 10
122.3810163637648
 20
58.983778886500488
 30
0.0
 11
122.3810163637648
 21
74.842132220502975
 31
0.0
1001
ACAD
1000
ASC_BOUNDS
1002
{
1070
    19
1005
0
1002
}
  0
LINE
  5
63F
  8
0
 10
121.216191634593
 20
58.528101415121512
 30
0.0
 11
121.216191634593
 21
93.861722504842021
 31
0.0
  0
ARC
  5
640
  8
2
 10
71.190258725671086
 20
74.842132220503103
 30
0.0
 40
41.28809523809376
 50
341.64759331924688
 51
18.352406680752811
1001
ACAD
1000
ASC_BOUNDS
1002
{
1070
    19
1002
}
  0
LINE
  5
641
  8
0
 10
110.37835396376479
 20
87.842132220502975
 30
0.0
 11
110.37835396376479
 21
61.842132220503167
 31
0.0
1001
ACAD
1000
ASC_BOUNDS
1002
{
1070
    19
1005
0
1002
}
  0
ARC
  5
642
  8
0
 10
131.1743196700198
 20
68.164382897580111
 30
0.0
 40
20.276856812763789
 50
168.09626112672041
 51
193.42520065340639
  0
LINE
  5
64E
  8
0
 10
122.3810163637648
 20
67.342132220503004
 30
0.0
 11
135.41434996376481
 21
67.342132220502975
 31
0.0
1001
ACAD
1000
ASC_BOUNDS
1002
{
1070
    19
1005
0
1002
}
  0
ARC
  5
64F
  8
0
 10
121.04768356376481
 20
58.868325399816172
 30
0.0
 40
1.3333327999999991
 50
270.0
 51
359.99999999999972
  0
ARC
  5
650
  8
0
 10
133.69952791224881
 20
69.433393878182613
 30
0.0
 40
24.525586800131968
 50
198.03055652315251
 51
206.28302853033401
1001
ACAD
1000
ASC_BOUNDS
1002
{
1070
    19
1002
}
  0
ARC
  5
651
  8
0
 10
104.2403822897616
 20
59.459103607607098
 30
0.0
 40
8.2450502234406908
 50
350.16338682968779
 51
29.001654949562798
  0
LINE
  5
652
  8
0
 10
112.9515758104906
 20
57.534992599816178
 30
0.0
 11
121.04768356376481
 21
57.534992599816178
 31
0.0
  0
ARC
  5
653
  8
0
 10
113.0619325645612
 20
58.93499259981607
 30
0.0
 40
1.399999999999999
 50
194.97118440606079
 51
270.0
  0
LINE
  5
654
  8
0
 10
112.59414543816651
 20
62.40607289079211
 30
0.0
 11
120.6516569224607
 21
62.40607289079211
 31
0.0
  0
LINE
  5
655
  8
0
 10
122.3810163637649
 20
60.508804620503412
 30
0.0
 11
122.3810163637648
 21
58.868325399816172
 31
0.0
1001
ACAD
1000
ASC_BOUNDS
1002
{
1070
    19
1002
}
  0
LINE
  5
656
  8
0
 10
136.0810163637648
 20
68.008798620502972
 30
0.0
 11
135.41434996376481
 21
67.342132220502975
 31
0.0
1001
ACAD
1000
ASC_BOUNDS
1002
{
1070
    19
1005
0
1002
}
  0
LINE
  5
658
  8
0
 10
122.3810163637648
 20
82.342132220503004
 30
0.0
 11
135.41434996376481
 21
82.342132220502975
 31
0.0
1001
ACAD
1000
ASC_BOUNDS
1002
{
1070
    19
1005
0
1002
}
  0
LINE
  5
659
  8
2
 10
120.2610163637648
 20
69.842132220502975
 30
0.0
 11
136.0810163637648
 21
69.842132220502975
 31
0.0
  0
LINE
  5
65A
  8
2
 10
135.7675813637648
 20
72.455567220502971
 30
0.0
 11
122.3810163637648
 21
72.455567220502985
 31
0.0
  0
LINE
  5
65B
  8
2
 10
135.7675813637648
 20
77.228697220502966
 30
0.0
 11
122.3810163637648
 21
77.228697220502966
 31
0.0
  0
LINE
  5
65C
  8
2
 10
120.2610163637648
 20
79.842132220502975
 30
0.0
 11
136.0810163637648
 21
79.842132220502975
 31
0.0
  0
LINE
  5
65D
  8
1
 10
108.37835396376479
 20
74.842132220502975
 30
0.0
 11
138.38101636376479
 21
74.842132220502975
 31
0.0
  0
LINE
  5
65E
  8
0
 10
122.3810163637648
 20
90.700485554505491
 30
0.0
 11
122.3810163637648
 21
93.508791420503016
 31
0.0
1001
ACAD
1000
ASC_BOUNDS
1002
{
1070
    19
1005
0
1002
}
  0
ARC
  5
65F
  8
0
 10
182.61795529156839
 20
74.842132220502904
 30
0.0
 40
73.399999999999991
 50
165.02881559393779
 51
169.79842954791539
1001
ACAD
1000
ASC_BOUNDS
1002
{
1070
    19
1002
}
  0
ARC
  5
660
  8
0
 10
141.76493497391769
 20
86.450188639159407
 30
0.0
 40
30.967508542751261
 50
167.8552547591996
 51
188.81105520395619
  0
LINE
  5
661
  8
0
 10
122.3810163637648
 20
90.700485554505491
 30
0.0
 11
122.3810163637648
 21
74.842132220502975
 31
0.0
1001
ACAD
1000
ASC_BOUNDS
1002
{
1070
    19
1005
0
1002
}
  0
ARC
  5
662
  8
0
 10
91.303023431579334
 20
76.6631775370235
 30
0.0
 40
20.490263814078109
 50
347.83940152288108
 51
14.24933717245667
  0
LINE
  5
663
  8
0
 10
112.5348824399139
 20
73.773744126288079
 30
0.0
 11
120.6516569224607
 21
73.773744126288079
 31
0.0
  0
LINE
  5
664
  8
0
 10
110.37835396376479
 20
79.922107790189472
 30
0.0
 11
110.37835396376479
 21
71.063751656186952
 31
0.0
  0
LINE
  5
665
  8
2
 10
122.3810163637648
 20
72.455567220502985
 30
0.0
 11
122.3810163637648
 21
77.228697220502966
 31
0.0
  0
LINE
  5
666
  8
2
 10
122.3810163637648
 20
77.228697220502966
 30
0.0
 11
121.0031324185763
 21
74.842132220502975
 31
0.0
  0
LINE
  5
667
  8
2
 10
119.3810163637648
 20
74.842132220502975
 30
0.0
 11
119.3810163637648
 21
78.96213222050298
 31
0.0
1001
ACAD
1000
ASC_BOUNDS
1002
{
1070
    19
1002
}
  0
LINE
  5
668
  8
2
 10
120.2610163637648
 20
69.842132220502975
 30
0.0
 11
119.3810163637648
 21
70.722132220502971
 31
0.0
1001
ACAD
1000
ASC_BOUNDS
1002
{
1070
    19
1002
}
  0
LINE
  5
669
  8
2
 10
119.3810163637648
 20
74.842132220502975
 30
0.0
 11
119.3810163637648
 21
70.722132220502971
 31
0.0
1001
ACAD
1000
ASC_BOUNDS
1002
{
1070
    19
1002
}
  0
LINE
  5
66A
  8
2
 10
122.3810163637648
 20
72.455567220502985
 30
0.0
 11
121.0031324185763
 21
74.842132220502975
 31
0.0
  0
LINE
  5
66B
  8
2
 10
120.2610163637648
 20
79.842132220502975
 30
0.0
 11
119.3810163637648
 21
78.96213222050298
 31
0.0
1001
ACAD
1000
ASC_BOUNDS
1002
{
1070
    19
1002
}
  0
LINE
  5
66C
  8
0
 10
112.1907917852794
 20
81.882407379380055
 30
0.0
 11
121.29409957024021
 21
81.882407379380055
 31
0.0
  0
LINE
  5
66D
  8
0
 10
112.52516829214071
 20
89.295181711448663
 30
0.0
 11
120.6516569224607
 21
89.295181711448663
 31
0.0
  0
LINE
  5
66E
  8
0
 10
113.0619325645612
 20
94.842124220502996
 30
0.0
 11
121.04768356376481
 21
94.842124220502996
 31
0.0
1001
ACAD
1000
ASC_BOUNDS
1002
{
1070
    19
1005
0
1002
}
  0
ARC
  5
66F
  8
0
 10
113.0619325645612
 20
93.442124220503018
 30
0.0
 40
1.399999999999999
 50
90.0
 51
165.02881559393859
1001
ACAD
1000
ASC_BOUNDS
1002
{
1070
    19
1002
}
  0
ARC
  5
670
  8
0
 10
121.04768356376481
 20
93.508791420503016
 30
0.0
 40
1.3333327999999991
 50
0.0000000000002036
 51
90.0
1001
ACAD
1000
ASC_BOUNDS
1002
{
1070
    19
1005
0
1002
}
  0
LINE
  5
671
  8
0
 10
136.0810163637648
 20
74.842132220502975
 30
0.0
 11
136.0810163637648
 21
81.675465820503035
 31
0.0
1001
ACAD
1000
ASC_BOUNDS
1002
{
1070
    19
1005
0
1002
}
  0
LINE
  5
672
  8
2
 10
136.38101636376479
 20
71.842132220502975
 30
0.0
 11
124.3810163637648
 21
71.842132220502975
 31
0.0
  0
LINE
  5
673
  8
2
 10
136.38101636376479
 20
77.842132220502975
 30
0.0
 11
124.3810163637648
 21
77.842132220502975
 31
0.0
  0
LINE
  5
674
  8
2
 10
124.3810163637648
 20
71.842132220502975
 30
0.0
 11
124.3810163637648
 21
77.842132220502975
 31
0.0
  0
LINE
  5
675
  8
2
 10
124.3810163637648
 20
71.842132220502975
 30
0.0
 11
123.3185157766238
 21
72.455567220502985
 31
0.0
  0
LINE
  5
676
  8
2
 10
124.3810163637648
 20
77.842132220502975
 30
0.0
 11
123.3185157766238
 21
77.228697220502966
 31
0.0
  0
LINE
  5
677
  8
2
 10
135.7675813637648
 20
72.455567220502971
 30
0.0
 11
135.7675813637648
 21
77.228697220502966
 31
0.0
  0
LINE
  5
678
  8
0
 10
136.38101636376479
 20
79.842132220502975
 30
0.0
 11
136.38101636376479
 21
69.842132220502975
 31
0.0
1001
ACAD
1000
ASC_BOUNDS
1002
{
1070
    19
1002
}
  0
LINE
  5
679
  8
2
 10
136.38101636376479
 20
71.842132220502975
 30
0.0
 11
135.7675813637648
 21
72.455567220502971
 31
0.0
  0
LINE
  5
67A
  8
0
 10
136.0810163637648
 20
69.842132220502975
 30
0.0
 11
136.38101636376479
 21
69.842132220502975
 31
0.0
1001
ACAD
1000
ASC_BOUNDS
1002
{
1070
    19
1002
}
  0
LINE
  5
67B
  8
2
 10
135.7675813637648
 20
77.228697220502966
 30
0.0
 11
136.38101636376479
 21
77.842132220502975
 31
0.0
  0
LINE
  5
67C
  8
0
 10
136.0810163637648
 20
79.842132220502975
 30
0.0
 11
136.38101636376479
 21
79.842132220502975
 31
0.0
1001
ACAD
1000
ASC_BOUNDS
1002
{
1070
    19
1002
}
  0
LINE
  5
67D
  8
0
 10
136.0810163637648
 20
81.675465820502964
 30
0.0
 11
135.41434996376481
 21
82.342132220502975
 31
0.0
1001
ACAD
1000
ASC_BOUNDS
1002
{
1070
    19
1005
0
1002
}
  0
LINE
  5
67E
  8
0
 10
136.0810163637648
 20
81.175463020502974
 30
0.0
 11
136.0810163637648
 21
81.175463020502974
 31
0.0
  0
TEXT
  5
798
  8
0
 62
     3
 10
0.0
 20
0.0
 30
0.0
 40
10.0
  1
SFK40A
  7
STANDARD1
  0
ENDSEC
  0
EOF
