  0
SECTION
  2
HEADER
  9
$ACADVER
  1
AC1009
  9
$INSBASE
 10
0.0
 20
0.0
 30
0.0
  9
$EXTMIN
 10
-0.0005
 20
-2.960436562073669
 30
0.0
  9
$EXTMAX
 10
140.42644604571149
 20
96.141047537285687
 30
0.0
  9
$LIMMIN
 10
0.0
 20
0.0
  9
$LIMMAX
 10
187.5
 20
135.0
  9
$ORTHOMODE
 70
     0
  9
$REGENMODE
 70
     1
  9
$FILLMODE
 70
     1
  9
$QTEXTMODE
 70
     0
  9
$MIRRTEXT
 70
     0
  9
$DRAGMODE
 70
     2
  9
$LTSCALE
 40
5.0
  9
$OSMODE
 70
    55
  9
$ATTMODE
 70
     1
  9
$TEXTSIZE
 40
4.000000000000048
  9
$TRACEWID
 40
0.05
  9
$TEXTSTYLE
  7
STANDARD
  9
$CLAYER
  8
0
  9
$CELTYPE
  6
BYLAYER
  9
$CECOLOR
 62
   256
  9
$DIMSCALE
 40
0.5
  9
$DIMASZ
 40
3.0
  9
$DIMEXO
 40
2.0
  9
$DIMDLI
 40
0.38
  9
$DIMRND
 40
0.0
  9
$DIMDLE
 40
0.0
  9
$DIMEXE
 40
2.0
  9
$DIMTP
 40
0.0
  9
$DIMTM
 40
0.0
  9
$DIMTXT
 40
3.0
  9
$DIMCEN
 40
0.09
  9
$DIMTSZ
 40
0.0
  9
$DIMTOL
 70
     0
  9
$DIMLIM
 70
     0
  9
$DIMTIH
 70
     0
  9
$DIMTOH
 70
     0
  9
$DIMSE1
 70
     0
  9
$DIMSE2
 70
     0
  9
$DIMTAD
 70
     1
  9
$DIMZIN
 70
     0
  9
$DIMBLK
  1

  9
$DIMASO
 70
     1
  9
$DIMSHO
 70
     0
  9
$DIMPOST
  1

  9
$DIMAPOST
  1

  9
$DIMALT
 70
     0
  9
$DIMALTD
 70
     2
  9
$DIMALTF
 40
25.399999999999999
  9
$DIMLFAC
 40
1.0
  9
$DIMTOFL
 70
     0
  9
$DIMTVP
 40
1.6000000000000001
  9
$DIMTIX
 70
     1
  9
$DIMSOXD
 70
     0
  9
$DIMSAH
 70
     0
  9
$DIMBLK1
  1

  9
$DIMBLK2
  1

  9
$DIMSTYLE
  2
STANDARD
  9
$DIMCLRD
 70
     0
  9
$DIMCLRE
 70
     0
  9
$DIMCLRT
 70
     0
  9
$DIMTFAC
 40
1.0
  9
$DIMGAP
 40
0.09
  9
$LUNITS
 70
     2
  9
$LUPREC
 70
     4
  9
$SKETCHINC
 40
0.1
  9
$FILLETRAD
 40
1.8999999999999999
  9
$AUNITS
 70
     0
  9
$AUPREC
 70
     0
  9
$MENU
  1
E:\r13\win\SUPPORT\ACAD
  9
$ELEVATION
 40
0.0
  9
$PELEVATION
 40
0.0
  9
$THICKNESS
 40
0.0
  9
$LIMCHECK
 70
     0
  9
$BLIPMODE
 70
     0
  9
$CHAMFERA
 40
0.0
  9
$CHAMFERB
 40
0.0
  9
$SKPOLY
 70
     0
  9
$TDCREATE
 40
2451582.6896016202
  9
$TDUPDATE
 40
2456598.496190046
  9
$TDINDWG
 40
0.0023228125
  9
$TDUSRTIMER
 40
0.0023228125
  9
$USRTIMER
 70
     1
  9
$ANGBASE
 50
0.0
  9
$ANGDIR
 70
     0
  9
$PDMODE
 70
     0
  9
$PDSIZE
 40
0.0
  9
$PLINEWID
 40
0.0
  9
$COORDS
 70
     1
  9
$SPLFRAME
 70
     0
  9
$SPLINETYPE
 70
     6
  9
$SPLINESEGS
 70
     8
  9
$ATTDIA
 70
     0
  9
$ATTREQ
 70
     1
  9
$HANDLING
 70
     1
  9
$HANDSEED
  5
909
  9
$SURFTAB1
 70
     6
  9
$SURFTAB2
 70
     6
  9
$SURFTYPE
 70
     6
  9
$SURFU
 70
     6
  9
$SURFV
 70
     6
  9
$UCSNAME
  2

  9
$UCSORG
 10
0.0
 20
0.0
 30
0.0
  9
$UCSXDIR
 10
1.0
 20
0.0
 30
0.0
  9
$UCSYDIR
 10
0.0
 20
1.0
 30
0.0
  9
$PUCSNAME
  2

  9
$PUCSORG
 10
0.0
 20
0.0
 30
0.0
  9
$PUCSXDIR
 10
1.0
 20
0.0
 30
0.0
  9
$PUCSYDIR
 10
0.0
 20
1.0
 30
0.0
  9
$USERI1
 70
     0
  9
$USERI2
 70
     1
  9
$USERI3
 70
     1
  9
$USERI4
 70
     0
  9
$USERI5
 70
     0
  9
$USERR1
 40
0.0
  9
$USERR2
 40
0.0
  9
$USERR3
 40
0.0
  9
$USERR4
 40
0.0
  9
$USERR5
 40
0.0
  9
$WORLDVIEW
 70
     1
  9
$SHADEDGE
 70
     3
  9
$SHADEDIF
 70
    70
  9
$TILEMODE
 70
     1
  9
$MAXACTVP
 70
    16
  9
$PLIMCHECK
 70
     0
  9
$PEXTMIN
 10
1.0000000000000000E+020
 20
1.0000000000000000E+020
 30
1.0000000000000000E+020
  9
$PEXTMAX
 10
-1.0000000000000000E+020
 20
-1.0000000000000000E+020
 30
-1.0000000000000000E+020
  9
$PLIMMIN
 10
0.0
 20
0.0
  9
$PLIMMAX
 10
12.0
 20
9.0
  9
$UNITMODE
 70
     0
  9
$VISRETAIN
 70
     0
  9
$PLINEGEN
 70
     0
  9
$PSLTSCALE
 70
     0
  0
ENDSEC
  0
SECTION
  2
TABLES
  0
TABLE
  2
VPORT
 70
     1
  0
VPORT
  2
*ACTIVE
 70
     0
 10
0.0
 20
0.0
 11
1.0
 21
1.0
 12
93.746889187697406
 22
86.945179616803841
 13
0.0
 23
0.0
 14
5.0
 24
5.0
 15
5.0
 25
5.0
 16
0.0
 26
0.0
 36
1.0
 17
0.0
 27
0.0
 37
0.0
 40
181.39739258337829
 41
1.7807262569832401
 42
50.0
 43
0.0
 44
0.0
 50
0.0
 51
0.0
 71
     0
 72
   500
 73
     1
 74
     0
 75
     0
 76
     0
 77
     0
 78
     2
  0
ENDTAB
  0
TABLE
  2
LTYPE
 70
     4
  0
LTYPE
  2
CONTINUOUS
 70
     0
  3
Solid Line
 72
    65
 73
     0
 40
0.0
  0
LTYPE
  2
CENTER
 70
     0
  3
____ _ ____ _ ____ _ ____ _ ____ _ ____ _ ____
 72
    65
 73
     4
 40
2.0
 49
1.25
 49
-0.25
 49
0.25
 49
-0.25
  0
LTYPE
  2
HIDDEN
 70
     0
  3
_ _ _ _ _ _ _ _ _ _ _ _ _ _ _ _ _ _ _ _ _ _ _
 72
    65
 73
     2
 40
0.375
 49
0.25
 49
-0.125
  0
LTYPE
  2
PHANTOM2
 70
     0
  3
___ _ _ ___ _ _ ___ _ _ ___ _ _
 72
    65
 73
     6
 40
1.25
 49
0.625
 49
-0.125
 49
0.125
 49
-0.125
 49
0.125
 49
-0.125
  0
ENDTAB
  0
TABLE
  2
LAYER
 70
     4
  0
LAYER
  2
0
 70
     0
 62
     7
  6
CONTINUOUS
  0
LAYER
  2
1
 70
     0
 62
     1
  6
CENTER
  0
LAYER
  2
2
 70
     0
 62
     2
  6
HIDDEN
  0
LAYER
  2
ITTEN
 70
     0
 62
     1
  6
CENTER
  0
ENDTAB
  0
TABLE
  2
STYLE
 70
     2
  0
STYLE
  2
STANDARD
 70
     0
 40
0.0
 41
1.0
 50
0.0
 71
     0
 42
4.000000000000048
  3
TXT
  4
BIGFONT
  0
STYLE
  2
STANDARD1
 70
     0
 40
0.0
 41
1.0
 50
0.0
 71
     0
 42
3.0
  3
txt
  4

  0
ENDTAB
  0
TABLE
  2
VIEW
 70
     1
  0
VIEW
  2
ALL
 70
     0
 40
135.0
 10
110.4957983193277
 20
67.5
 41
0.0
 11
0.0
 21
0.0
 31
1.0
 12
0.0
 22
0.0
 32
0.0
 42
0.0
 43
0.0
 44
0.0
 50
0.0
 71
     0
  0
ENDTAB
  0
TABLE
  2
UCS
 70
     0
  0
ENDTAB
  0
TABLE
  2
APPID
 70
     3
  0
APPID
  2
ACAD
 70
     0
  0
APPID
  2
ACAD_MLEADERVER
 70
     0
  0
APPID
  2
ACAD_NAV_VCDISPLAY
 70
     0
  0
ENDTAB
  0
TABLE
  2
DIMSTYLE
 70
     1
  0
DIMSTYLE
  2
STANDARD
 70
     0
  3

  4

  5

  6

  7

 40
1.0
 41
0.18
 42
0.0625
 43
0.38
 44
0.18
 45
0.0
 46
0.0
 47
0.0
 48
0.0
140
0.18
141
0.09
142
0.0
143
25.399999999999999
144
1.0
145
0.0
146
1.0
147
0.09
 71
     0
 72
     0
 73
     1
 74
     1
 75
     0
 76
     0
 77
     0
 78
     0
170
     0
171
     2
172
     0
173
     0
174
     0
175
     0
176
     0
177
     0
178
     0
  0
ENDTAB
  0
ENDSEC
  0
SECTION
  2
BLOCKS
  0
BLOCK
  8
0
  2
$MODEL_SPACE
 70
     0
 10
0.0
 20
0.0
 30
0.0
  3
$MODEL_SPACE
  1

  0
ENDBLK
  5
758
  8
0
  0
BLOCK
 67
     1
  8
0
  2
$PAPER_SPACE
 70
     0
 10
0.0
 20
0.0
 30
0.0
  3
$PAPER_SPACE
  1

  0
ENDBLK
  5
756
 67
     1
  8
0
  0
BLOCK
  8
0
  2
STDGX5
 70
     0
 10
0.0
 20
0.0
 30
0.0
  3
STDGX5
  1

  0
ENDBLK
  5
3DA
  8
0
  0
BLOCK
  8
0
  2
BATU
 70
     0
 10
0.0
 20
0.0
 30
0.0
  3
BATU
  1

  0
LINE
  5
763
  8
ITTEN
 10
0.5
 20
0.0
 30
0.0
 11
-0.5
 21
0.0
 31
0.0
  0
LINE
  5
764
  8
ITTEN
 10
0.0
 20
0.5
 30
0.0
 11
0.0
 21
-0.5
 31
0.0
  0
ENDBLK
  5
766
  8
0
  0
ENDSEC
  0
SECTION
  2
ENTITIES
  0
INSERT
  5
404
  8
0
  2
STDGX5
 10
0.0
 20
0.0
 30
0.0
 41
0.125
 42
0.125
 43
0.125
  0
INSERT
  5
405
  8
0
  2
STDGX5
 10
0.0
 20
0.0
 30
0.0
 41
0.125
 42
0.125
 43
0.125
  0
INSERT
  5
406
  8
0
  2
STDGX5
 10
34.375
 20
0.0
 30
0.0
 41
0.125
 42
0.125
 43
0.125
  0
INSERT
  5
407
  8
0
  2
STDGX5
 10
34.375
 20
0.0
 30
0.0
 41
0.125
 42
0.125
 43
0.125
  0
INSERT
  5
408
  8
0
  2
STDGX5
 10
0.0
 20
0.0
 30
0.0
 41
0.25
 42
0.25
 43
0.25
  0
INSERT
  5
409
  8
0
  2
STDGX5
 10
0.0
 20
0.0
 30
0.0
 41
0.25
 42
0.25
 43
0.25
  0
INSERT
  5
40A
  8
0
  2
STDGX5
 10
68.75
 20
0.0
 30
0.0
 41
0.25
 42
0.25
 43
0.25
  0
INSERT
  5
40B
  8
0
  2
STDGX5
 10
68.75
 20
0.0
 30
0.0
 41
0.25
 42
0.25
 43
0.25
  0
INSERT
  5
40D
  8
0
  2
STDGX5
 10
-17.5
 20
-50.0
 30
0.0
 41
0.1666666666666666
 42
0.1666666666666666
 43
0.1666666666666666
  0
INSERT
  5
40E
  8
0
  2
STDGX5
 10
-17.5
 20
-50.0
 30
0.0
 41
0.1666666666666666
 42
0.1666666666666666
 43
0.1666666666666666
  0
INSERT
  5
40F
  8
0
  2
STDGX5
 10
28.333333333333321
 20
-50.0
 30
0.0
 41
0.1666666666666666
 42
0.1666666666666666
 43
0.1666666666666666
  0
INSERT
  5
410
  8
0
  2
STDGX5
 10
28.333333333333321
 20
-50.0
 30
0.0
 41
0.1666666666666666
 42
0.1666666666666666
 43
0.1666666666666666
  0
INSERT
  5
412
  8
0
  2
STDGX5
 10
-17.5
 20
-50.0
 30
0.0
 41
0.1666666666666666
 42
0.1666666666666666
 43
0.1666666666666666
  0
INSERT
  5
413
  8
0
  2
STDGX5
 10
-17.5
 20
-50.0
 30
0.0
 41
0.1666666666666666
 42
0.1666666666666666
 43
0.1666666666666666
  0
INSERT
  5
414
  8
0
  2
STDGX5
 10
28.333333333333329
 20
-50.0
 30
0.0
 41
0.1666666666666666
 42
0.1666666666666666
 43
0.1666666666666666
  0
INSERT
  5
415
  8
0
  2
STDGX5
 10
28.333333333333329
 20
-50.0
 30
0.0
 41
0.1666666666666666
 42
0.1666666666666666
 43
0.1666666666666666
  0
INSERT
  5
416
  8
0
  2
STDGX5
 10
0.0
 20
0.0
 30
0.0
 41
0.5
 42
0.5
 43
0.5
  0
INSERT
  5
417
  8
0
  2
STDGX5
 10
0.0
 20
0.0
 30
0.0
 41
0.5
 42
0.5
 43
0.5
  0
INSERT
  5
418
  8
0
  2
STDGX5
 10
137.5
 20
0.0
 30
0.0
 41
0.5
 42
0.5
 43
0.5
  0
INSERT
  5
419
  8
0
  2
STDGX5
 10
137.5
 20
0.0
 30
0.0
 41
0.5
 42
0.5
 43
0.5
  0
LINE
  5
6D8
  8
1
 10
62.423783645711573
 20
96.141047537285687
 30
0.0
 11
62.423783645711552
 21
52.141047537285758
 31
0.0
  0
ARC
  5
6D9
  8
0
 10
36.689868440312907
 20
65.779591625864214
 30
0.0
 40
11.81
 50
350.09730916333729
 51
45.902690836662629
  0
CIRCLE
  5
6DA
  8
0
 10
62.423783645711559
 20
74.141047537285715
 30
0.0
 40
13.0
  0
ARC
  5
6DB
  8
0
 10
88.157698851110226
 20
65.779591625864214
 30
0.0
 40
11.81
 50
134.0973091633376
 51
189.90269083666249
  0
ARC
  5
6DD
  8
0
 10
70.711555703035444
 20
62.73390791659898
 30
0.0
 40
5.8999999999999986
 50
242.0973091633372
 51
9.9026908366627691
  0
ARC
  5
6DE
  8
0
 10
54.136011588387689
 20
62.733907916598923
 30
0.0
 40
5.8999999999999986
 50
170.0973091633372
 51
297.9026908366626
  0
ARC
  5
6DF
  8
0
 10
62.423783645711531
 20
47.082807817058331
 30
0.0
 40
11.81
 50
62.09730916333735
 51
117.9026908366625
  0
ARC
  5
6E0
  8
0
 10
78.328217906255603
 20
96.03162330882094
 30
0.0
 40
11.81
 50
206.09730916332919
 51
261.9026908366626
  0
LINE
  5
6E1
  8
1
 10
40.423783645711609
 20
74.141047537285715
 30
0.0
 11
84.423783645711524
 21
74.141047537285715
 31
0.0
  0
ARC
  5
6E2
  8
0
 10
62.423783645711559
 20
88.241047537285738
 30
0.0
 40
5.8999999999999986
 50
26.097309163329399
 51
153.90269083667081
  0
ARC
  5
6E3
  8
0
 10
46.51934938516748
 20
96.03162330882094
 30
0.0
 40
11.81
 50
278.0973091633374
 51
333.90269083667079
  0
ARC
  5
6E4
  8
0
 10
49.013886765949898
 20
78.498187157972495
 30
0.0
 40
5.8999999999999986
 50
98.097309163337272
 51
225.9026908366626
  0
ARC
  5
6E5
  8
0
 10
75.833680525473184
 20
78.498187157972495
 30
0.0
 40
5.8999999999999986
 50
314.0973091633374
 51
81.902690836662615
  0
LINE
  5
6E6
  8
0
 10
123.2616213165397
 20
57.827016731904259
 30
0.0
 11
123.2616213165397
 21
93.160637821624761
 31
0.0
  0
ARC
  5
6E7
  8
0
 10
133.21974935196641
 20
67.463298214362851
 30
0.0
 40
20.276856812763789
 50
168.09626112672041
 51
193.42520065340639
  0
LINE
  5
6E8
  8
0
 10
137.45977964571151
 20
81.641047537285715
 30
0.0
 11
137.45977964571151
 21
66.641047537285715
 31
0.0
  0
LINE
  5
6E9
  8
2
 10
121.3064460457115
 20
68.641047537285715
 30
0.0
 11
120.4264460457115
 21
69.52104753728571
 31
0.0
1001
ACAD
1000
ASC_BOUNDS
1002
{
1070
    19
1002
}
  0
LINE
  5
6EA
  8
0
 10
124.4264460457115
 20
58.282694203283228
 30
0.0
 11
124.4264460457115
 21
74.141047537285715
 31
0.0
1001
ACAD
1000
ASC_BOUNDS
1002
{
1070
    19
1005
0
1002
}
  0
LINE
  5
6EB
  8
0
 10
112.4237836457115
 20
87.141047537285715
 30
0.0
 11
112.4237836457115
 21
61.141047537285921
 31
0.0
1001
ACAD
1000
ASC_BOUNDS
1002
{
1070
    19
1005
0
1002
}
  0
ARC
  5
6EC
  8
2
 10
73.235688407617786
 20
74.141047537285843
 30
0.0
 40
41.28809523809376
 50
341.64759331924688
 51
18.352406680752839
1001
ACAD
1000
ASC_BOUNDS
1002
{
1070
    19
1002
}
  0
LINE
  5
6ED
  8
0
 10
138.1264460457115
 20
74.141047537285772
 30
0.0
 11
138.1264460457115
 21
67.307713937285712
 31
0.0
1001
ACAD
1000
ASC_BOUNDS
1002
{
1070
    19
1005
0
1002
}
  0
LINE
  5
6EE
  8
0
 10
138.42644604571149
 20
79.641047537285715
 30
0.0
 11
138.42644604571149
 21
68.641047537285715
 31
0.0
1001
ACAD
1000
ASC_BOUNDS
1002
{
1070
    19
1002
}
  0
LINE
  5
6FA
  8
2
 10
121.3064460457115
 20
68.641047537285715
 30
0.0
 11
138.1264460457115
 21
68.641047537285715
 31
0.0
  0
LINE
  5
6FB
  8
0
 10
124.4264460457115
 20
66.641047537285743
 30
0.0
 11
137.45977964571151
 21
66.641047537285715
 31
0.0
1001
ACAD
1000
ASC_BOUNDS
1002
{
1070
    19
1005
0
1002
}
  0
ARC
  5
6FC
  8
0
 10
135.7449575941956
 20
68.732309194965353
 30
0.0
 40
24.525586800131968
 50
198.03055652315251
 51
206.28302853035299
1001
ACAD
1000
ASC_BOUNDS
1002
{
1070
    19
1002
}
  0
ARC
  5
6FD
  8
0
 10
106.2858119717083
 20
58.758018924389837
 30
0.0
 40
8.2450502234406908
 50
350.16338682968779
 51
29.001654949562781
  0
LINE
  5
6FE
  8
0
 10
124.4264460457116
 20
59.807719937286159
 30
0.0
 11
124.4264460457115
 21
58.167240716598918
 31
0.0
1001
ACAD
1000
ASC_BOUNDS
1002
{
1070
    19
1002
}
  0
LINE
  5
6FF
  8
0
 10
114.9970054924373
 20
56.833907916598918
 30
0.0
 11
123.09311324571151
 21
56.833907916598918
 31
0.0
  0
ARC
  5
700
  8
0
 10
115.1073622465079
 20
58.233907916598817
 30
0.0
 40
1.399999999999999
 50
194.97118440606079
 51
270.0
  0
ARC
  5
701
  8
0
 10
123.09311324571151
 20
58.167240716598918
 30
0.0
 40
1.3333327999999991
 50
270.0
 51
359.99999999999972
  0
LINE
  5
702
  8
0
 10
114.63957512011319
 20
61.70498820757485
 30
0.0
 11
122.6970866044074
 21
61.70498820757485
 31
0.0
  0
LINE
  5
703
  8
0
 10
138.1264460457115
 20
67.307713937285712
 30
0.0
 11
137.45977964571151
 21
66.641047537285715
 31
0.0
1001
ACAD
1000
ASC_BOUNDS
1002
{
1070
    19
1005
0
1002
}
  0
LINE
  5
704
  8
0
 10
138.1264460457115
 20
68.641047537285715
 30
0.0
 11
138.42644604571149
 21
68.641047537285715
 31
0.0
1001
ACAD
1000
ASC_BOUNDS
1002
{
1070
    19
1002
}
  0
LINE
  5
706
  8
2
 10
137.65965229571151
 20
77.37425378728571
 30
0.0
 11
123.4264460457115
 21
77.37425378728571
 31
0.0
  0
LINE
  5
707
  8
2
 10
137.65965229571151
 20
70.907841287285706
 30
0.0
 11
123.4264460457115
 21
70.907841287285706
 31
0.0
  0
LINE
  5
708
  8
2
 10
138.42644604571149
 20
78.141047537285715
 30
0.0
 11
125.4264460457115
 21
78.141047537285715
 31
0.0
  0
LINE
  5
709
  8
2
 10
138.42644604571149
 20
70.141047537285715
 30
0.0
 11
125.4264460457115
 21
70.141047537285715
 31
0.0
  0
LINE
  5
70A
  8
2
 10
138.1264460457115
 20
79.641047537285715
 30
0.0
 11
121.3064460457115
 21
79.641047537285715
 31
0.0
  0
LINE
  5
70B
  8
0
 10
124.4264460457115
 20
81.641047537285743
 30
0.0
 11
137.45977964571151
 21
81.641047537285715
 31
0.0
1001
ACAD
1000
ASC_BOUNDS
1002
{
1070
    19
1005
0
1002
}
  0
LINE
  5
70C
  8
1
 10
110.4237836457115
 20
74.141047537285715
 30
0.0
 11
140.42644604571149
 21
74.141047537285715
 31
0.0
  0
ARC
  5
70D
  8
0
 10
143.81036465586439
 20
85.749103955942161
 30
0.0
 40
30.967508542751261
 50
167.8552547591996
 51
188.81105520395619
  0
LINE
  5
70E
  8
0
 10
124.4264460457115
 20
89.999400871288231
 30
0.0
 11
124.4264460457115
 21
92.807706737285727
 31
0.0
1001
ACAD
1000
ASC_BOUNDS
1002
{
1070
    19
1005
0
1002
}
  0
ARC
  5
70F
  8
0
 10
184.66338497351509
 20
74.141047537285644
 30
0.0
 40
73.399999999999991
 50
165.02881559393779
 51
169.79842954791539
1001
ACAD
1000
ASC_BOUNDS
1002
{
1070
    19
1002
}
  0
ARC
  5
710
  8
0
 10
93.348453113526034
 20
75.962092853806226
 30
0.0
 40
20.490263814078109
 50
347.83940152288108
 51
14.24933717245667
  0
LINE
  5
711
  8
0
 10
112.4237836457115
 20
79.221023106972211
 30
0.0
 11
112.4237836457115
 21
70.362666972969691
 31
0.0
  0
LINE
  5
712
  8
0
 10
124.4264460457115
 20
89.999400871288231
 30
0.0
 11
124.4264460457115
 21
74.141047537285715
 31
0.0
1001
ACAD
1000
ASC_BOUNDS
1002
{
1070
    19
1005
0
1002
}
  0
LINE
  5
713
  8
0
 10
114.5803121218606
 20
73.072659443070819
 30
0.0
 11
122.6970866044074
 21
73.072659443070819
 31
0.0
  0
LINE
  5
714
  8
2
 10
121.3064460457115
 20
79.641047537285715
 30
0.0
 11
120.4264460457115
 21
78.761047537285719
 31
0.0
1001
ACAD
1000
ASC_BOUNDS
1002
{
1070
    19
1002
}
  0
LINE
  5
715
  8
2
 10
120.4264460457115
 20
74.141047537285715
 30
0.0
 11
120.4264460457115
 21
78.761047537285719
 31
0.0
1001
ACAD
1000
ASC_BOUNDS
1002
{
1070
    19
1002
}
  0
LINE
  5
716
  8
2
 10
120.4264460457115
 20
74.141047537285715
 30
0.0
 11
120.4264460457115
 21
69.52104753728571
 31
0.0
1001
ACAD
1000
ASC_BOUNDS
1002
{
1070
    19
1002
}
  0
LINE
  5
717
  8
2
 10
123.4264460457115
 20
77.37425378728571
 30
0.0
 11
121.55975354692841
 21
74.141047537285715
 31
0.0
  0
LINE
  5
718
  8
2
 10
123.4264460457115
 20
70.907841287285706
 30
0.0
 11
123.4264460457115
 21
77.37425378728571
 31
0.0
  0
LINE
  5
719
  8
2
 10
125.4264460457115
 20
70.141047537285715
 30
0.0
 11
125.4264460457115
 21
78.141047537285715
 31
0.0
  0
LINE
  5
71A
  8
2
 10
125.4264460457115
 20
70.141047537285715
 30
0.0
 11
124.0983203117852
 21
70.907841287285706
 31
0.0
  0
LINE
  5
71B
  8
2
 10
123.4264460457115
 20
70.907841287285706
 30
0.0
 11
121.55975354692841
 21
74.141047537285715
 31
0.0
  0
LINE
  5
71C
  8
2
 10
125.4264460457115
 20
78.141047537285715
 30
0.0
 11
124.0983203117852
 21
77.37425378728571
 31
0.0
  0
LINE
  5
71D
  8
0
 10
114.57059797408741
 20
88.594097028231417
 30
0.0
 11
122.6970866044074
 21
88.594097028231417
 31
0.0
  0
LINE
  5
71E
  8
0
 10
114.2362214672261
 20
81.181322696162795
 30
0.0
 11
123.33952925218691
 21
81.181322696162795
 31
0.0
  0
LINE
  5
71F
  8
0
 10
115.1073622465079
 20
94.141039537285735
 30
0.0
 11
123.09311324571151
 21
94.141039537285735
 31
0.0
1001
ACAD
1000
ASC_BOUNDS
1002
{
1070
    19
1005
0
1002
}
  0
ARC
  5
720
  8
0
 10
115.1073622465079
 20
92.741039537285744
 30
0.0
 40
1.399999999999999
 50
90.0
 51
165.02881559393859
1001
ACAD
1000
ASC_BOUNDS
1002
{
1070
    19
1002
}
  0
ARC
  5
721
  8
0
 10
123.09311324571151
 20
92.807706737285727
 30
0.0
 40
1.3333327999999991
 50
0.0000000000001908
 51
90.0
1001
ACAD
1000
ASC_BOUNDS
1002
{
1070
    19
1005
0
1002
}
  0
LINE
  5
722
  8
0
 10
138.1264460457115
 20
74.141047537285715
 30
0.0
 11
138.1264460457115
 21
80.974381137285775
 31
0.0
1001
ACAD
1000
ASC_BOUNDS
1002
{
1070
    19
1005
0
1002
}
  0
LINE
  5
723
  8
2
 10
137.65965229571151
 20
70.907841287285706
 30
0.0
 11
137.65965229571151
 21
77.37425378728571
 31
0.0
  0
LINE
  5
724
  8
2
 10
138.42644604571149
 20
70.141047537285715
 30
0.0
 11
137.65965229571151
 21
70.907841287285706
 31
0.0
  0
LINE
  5
725
  8
2
 10
137.65965229571151
 20
77.37425378728571
 30
0.0
 11
138.42644604571149
 21
78.141047537285715
 31
0.0
  0
LINE
  5
726
  8
0
 10
138.1264460457115
 20
79.641047537285715
 30
0.0
 11
138.42644604571149
 21
79.641047537285715
 31
0.0
1001
ACAD
1000
ASC_BOUNDS
1002
{
1070
    19
1002
}
  0
LINE
  5
727
  8
0
 10
138.1264460457115
 20
80.474378337285714
 30
0.0
 11
138.1264460457115
 21
80.474378337285714
 31
0.0
  0
LINE
  5
728
  8
0
 10
138.1264460457115
 20
80.974381137285704
 30
0.0
 11
137.45977964571151
 21
81.641047537285715
 31
0.0
1001
ACAD
1000
ASC_BOUNDS
1002
{
1070
    19
1005
0
1002
}
  0
INSERT
  5
767
  8
0
  2
BATU
 10
0.0
 20
0.0
 30
0.0
 41
0.001
 42
0.001
 43
0.001
  0
TEXT
  5
872
  8
0
 62
     3
 10
0.0
 20
0.0
 30
0.0
 40
10.0
  1
SFK40B-SUS
  7
STANDARD1
  0
ENDSEC
  0
EOF
