  0
SECTION
  2
HEADER
  9
$ACADVER
  1
AC1009
  9
$INSBASE
 10
0.0
 20
0.0
 30
0.0
  9
$EXTMIN
 10
-0.0005
 20
-2.960436562073669
 30
0.0
  9
$EXTMAX
 10
147.50080468658041
 20
97.020307926208375
 30
0.0
  9
$LIMMIN
 10
0.0
 20
0.0
  9
$LIMMAX
 10
187.5
 20
135.0
  9
$ORTHOMODE
 70
     0
  9
$REGENMODE
 70
     1
  9
$FILLMODE
 70
     1
  9
$QTEXTMODE
 70
     0
  9
$MIRRTEXT
 70
     0
  9
$DRAGMODE
 70
     2
  9
$LTSCALE
 40
5.0
  9
$OSMODE
 70
    55
  9
$ATTMODE
 70
     1
  9
$TEXTSIZE
 40
4.000000000000048
  9
$TRACEWID
 40
0.05
  9
$TEXTSTYLE
  7
STANDARD
  9
$CLAYER
  8
0
  9
$CELTYPE
  6
BYLAYER
  9
$CECOLOR
 62
   256
  9
$DIMSCALE
 40
0.5
  9
$DIMASZ
 40
3.0
  9
$DIMEXO
 40
2.0
  9
$DIMDLI
 40
0.38
  9
$DIMRND
 40
0.0
  9
$DIMDLE
 40
0.0
  9
$DIMEXE
 40
2.0
  9
$DIMTP
 40
0.0
  9
$DIMTM
 40
0.0
  9
$DIMTXT
 40
3.0
  9
$DIMCEN
 40
0.09
  9
$DIMTSZ
 40
0.0
  9
$DIMTOL
 70
     0
  9
$DIMLIM
 70
     0
  9
$DIMTIH
 70
     0
  9
$DIMTOH
 70
     0
  9
$DIMSE1
 70
     0
  9
$DIMSE2
 70
     0
  9
$DIMTAD
 70
     1
  9
$DIMZIN
 70
     0
  9
$DIMBLK
  1

  9
$DIMASO
 70
     1
  9
$DIMSHO
 70
     0
  9
$DIMPOST
  1

  9
$DIMAPOST
  1

  9
$DIMALT
 70
     0
  9
$DIMALTD
 70
     2
  9
$DIMALTF
 40
25.399999999999999
  9
$DIMLFAC
 40
1.0
  9
$DIMTOFL
 70
     0
  9
$DIMTVP
 40
1.6000000000000001
  9
$DIMTIX
 70
     1
  9
$DIMSOXD
 70
     0
  9
$DIMSAH
 70
     0
  9
$DIMBLK1
  1

  9
$DIMBLK2
  1

  9
$DIMSTYLE
  2
STANDARD
  9
$DIMCLRD
 70
     0
  9
$DIMCLRE
 70
     0
  9
$DIMCLRT
 70
     0
  9
$DIMTFAC
 40
1.0
  9
$DIMGAP
 40
0.09
  9
$LUNITS
 70
     2
  9
$LUPREC
 70
     4
  9
$SKETCHINC
 40
0.1
  9
$FILLETRAD
 40
1.8999999999999999
  9
$AUNITS
 70
     0
  9
$AUPREC
 70
     0
  9
$MENU
  1
E:\r13\win\SUPPORT\ACAD
  9
$ELEVATION
 40
0.0
  9
$PELEVATION
 40
0.0
  9
$THICKNESS
 40
0.0
  9
$LIMCHECK
 70
     0
  9
$BLIPMODE
 70
     0
  9
$CHAMFERA
 40
0.0
  9
$CHAMFERB
 40
0.0
  9
$SKPOLY
 70
     0
  9
$TDCREATE
 40
2451582.6903199079
  9
$TDUPDATE
 40
2456598.4964991561
  9
$TDINDWG
 40
0.0079039931
  9
$TDUSRTIMER
 40
0.0079039931
  9
$USRTIMER
 70
     1
  9
$ANGBASE
 50
0.0
  9
$ANGDIR
 70
     0
  9
$PDMODE
 70
     0
  9
$PDSIZE
 40
0.0
  9
$PLINEWID
 40
0.0
  9
$COORDS
 70
     1
  9
$SPLFRAME
 70
     0
  9
$SPLINETYPE
 70
     6
  9
$SPLINESEGS
 70
     8
  9
$ATTDIA
 70
     0
  9
$ATTREQ
 70
     1
  9
$HANDLING
 70
     1
  9
$HANDSEED
  5
A61
  9
$SURFTAB1
 70
     6
  9
$SURFTAB2
 70
     6
  9
$SURFTYPE
 70
     6
  9
$SURFU
 70
     6
  9
$SURFV
 70
     6
  9
$UCSNAME
  2

  9
$UCSORG
 10
0.0
 20
0.0
 30
0.0
  9
$UCSXDIR
 10
1.0
 20
0.0
 30
0.0
  9
$UCSYDIR
 10
0.0
 20
1.0
 30
0.0
  9
$PUCSNAME
  2

  9
$PUCSORG
 10
0.0
 20
0.0
 30
0.0
  9
$PUCSXDIR
 10
1.0
 20
0.0
 30
0.0
  9
$PUCSYDIR
 10
0.0
 20
1.0
 30
0.0
  9
$USERI1
 70
     0
  9
$USERI2
 70
     1
  9
$USERI3
 70
     1
  9
$USERI4
 70
     0
  9
$USERI5
 70
     0
  9
$USERR1
 40
0.0
  9
$USERR2
 40
0.0
  9
$USERR3
 40
0.0
  9
$USERR4
 40
0.0
  9
$USERR5
 40
0.0
  9
$WORLDVIEW
 70
     1
  9
$SHADEDGE
 70
     3
  9
$SHADEDIF
 70
    70
  9
$TILEMODE
 70
     1
  9
$MAXACTVP
 70
    16
  9
$PLIMCHECK
 70
     0
  9
$PEXTMIN
 10
1.0000000000000000E+020
 20
1.0000000000000000E+020
 30
1.0000000000000000E+020
  9
$PEXTMAX
 10
-1.0000000000000000E+020
 20
-1.0000000000000000E+020
 30
-1.0000000000000000E+020
  9
$PLIMMIN
 10
0.0
 20
0.0
  9
$PLIMMAX
 10
12.0
 20
9.0
  9
$UNITMODE
 70
     0
  9
$VISRETAIN
 70
     0
  9
$PLINEGEN
 70
     0
  9
$PSLTSCALE
 70
     0
  0
ENDSEC
  0
SECTION
  2
TABLES
  0
TABLE
  2
VPORT
 70
     1
  0
VPORT
  2
*ACTIVE
 70
     0
 10
0.0
 20
0.0
 11
1.0
 21
1.0
 12
93.746889187697406
 22
86.945179616803841
 13
0.0
 23
0.0
 14
5.0
 24
5.0
 15
5.0
 25
5.0
 16
0.0
 26
0.0
 36
1.0
 17
0.0
 27
0.0
 37
0.0
 40
181.39739258337829
 41
1.7807262569832401
 42
50.0
 43
0.0
 44
0.0
 50
0.0
 51
0.0
 71
     0
 72
   500
 73
     1
 74
     0
 75
     0
 76
     0
 77
     0
 78
     2
  0
ENDTAB
  0
TABLE
  2
LTYPE
 70
     4
  0
LTYPE
  2
CONTINUOUS
 70
     0
  3
Solid Line
 72
    65
 73
     0
 40
0.0
  0
LTYPE
  2
CENTER
 70
     0
  3
____ _ ____ _ ____ _ ____ _ ____ _ ____ _ ____
 72
    65
 73
     4
 40
2.0
 49
1.25
 49
-0.25
 49
0.25
 49
-0.25
  0
LTYPE
  2
HIDDEN
 70
     0
  3
_ _ _ _ _ _ _ _ _ _ _ _ _ _ _ _ _ _ _ _ _ _ _
 72
    65
 73
     2
 40
0.375
 49
0.25
 49
-0.125
  0
LTYPE
  2
PHANTOM2
 70
     0
  3
___ _ _ ___ _ _ ___ _ _ ___ _ _
 72
    65
 73
     6
 40
1.25
 49
0.625
 49
-0.125
 49
0.125
 49
-0.125
 49
0.125
 49
-0.125
  0
ENDTAB
  0
TABLE
  2
LAYER
 70
     4
  0
LAYER
  2
0
 70
     0
 62
     7
  6
CONTINUOUS
  0
LAYER
  2
1
 70
     0
 62
     1
  6
CENTER
  0
LAYER
  2
2
 70
     0
 62
     2
  6
HIDDEN
  0
LAYER
  2
ITTEN
 70
     0
 62
     1
  6
CENTER
  0
ENDTAB
  0
TABLE
  2
STYLE
 70
     2
  0
STYLE
  2
STANDARD
 70
     0
 40
0.0
 41
1.0
 50
0.0
 71
     0
 42
4.000000000000048
  3
TXT
  4
BIGFONT
  0
STYLE
  2
STANDARD1
 70
     0
 40
0.0
 41
1.0
 50
0.0
 71
     0
 42
3.0
  3
txt
  4

  0
ENDTAB
  0
TABLE
  2
VIEW
 70
     1
  0
VIEW
  2
ALL
 70
     0
 40
135.0
 10
110.4957983193277
 20
67.5
 41
0.0
 11
0.0
 21
0.0
 31
1.0
 12
0.0
 22
0.0
 32
0.0
 42
0.0
 43
0.0
 44
0.0
 50
0.0
 71
     0
  0
ENDTAB
  0
TABLE
  2
UCS
 70
     0
  0
ENDTAB
  0
TABLE
  2
APPID
 70
     3
  0
APPID
  2
ACAD
 70
     0
  0
APPID
  2
ACAD_MLEADERVER
 70
     0
  0
APPID
  2
ACAD_NAV_VCDISPLAY
 70
     0
  0
ENDTAB
  0
TABLE
  2
DIMSTYLE
 70
     1
  0
DIMSTYLE
  2
STANDARD
 70
     0
  3

  4

  5

  6

  7

 40
1.0
 41
0.18
 42
0.0625
 43
0.38
 44
0.18
 45
0.0
 46
0.0
 47
0.0
 48
0.0
140
0.18
141
0.09
142
0.0
143
25.399999999999999
144
1.0
145
0.0
146
1.0
147
0.09
 71
     0
 72
     0
 73
     1
 74
     1
 75
     0
 76
     0
 77
     0
 78
     0
170
     0
171
     2
172
     0
173
     0
174
     0
175
     0
176
     0
177
     0
178
     0
  0
ENDTAB
  0
ENDSEC
  0
SECTION
  2
BLOCKS
  0
BLOCK
  8
0
  2
$MODEL_SPACE
 70
     0
 10
0.0
 20
0.0
 30
0.0
  3
$MODEL_SPACE
  1

  0
ENDBLK
  5
8B0
  8
0
  0
BLOCK
 67
     1
  8
0
  2
$PAPER_SPACE
 70
     0
 10
0.0
 20
0.0
 30
0.0
  3
$PAPER_SPACE
  1

  0
ENDBLK
  5
8AE
 67
     1
  8
0
  0
BLOCK
  8
0
  2
STDGX5
 70
     0
 10
0.0
 20
0.0
 30
0.0
  3
STDGX5
  1

  0
ENDBLK
  5
3DA
  8
0
  0
BLOCK
  8
0
  2
BATU
 70
     0
 10
0.0
 20
0.0
 30
0.0
  3
BATU
  1

  0
LINE
  5
8BB
  8
ITTEN
 10
0.5
 20
0.0
 30
0.0
 11
-0.5
 21
0.0
 31
0.0
  0
LINE
  5
8BC
  8
ITTEN
 10
0.0
 20
0.5
 30
0.0
 11
0.0
 21
-0.5
 31
0.0
  0
ENDBLK
  5
8BE
  8
0
  0
ENDSEC
  0
SECTION
  2
ENTITIES
  0
INSERT
  5
404
  8
0
  2
STDGX5
 10
0.0
 20
0.0
 30
0.0
 41
0.125
 42
0.125
 43
0.125
  0
INSERT
  5
405
  8
0
  2
STDGX5
 10
0.0
 20
0.0
 30
0.0
 41
0.125
 42
0.125
 43
0.125
  0
INSERT
  5
406
  8
0
  2
STDGX5
 10
34.375
 20
0.0
 30
0.0
 41
0.125
 42
0.125
 43
0.125
  0
INSERT
  5
407
  8
0
  2
STDGX5
 10
34.375
 20
0.0
 30
0.0
 41
0.125
 42
0.125
 43
0.125
  0
INSERT
  5
408
  8
0
  2
STDGX5
 10
0.0
 20
0.0
 30
0.0
 41
0.25
 42
0.25
 43
0.25
  0
INSERT
  5
409
  8
0
  2
STDGX5
 10
0.0
 20
0.0
 30
0.0
 41
0.25
 42
0.25
 43
0.25
  0
INSERT
  5
40A
  8
0
  2
STDGX5
 10
68.75
 20
0.0
 30
0.0
 41
0.25
 42
0.25
 43
0.25
  0
INSERT
  5
40B
  8
0
  2
STDGX5
 10
68.75
 20
0.0
 30
0.0
 41
0.25
 42
0.25
 43
0.25
  0
INSERT
  5
40D
  8
0
  2
STDGX5
 10
-17.5
 20
-50.0
 30
0.0
 41
0.1666666666666666
 42
0.1666666666666666
 43
0.1666666666666666
  0
INSERT
  5
40E
  8
0
  2
STDGX5
 10
-17.5
 20
-50.0
 30
0.0
 41
0.1666666666666666
 42
0.1666666666666666
 43
0.1666666666666666
  0
INSERT
  5
40F
  8
0
  2
STDGX5
 10
28.333333333333321
 20
-50.0
 30
0.0
 41
0.1666666666666666
 42
0.1666666666666666
 43
0.1666666666666666
  0
INSERT
  5
410
  8
0
  2
STDGX5
 10
28.333333333333321
 20
-50.0
 30
0.0
 41
0.1666666666666666
 42
0.1666666666666666
 43
0.1666666666666666
  0
INSERT
  5
412
  8
0
  2
STDGX5
 10
-17.5
 20
-50.0
 30
0.0
 41
0.1666666666666666
 42
0.1666666666666666
 43
0.1666666666666666
  0
INSERT
  5
413
  8
0
  2
STDGX5
 10
-17.5
 20
-50.0
 30
0.0
 41
0.1666666666666666
 42
0.1666666666666666
 43
0.1666666666666666
  0
INSERT
  5
414
  8
0
  2
STDGX5
 10
28.333333333333329
 20
-50.0
 30
0.0
 41
0.1666666666666666
 42
0.1666666666666666
 43
0.1666666666666666
  0
INSERT
  5
415
  8
0
  2
STDGX5
 10
28.333333333333329
 20
-50.0
 30
0.0
 41
0.1666666666666666
 42
0.1666666666666666
 43
0.1666666666666666
  0
INSERT
  5
416
  8
0
  2
STDGX5
 10
0.0
 20
0.0
 30
0.0
 41
0.5
 42
0.5
 43
0.5
  0
INSERT
  5
417
  8
0
  2
STDGX5
 10
0.0
 20
0.0
 30
0.0
 41
0.5
 42
0.5
 43
0.5
  0
INSERT
  5
418
  8
0
  2
STDGX5
 10
137.5
 20
0.0
 30
0.0
 41
0.5
 42
0.5
 43
0.5
  0
INSERT
  5
419
  8
0
  2
STDGX5
 10
137.5
 20
0.0
 30
0.0
 41
0.5
 42
0.5
 43
0.5
  0
ARC
  5
830
  8
0
 10
26.402713990012209
 20
59.267165409501551
 30
0.0
 40
15.259999999999989
 50
352.75174968626322
 51
43.248250313736719
  0
LINE
  5
831
  8
1
 10
59.49748368658053
 20
97.020307926208375
 30
0.0
 11
59.49748368658053
 21
43.02030792620851
 31
0.0
  0
ARC
  5
832
  8
0
 10
92.592253383148929
 20
59.267165409501423
 30
0.0
 40
15.259999999999989
 50
136.7517496862632
 51
187.24825031373669
  0
CIRCLE
  5
833
  8
0
 10
59.49748368658053
 20
70.020307926208474
 30
0.0
 40
16.609999999999971
  0
ARC
  5
835
  8
0
 10
49.546279365268937
 20
56.323650211440622
 30
0.0
 40
8.0699999999999985
 50
172.75174968626311
 51
295.24825031373263
  0
ARC
  5
836
  8
0
 10
69.44868800789213
 20
56.323650211440601
 30
0.0
 40
8.0699999999999985
 50
244.7517496862672
 51
7.2482503137367971
  0
ARC
  5
837
  8
0
 10
59.49748368658053
 20
35.222407770401531
 30
0.0
 40
15.259999999999989
 50
64.751749686267132
 51
115.2482503137328
  0
ARC
  5
838
  8
0
 10
43.396096865703647
 20
75.251965640976309
 30
0.0
 40
8.0699999999999985
 50
100.7517496862631
 51
223.24825031373669
  0
LINE
  5
839
  8
1
 10
32.497483686580608
 20
70.020307926208474
 30
0.0
 11
86.497483686580466
 21
70.020307926208417
 31
0.0
  0
ARC
  5
83A
  8
0
 10
79.951176208909871
 20
98.172400520818854
 30
0.0
 40
15.259999999999989
 50
208.75174968626311
 51
259.24825031373672
  0
ARC
  5
83B
  8
0
 10
59.49748368658053
 20
86.950307926208424
 30
0.0
 40
8.0699999999999985
 50
28.751749686263189
 51
151.24825031373649
  0
ARC
  5
83C
  8
0
 10
39.043791164251331
 20
98.172400520818996
 30
0.0
 40
15.259999999999989
 50
280.75174968626311
 51
331.24825031373678
  0
ARC
  5
83D
  8
0
 10
75.59887050745742
 20
75.251965640976309
 30
0.0
 40
8.0699999999999985
 50
316.75174968626328
 51
79.248250313736676
  0
LINE
  5
83E
  8
0
 10
126.8005152996614
 20
49.616007312861427
 30
0.0
 11
126.8005152996614
 21
94.294955013793739
 31
0.0
  0
ARC
  5
83F
  8
0
 10
88.210992267646546
 20
71.338977740513599
 30
0.0
 40
27.949195729766299
 50
349.09578106302428
 51
12.77536194360674
  0
LINE
  5
840
  8
0
 10
144.36747168658039
 20
79.020304426208369
 30
0.0
 11
144.36747168658039
 21
61.020311426208409
 31
0.0
  0
LINE
  5
841
  8
2
 10
126.50080468658039
 20
65.940460426208361
 30
0.0
 11
124.1453036342028
 21
70.020307926208361
 31
0.0
  0
LINE
  5
842
  8
2
 10
126.50080468658039
 20
65.940460426208361
 30
0.0
 11
126.50080468658039
 21
74.10015542620836
 31
0.0
  0
LINE
  5
843
  8
2
 10
128.50080468658041
 20
65.020307926208361
 30
0.0
 11
128.50080468658041
 21
75.020307926208361
 31
0.0
  0
LINE
  5
844
  8
2
 10
144.58065218658041
 20
65.940460426208361
 30
0.0
 11
144.58065218658041
 21
74.10015542620836
 31
0.0
  0
LINE
  5
845
  8
0
 10
128.50081168658051
 20
52.103648426208899
 30
0.0
 11
128.50081168658031
 21
70.020307926208361
 31
0.0
1001
ACAD
1000
ASC_BOUNDS
1002
{
1070
    19
1002
}
  0
LINE
  5
846
  8
2
 10
123.50080468658039
 20
70.020307926208361
 30
0.0
 11
123.50080468658039
 21
66.98441204134609
 31
0.0
1001
ACAD
1000
ASC_BOUNDS
1002
{
1070
    19
1002
}
  0
LINE
  5
847
  8
0
 10
114.49748368658049
 20
86.629474070238189
 30
0.0
 11
114.4974836865804
 21
53.411141782179129
 31
0.0
1001
ACAD
1000
ASC_BOUNDS
1002
{
1070
    19
1002
}
  0
ARC
  5
848
  8
2
 10
59.657483686581912
 20
70.020307926208673
 30
0.0
 40
57.299999999998462
 50
343.15022881695938
 51
16.849771183039689
1001
ACAD
1000
ASC_BOUNDS
1002
{
1070
    19
1002
}
  0
LINE
  5
849
  8
0
 10
145.2008046865806
 20
70.020307926208361
 30
0.0
 11
145.2008046865804
 21
61.853644426208341
 31
0.0
1001
ACAD
1000
ASC_BOUNDS
1002
{
1070
    19
1002
}
  0
LINE
  5
84A
  8
0
 10
145.50080468658041
 20
63.520310426208347
 30
0.0
 11
145.50080468658041
 21
76.520305426208338
 31
0.0
1001
ACAD
1000
ASC_BOUNDS
1002
{
1070
    19
1002
}
  0
LINE
  5
856
  8
2
 10
125.50080468658039
 20
63.520310426208333
 30
0.0
 11
145.2008046865804
 21
63.520310426208383
 31
0.0
  0
LINE
  5
857
  8
2
 10
144.58065218658041
 20
65.940460426208361
 30
0.0
 11
126.50080468658039
 21
65.940460426208361
 31
0.0
  0
LINE
  5
858
  8
2
 10
128.50080468658041
 20
65.020307926208361
 30
0.0
 11
126.9070538058689
 21
65.940460426208361
 31
0.0
  0
ARC
  5
859
  8
0
 10
126.8341456865805
 20
49.920316211440557
 30
0.0
 40
1.6666659999999991
 50
270.0
 51
359.9999999999996
  0
ARC
  5
85A
  8
0
 10
143.52297372992069
 20
60.865167127327723
 30
0.0
 40
28.345985524317509
 50
169.456665119436
 51
191.8896448791825
  0
LINE
  5
85B
  8
0
 10
117.0391359696832
 20
53.872157512818333
 30
0.0
 11
126.1809273158408
 21
53.872157512818333
 31
0.0
  0
LINE
  5
85C
  8
0
 10
117.7491301142598
 20
48.25365021144048
 30
0.0
 11
126.8341456865805
 21
48.25365021144048
 31
0.0
  0
ARC
  5
85D
  8
0
 10
107.87071610957381
 20
50.637800586114579
 30
0.0
 40
9.0491052802505667
 50
350.16338682968779
 51
29.00165494956288
  0
ARC
  5
85E
  8
0
 10
143.45964918128979
 20
63.090569164126308
 30
0.0
 40
30.536835864007461
 50
198.4801113583469
 51
206.398488421308
1001
ACAD
1000
ASC_BOUNDS
1002
{
1070
    19
1002
}
  0
ARC
  5
85F
  8
0
 10
117.7491301142598
 20
49.953650211440532
 30
0.0
 40
1.6999999999999991
 50
195.0041363700245
 51
270.0
1001
ACAD
1000
ASC_BOUNDS
1002
{
1070
    19
1002
}
  0
LINE
  5
860
  8
0
 10
116.97409365994849
 20
67.617935359016059
 30
0.0
 11
126.1809273158408
 21
67.617935359016059
 31
0.0
  0
LINE
  5
861
  8
2
 10
125.50080468658039
 20
63.520310426208333
 30
0.0
 11
123.50080468658039
 21
66.984412041346175
 31
0.0
1001
ACAD
1000
ASC_BOUNDS
1002
{
1070
    19
1002
}
  0
LINE
  5
862
  8
2
 10
145.50080468658041
 20
65.020307926208361
 30
0.0
 11
128.50080468658041
 21
65.020307926208361
 31
0.0
  0
LINE
  5
863
  8
0
 10
128.50081168658039
 20
61.02031142620838
 30
0.0
 11
144.36747168658039
 21
61.020311426208409
 31
0.0
1001
ACAD
1000
ASC_BOUNDS
1002
{
1070
    19
1002
}
  0
LINE
  5
864
  8
0
 10
128.50081168658051
 20
52.103648426208899
 30
0.0
 11
128.50081168658039
 21
49.920316211440557
 31
0.0
1001
ACAD
1000
ASC_BOUNDS
1002
{
1070
    19
1002
}
  0
LINE
  5
865
  8
0
 10
145.2008046865804
 20
61.85364442620839
 30
0.0
 11
144.36747168658039
 21
61.020311426208352
 31
0.0
1001
ACAD
1000
ASC_BOUNDS
1002
{
1070
    19
1002
}
  0
LINE
  5
866
  8
0
 10
145.2008046865804
 20
62.103644426208326
 30
0.0
 11
145.2008046865804
 21
62.103644426208326
 31
0.0
  0
LINE
  5
867
  8
0
 10
145.2008046865804
 20
63.520310426208383
 30
0.0
 11
145.50080468658041
 21
63.520310426208347
 31
0.0
1001
ACAD
1000
ASC_BOUNDS
1002
{
1070
    19
1002
}
  0
LINE
  5
868
  8
2
 10
145.50080468658041
 20
65.020307926208361
 30
0.0
 11
144.58065218658041
 21
65.940460426208361
 31
0.0
  0
LINE
  5
86A
  8
2
 10
125.50080468658039
 20
76.520305426208338
 30
0.0
 11
145.2008046865804
 21
76.520305426208367
 31
0.0
  0
LINE
  5
86B
  8
2
 10
144.58065218658041
 20
74.10015542620836
 30
0.0
 11
126.50080468658039
 21
74.10015542620836
 31
0.0
  0
LINE
  5
86C
  8
2
 10
128.50080468658041
 20
75.020307926208361
 30
0.0
 11
126.9070538058689
 21
74.10015542620836
 31
0.0
  0
ARC
  5
86D
  8
0
 10
126.8341456865804
 20
93.353631926208365
 30
0.0
 40
1.6666659999999991
 50
0.0000000000001908
 51
90.0
1001
ACAD
1000
ASC_BOUNDS
1002
{
1070
    19
1002
}
  0
LINE
  5
86E
  8
1
 10
112.49748368658049
 20
70.020307926208361
 30
0.0
 11
147.50080468658041
 21
70.020307926208361
 31
0.0
  0
ARC
  5
86F
  8
0
 10
164.25281690076849
 20
84.025336971228086
 30
0.0
 40
49.216435786894458
 50
170.1951675759876
 51
187.59622906631219
  0
ARC
  5
870
  8
0
 10
204.68077260420651
 20
70.020307926208375
 30
0.0
 40
91.699999999999989
 50
164.9958636299753
 51
169.56470295968219
1001
ACAD
1000
ASC_BOUNDS
1002
{
1070
    19
1002
}
  0
LINE
  5
871
  8
0
 10
116.5964473781969
 20
77.712208810785896
 30
0.0
 11
126.8860207960178
 21
77.712208810785896
 31
0.0
  0
LINE
  5
872
  8
2
 10
125.50080468658039
 20
76.520305426208338
 30
0.0
 11
123.50080468658039
 21
73.056203811070546
 31
0.0
1001
ACAD
1000
ASC_BOUNDS
1002
{
1070
    19
1002
}
  0
LINE
  5
873
  8
2
 10
126.50080468658039
 20
74.10015542620836
 30
0.0
 11
124.1453036342028
 21
70.020307926208361
 31
0.0
  0
LINE
  5
874
  8
2
 10
123.50080468658039
 20
70.020307926208361
 30
0.0
 11
123.50080468658039
 21
73.056203811070631
 31
0.0
1001
ACAD
1000
ASC_BOUNDS
1002
{
1070
    19
1002
}
  0
LINE
  5
875
  8
0
 10
116.9634321911248
 20
85.847874880947884
 30
0.0
 11
126.1809273158408
 21
85.847874880947884
 31
0.0
  0
LINE
  5
876
  8
0
 10
117.7491301142598
 20
95.020297926208386
 30
0.0
 11
126.8341456865804
 21
95.020297926208329
 31
0.0
1001
ACAD
1000
ASC_BOUNDS
1002
{
1070
    19
1002
}
  0
ARC
  5
877
  8
0
 10
117.7491301142598
 20
93.320297926208355
 30
0.0
 40
1.6999999999999991
 50
90.0
 51
164.99586362997539
1001
ACAD
1000
ASC_BOUNDS
1002
{
1070
    19
1002
}
  0
LINE
  5
878
  8
0
 10
128.50081168658039
 20
89.843249593711477
 30
0.0
 11
128.50081168658039
 21
93.353631926208365
 31
0.0
1001
ACAD
1000
ASC_BOUNDS
1002
{
1070
    19
1002
}
  0
LINE
  5
879
  8
2
 10
145.50080468658041
 20
75.020307926208361
 30
0.0
 11
128.50080468658041
 21
75.020307926208361
 31
0.0
  0
LINE
  5
87A
  8
0
 10
128.50081168658051
 20
79.020304426208341
 30
0.0
 11
144.36747168658039
 21
79.020304426208369
 31
0.0
1001
ACAD
1000
ASC_BOUNDS
1002
{
1070
    19
1002
}
  0
LINE
  5
87B
  8
0
 10
128.50081168658039
 20
89.843249593711477
 30
0.0
 11
128.50081168658059
 21
70.020307926208361
 31
0.0
1001
ACAD
1000
ASC_BOUNDS
1002
{
1070
    19
1002
}
  0
LINE
  5
87C
  8
2
 10
144.58065218658041
 20
74.10015542620836
 30
0.0
 11
145.50080468658041
 21
75.020307926208361
 31
0.0
  0
LINE
  5
87D
  8
0
 10
145.2008046865806
 20
70.020307926208361
 30
0.0
 11
145.2008046865804
 21
78.186971426208373
 31
0.0
1001
ACAD
1000
ASC_BOUNDS
1002
{
1070
    19
1002
}
  0
LINE
  5
87E
  8
0
 10
145.2008046865804
 20
76.520305426208367
 30
0.0
 11
145.50080468658041
 21
76.520305426208367
 31
0.0
1001
ACAD
1000
ASC_BOUNDS
1002
{
1070
    19
1002
}
  0
LINE
  5
87F
  8
0
 10
145.2008046865804
 20
78.186971426208331
 30
0.0
 11
144.36747168658039
 21
79.020304426208369
 31
0.0
1001
ACAD
1000
ASC_BOUNDS
1002
{
1070
    19
1002
}
  0
LINE
  5
880
  8
0
 10
145.2008046865804
 20
77.936971426208387
 30
0.0
 11
145.2008046865804
 21
77.936971426208387
 31
0.0
  0
INSERT
  5
8BF
  8
0
  2
BATU
 10
0.0
 20
0.0
 30
0.0
 41
0.001
 42
0.001
 43
0.001
  0
TEXT
  5
9CA
  8
0
 62
     3
 10
0.0
 20
0.0
 30
0.0
 40
10.0
  1
SFK50B-SUS
  7
STANDARD1
  0
ENDSEC
  0
EOF
