  0
SECTION
  2
HEADER
  9
$ACADVER
  1
AC1009
  9
$INSBASE
 10
0.0
 20
0.0
 30
0.0
  9
$EXTMIN
 10
0.0
 20
-2.960436562073669
 30
0.0
  9
$EXTMAX
 10
340.50000000000011
 20
242.5
 30
0.0
  9
$LIMMIN
 10
0.0
 20
0.0
  9
$LIMMAX
 10
375.0
 20
270.0
  9
$ORTHOMODE
 70
     1
  9
$REGENMODE
 70
     1
  9
$FILLMODE
 70
     1
  9
$QTEXTMODE
 70
     0
  9
$MIRRTEXT
 70
     0
  9
$DRAGMODE
 70
     2
  9
$LTSCALE
 40
10.0
  9
$OSMODE
 70
    37
  9
$ATTMODE
 70
     1
  9
$TEXTSIZE
 40
0.2
  9
$TRACEWID
 40
0.05
  9
$TEXTSTYLE
  7
STANDARD
  9
$CLAYER
  8
0
  9
$CELTYPE
  6
BYLAYER
  9
$CECOLOR
 62
   256
  9
$DIMSCALE
 40
1.0
  9
$DIMASZ
 40
3.0
  9
$DIMEXO
 40
2.0
  9
$DIMDLI
 40
0.38
  9
$DIMRND
 40
0.0
  9
$DIMDLE
 40
0.0
  9
$DIMEXE
 40
2.0
  9
$DIMTP
 40
0.0
  9
$DIMTM
 40
0.0
  9
$DIMTXT
 40
3.2000000000000002
  9
$DIMCEN
 40
0.0
  9
$DIMTSZ
 40
0.0
  9
$DIMTOL
 70
     0
  9
$DIMLIM
 70
     0
  9
$DIMTIH
 70
     0
  9
$DIMTOH
 70
     0
  9
$DIMSE1
 70
     0
  9
$DIMSE2
 70
     0
  9
$DIMTAD
 70
     1
  9
$DIMZIN
 70
     0
  9
$DIMBLK
  1

  9
$DIMASO
 70
     1
  9
$DIMSHO
 70
     0
  9
$DIMPOST
  1

  9
$DIMAPOST
  1

  9
$DIMALT
 70
     0
  9
$DIMALTD
 70
     2
  9
$DIMALTF
 40
25.399999999999999
  9
$DIMLFAC
 40
1.0
  9
$DIMTOFL
 70
     1
  9
$DIMTVP
 40
1.6000000000000001
  9
$DIMTIX
 70
     1
  9
$DIMSOXD
 70
     0
  9
$DIMSAH
 70
     0
  9
$DIMBLK1
  1

  9
$DIMBLK2
  1

  9
$DIMSTYLE
  2
STANDARD
  9
$DIMCLRD
 70
     0
  9
$DIMCLRE
 70
     0
  9
$DIMCLRT
 70
     0
  9
$DIMTFAC
 40
1.0
  9
$DIMGAP
 40
0.09
  9
$LUNITS
 70
     2
  9
$LUPREC
 70
     4
  9
$SKETCHINC
 40
0.1
  9
$FILLETRAD
 40
0.0
  9
$AUNITS
 70
     0
  9
$AUPREC
 70
     4
  9
$MENU
  1
E:\r13\win\SUPPORT\ACAD
  9
$ELEVATION
 40
0.0
  9
$PELEVATION
 40
0.0
  9
$THICKNESS
 40
0.0
  9
$LIMCHECK
 70
     0
  9
$BLIPMODE
 70
     0
  9
$CHAMFERA
 40
0.0
  9
$CHAMFERB
 40
0.0
  9
$SKPOLY
 70
     0
  9
$TDCREATE
 40
2449840.631076389
  9
$TDUPDATE
 40
2459754.4138247692
  9
$TDINDWG
 40
0.0005271412
  9
$TDUSRTIMER
 40
0.0005271412
  9
$USRTIMER
 70
     1
  9
$ANGBASE
 50
0.0
  9
$ANGDIR
 70
     0
  9
$PDMODE
 70
     0
  9
$PDSIZE
 40
0.0
  9
$PLINEWID
 40
0.0
  9
$COORDS
 70
     1
  9
$SPLFRAME
 70
     0
  9
$SPLINETYPE
 70
     6
  9
$SPLINESEGS
 70
     8
  9
$ATTDIA
 70
     0
  9
$ATTREQ
 70
     1
  9
$HANDLING
 70
     1
  9
$HANDSEED
  5
3BF
  9
$SURFTAB1
 70
     6
  9
$SURFTAB2
 70
     6
  9
$SURFTYPE
 70
     6
  9
$SURFU
 70
     6
  9
$SURFV
 70
     6
  9
$UCSNAME
  2

  9
$UCSORG
 10
0.0
 20
0.0
 30
0.0
  9
$UCSXDIR
 10
1.0
 20
0.0
 30
0.0
  9
$UCSYDIR
 10
0.0
 20
1.0
 30
0.0
  9
$PUCSNAME
  2

  9
$PUCSORG
 10
0.0
 20
0.0
 30
0.0
  9
$PUCSXDIR
 10
1.0
 20
0.0
 30
0.0
  9
$PUCSYDIR
 10
0.0
 20
1.0
 30
0.0
  9
$USERI1
 70
     0
  9
$USERI2
 70
     1
  9
$USERI3
 70
     1
  9
$USERI4
 70
     0
  9
$USERI5
 70
     0
  9
$USERR1
 40
0.0
  9
$USERR2
 40
0.0
  9
$USERR3
 40
0.0
  9
$USERR4
 40
0.0
  9
$USERR5
 40
0.0
  9
$WORLDVIEW
 70
     1
  9
$SHADEDGE
 70
     3
  9
$SHADEDIF
 70
    70
  9
$TILEMODE
 70
     1
  9
$MAXACTVP
 70
    16
  9
$PLIMCHECK
 70
     0
  9
$PEXTMIN
 10
1.0000000000000000E+020
 20
1.0000000000000000E+020
 30
1.0000000000000000E+020
  9
$PEXTMAX
 10
-1.0000000000000000E+020
 20
-1.0000000000000000E+020
 30
-1.0000000000000000E+020
  9
$PLIMMIN
 10
0.0
 20
0.0
  9
$PLIMMAX
 10
12.0
 20
9.0
  9
$UNITMODE
 70
     0
  9
$VISRETAIN
 70
     0
  9
$PLINEGEN
 70
     0
  9
$PSLTSCALE
 70
     0
  0
ENDSEC
  0
SECTION
  2
TABLES
  0
TABLE
  2
VPORT
 70
     1
  0
VPORT
  2
*ACTIVE
 70
     0
 10
0.0
 20
0.0
 11
1.0
 21
1.0
 12
301.70802285723408
 22
133.51897435202409
 13
0.0
 23
0.0
 14
10.0
 24
10.0
 15
10.0
 25
10.0
 16
0.0
 26
0.0
 36
1.0
 17
0.0
 27
0.0
 37
0.0
 40
275.16040338692602
 41
2.4148802017654472
 42
50.0
 43
0.0
 44
0.0
 50
0.0
 51
0.0
 71
     0
 72
   500
 73
     1
 74
     0
 75
     0
 76
     0
 77
     0
 78
     2
  0
ENDTAB
  0
TABLE
  2
LTYPE
 70
     9
  0
LTYPE
  2
CONTINUOUS
 70
     0
  3
Solid Line
 72
    65
 73
     0
 40
0.0
  0
LTYPE
  2
CENTER
 70
     0
  3
____ _ ____ _ ____ _ ____ _ ____ _ ____ _ ____
 72
    65
 73
     4
 40
2.0
 49
1.25
 49
-0.25
 49
0.25
 49
-0.25
  0
LTYPE
  2
HIDDEN
 70
     0
  3
_ _ _ _ _ _ _ _ _ _ _ _ _ _ _ _ _ _ _ _ _ _ _
 72
    65
 73
     2
 40
0.375
 49
0.25
 49
-0.125
  0
LTYPE
  2
PHANTOM
 70
     0
  3
_____ _ _ _____ _ _ _____ _ _ _____ _ _ ____
 72
    65
 73
     6
 40
2.5
 49
1.25
 49
-0.25
 49
0.25
 49
-0.25
 49
0.25
 49
-0.25
  0
LTYPE
  2
PHANTOM2
 70
     0
  3
Phantom (.5x) ___ _ _ ___ _ _ ___ _ _ ___ _ _
 72
    65
 73
     6
 40
1.25
 49
0.625
 49
-0.125
 49
0.125
 49
-0.125
 49
0.125
 49
-0.125
  0
LTYPE
  2
CENTER2
 70
     0
  3
Center (.5x) ___ _ ___ _ ___ _ ___ _ ___ _ ___
 72
    65
 73
     4
 40
1.125
 49
0.75
 49
-0.125
 49
0.125
 49
-0.125
  0
LTYPE
  2
HIDDEN2
 70
     0
  3
Hidden (.5x) _ _ _ _ _ _ _ _ _ _ _ _ _ _ _ _ _
 72
    65
 73
     2
 40
0.1875
 49
0.125
 49
-0.0625
  0
LTYPE
  2
ACANSTGB
 70
     0
  3
__ . . __ . .
 72
    65
 73
     6
 40
0.35433070866
 49
0.15748031496
 49
-0.03937007874
 49
0.03937007874
 49
-0.03937007874
 49
0.03937007874
 49
-0.03937007874
  0
LTYPE
  2
ACANSTGL
 70
     0
  3
_ _ _ _ _
 72
    65
 73
     2
 40
0.11811023622
 49
0.07874015748
 49
-0.03937007874
  0
ENDTAB
  0
TABLE
  2
LAYER
 70
     5
  0
LAYER
  2
0
 70
     0
 62
     7
  6
CONTINUOUS
  0
LAYER
  2
1
 70
     0
 62
     1
  6
CENTER
  0
LAYER
  2
2
 70
     0
 62
     2
  6
HIDDEN
  0
LAYER
  2
3
 70
     0
 62
     3
  6
CONTINUOUS
  0
LAYER
  2
5
 70
     0
 62
     3
  6
PHANTOM
  0
ENDTAB
  0
TABLE
  2
STYLE
 70
     4
  0
STYLE
  2
STANDARD
 70
     0
 40
0.0
 41
1.0
 50
0.0
 71
     0
 42
0.2
  3
TXT
  4
BIGFONT
  0
STYLE
  2
STANDARD1
 70
     0
 40
0.0
 41
1.0
 50
0.0
 71
     0
 42
3.0
  3
txt
  4

  0
STYLE
  2
ACANSTS
 70
     0
 40
1.0
 41
1.0
 50
0.0
 71
     0
 42
0.2
  3
romans.shx
  4
extfont.shx
  0
STYLE
  2
ACANSGDT
 70
     0
 40
0.0
 41
1.0
 50
0.0
 71
     0
 42
0.2
  3
amgdt.shx
  4

  0
ENDTAB
  0
TABLE
  2
VIEW
 70
     1
  0
VIEW
  2
ALL
 70
     0
 40
270.0
 10
237.42857142857139
 20
135.0
 41
0.0
 11
0.0
 21
0.0
 31
1.0
 12
0.0
 22
0.0
 32
0.0
 42
0.0
 43
0.0
 44
0.0
 50
0.0
 71
     0
  0
ENDTAB
  0
TABLE
  2
UCS
 70
     0
  0
ENDTAB
  0
TABLE
  2
APPID
 70
     9
  0
APPID
  2
ACAD
 70
     0
  0
APPID
  2
ACAD_MLEADERVER
 70
     0
  0
APPID
  2
MCAD_NO_VIS
 70
     0
  0
APPID
  2
ACAD_TEMP_GRAPHIC
 70
     0
  0
APPID
  2
ACATTRIBSERVICES
 70
     0
  0
APPID
  2
DESIGNERASSEMBLIES
 70
     0
  0
APPID
  2
ACAD_DSTYLE_DIMJAG
 70
     0
  0
APPID
  2
ACAD_DSTYLE_DIMBREAK
 70
     0
  0
APPID
  2
ACAD_NAV_VCDISPLAY
 70
     0
  0
ENDTAB
  0
TABLE
  2
DIMSTYLE
 70
     7
  0
DIMSTYLE
  2
STANDARD
 70
     0
  3

  4

  5

  6

  7

 40
1.0
 41
0.18
 42
0.0625
 43
0.38
 44
0.18
 45
0.0
 46
0.0
 47
0.0
 48
0.0
140
0.18
141
0.09
142
0.0
143
25.399999999999999
144
1.0
145
0.0
146
1.0
147
0.09
 71
     0
 72
     0
 73
     1
 74
     1
 75
     0
 76
     0
 77
     0
 78
     0
170
     0
171
     2
172
     0
173
     0
174
     0
175
     0
176
     0
177
     0
178
     0
  0
DIMSTYLE
  2
AM_ANSI
 70
     0
  3

  4
mm
  5

  6

  7

 40
1.0
 41
0.12
 42
0.05
 43
0.5
 44
0.1
 45
0.0
 46
0.0
 47
0.1
 48
0.1
140
0.12
141
0.0
142
0.0
143
25.399999999999999
144
1.0
145
0.0
146
0.71
147
0.06
 71
     0
 72
     0
 73
     1
 74
     1
 75
     0
 76
     0
 77
     0
 78
     7
170
     0
171
     2
172
     0
173
     0
174
     0
175
     0
176
   256
177
   256
178
     2
  0
DIMSTYLE
  2
AM_ANSI$3
 70
     0
  3

  4
mm
  5

  6

  7

 40
1.0
 41
0.12
 42
0.05
 43
0.5
 44
0.1
 45
0.0
 46
0.0
 47
0.1
 48
0.1
140
0.12
141
0.0
142
0.0
143
25.399999999999999
144
1.0
145
0.0
146
0.71
147
0.06
 71
     0
 72
     0
 73
     1
 74
     1
 75
     0
 76
     0
 77
     0
 78
     7
170
     0
171
     2
172
     0
173
     0
174
     0
175
     0
176
   256
177
   256
178
     2
  0
DIMSTYLE
  2
AM_ANSI$4
 70
     0
  3

  4
mm
  5

  6

  7

 40
1.0
 41
0.12
 42
0.05
 43
0.5
 44
0.1
 45
0.0
 46
0.0
 47
0.1
 48
0.1
140
0.12
141
0.0
142
0.0
143
25.399999999999999
144
1.0
145
0.0
146
0.71
147
0.06
 71
     0
 72
     0
 73
     1
 74
     1
 75
     0
 76
     0
 77
     0
 78
     7
170
     0
171
     2
172
     0
173
     0
174
     0
175
     0
176
   256
177
   256
178
     2
  0
DIMSTYLE
  2
AM_ANSI$7
 70
     0
  3

  4
mm
  5

  6

  7

 40
1.0
 41
0.12
 42
0.05
 43
0.5
 44
0.1
 45
0.0
 46
0.0
 47
0.1
 48
0.1
140
0.12
141
0.0
142
0.0
143
25.399999999999999
144
1.0
145
0.0
146
0.71
147
0.06
 71
     0
 72
     0
 73
     1
 74
     1
 75
     0
 76
     0
 77
     0
 78
     7
170
     0
171
     2
172
     0
173
     0
174
     0
175
     0
176
   256
177
   256
178
     2
  0
DIMSTYLE
  2
AM_ANSI$SF
 70
     0
  3

  4
mm
  5

  6

  7

 40
1.0
 41
0.12
 42
0.05
 43
0.5
 44
0.1
 45
0.0
 46
0.0
 47
0.1
 48
0.1
140
0.12
141
0.0
142
0.0
143
25.399999999999999
144
1.0
145
0.0
146
0.71
147
0.06
 71
     0
 72
     0
 73
     1
 74
     1
 75
     1
 76
     1
 77
     0
 78
     7
170
     0
171
     2
172
     0
173
     0
174
     0
175
     0
176
   256
177
   256
178
     2
  0
DIMSTYLE
  2
AM_ANSI$SH
 70
     0
  3

  4
mm
  5

  6
GENAXEH
  7

 40
1.0
 41
0.12
 42
0.05
 43
0.5
 44
0.1
 45
0.0
 46
0.0
 47
0.1
 48
0.1
140
0.12
141
0.0
142
0.0
143
25.399999999999999
144
1.0
145
0.0
146
0.71
147
0.06
 71
     0
 72
     0
 73
     1
 74
     1
 75
     1
 76
     1
 77
     0
 78
     7
170
     0
171
     2
172
     0
173
     1
174
     0
175
     0
176
   256
177
   256
178
     2
  0
ENDTAB
  0
ENDSEC
  0
SECTION
  2
BLOCKS
  0
BLOCK
  8
0
  2
$MODEL_SPACE
 70
     0
 10
0.0
 20
0.0
 30
0.0
  3
$MODEL_SPACE
  1

  0
ENDBLK
  5
1B7
  8
0
  0
BLOCK
 67
     1
  8
0
  2
$PAPER_SPACE
 70
     0
 10
0.0
 20
0.0
 30
0.0
  3
$PAPER_SPACE
  1

  0
ENDBLK
  5
1B5
 67
     1
  8
0
  0
BLOCK
  8
0
  2
*U0
 70
     1
 10
0.0
 20
0.0
 30
0.0
  3
*U0
  1

  0
ENDBLK
  5
318
  8
0
  0
BLOCK
  8
0
  2
GENAXEH
 70
     0
 10
0.0
 20
0.0
 30
0.0
  3
GENAXEH
  1

  0
LINE
  5
342
  8
0
 10
-1.0
 20
0.0
 30
0.0
 11
1.0
 21
0.0
 31
0.0
  0
ENDBLK
  5
344
  8
0
  0
ENDSEC
  0
SECTION
  2
ENTITIES
  0
LINE
  5
38
  8
1
 10
185.0
 20
97.0
 30
0.0
 11
185.0
 21
174.0
 31
0.0
  0
LINE
  5
39
  8
1
 10
135.0
 20
102.0
 30
0.0
 11
135.0
 21
149.00000000000031
 31
0.0
  0
LINE
  5
3A
  8
0
 10
131.0
 20
107.0
 30
0.0
 11
139.0
 21
107.0
 31
0.0
  0
LINE
  5
3B
  8
0
 10
140.0
 20
108.0
 30
0.0
 11
140.0
 21
110.39999999999981
 31
0.0
  0
LINE
  5
3C
  8
3
 10
139.4585000000001
 20
107.4585000000001
 30
0.0
 11
139.4585000000001
 21
110.39999999999981
 31
0.0
  0
LINE
  5
3D
  8
3
 10
130.54149999999979
 20
107.4585000000001
 30
0.0
 11
130.54149999999979
 21
110.39999999999991
 31
0.0
  0
LINE
  5
3E
  8
0
 10
130.0
 20
108.0
 30
0.0
 11
130.0
 21
110.40000000000001
 31
0.0
  0
LINE
  5
3F
  8
0
 10
126.0
 20
121.0
 30
0.0
 11
144.0
 21
121.0
 31
0.0
  0
LINE
  5
40
  8
0
 10
140.0
 20
108.0
 30
0.0
 11
139.0
 21
107.0
 31
0.0
  0
LINE
  5
41
  8
0
 10
131.0
 20
107.0
 30
0.0
 11
130.0
 21
108.0
 31
0.0
  0
LINE
  5
42
  8
0
 10
140.0
 20
108.0
 30
0.0
 11
130.0
 21
108.0
 31
0.0
  0
LINE
  5
43
  8
0
 10
130.0
 20
119.0
 30
0.0
 11
140.0
 21
119.0
 31
0.0
  0
LINE
  5
44
  8
3
 10
139.4585000000001
 20
119.0
 30
0.0
 11
140.0
 21
121.0
 31
0.0
  0
LINE
  5
45
  8
3
 10
130.54149999999979
 20
119.0
 30
0.0
 11
130.0
 21
121.0
 31
0.0
  0
LINE
  5
46
  8
0
 10
140.0
 20
135.0
 30
0.0
 11
142.0
 21
135.0
 31
0.0
  0
LINE
  5
47
  8
0
 10
144.0
 20
121.0
 30
0.0
 11
144.0
 21
128.0
 31
0.0
  0
LINE
  5
48
  8
0
 10
129.84999999999999
 20
123.5
 30
0.0
 11
140.15000000000001
 21
123.5
 31
0.0
  0
LINE
  5
49
  8
0
 10
140.15000000000001
 20
123.5
 30
0.0
 11
140.15000000000001
 21
135.0
 31
0.0
  0
LINE
  5
4A
  8
0
 10
142.0
 20
135.0
 30
0.0
 11
144.0
 21
133.0
 31
0.0
  0
LINE
  5
4B
  8
0
 10
129.84999999999999
 20
123.5
 30
0.0
 11
129.84999999999999
 21
135.0
 31
0.0
  0
LINE
  5
4C
  8
1
 10
120.5
 20
130.0
 30
0.0
 11
149.5
 21
130.0
 31
0.0
  0
ARC
  5
4D
  8
0
 10
135.0
 20
130.0
 30
0.0
 40
5.0
 50
203.57817847820181
 51
258.4630308141555
  0
LINE
  5
4E
  8
0
 10
140.0
 20
132.0
 30
0.0
 11
140.0
 21
148.99999999999969
 31
0.0
  0
LINE
  5
4F
  8
0
 10
140.0
 20
132.0
 30
0.0
 11
140.15000000000001
 21
132.0
 31
0.0
  0
LINE
  5
50
  8
0
 10
139.58257569495549
 20
128.0
 30
0.0
 11
140.15000000000001
 21
128.0
 31
0.0
  0
ARC
  5
51
  8
0
 10
152.77496438739121
 20
130.0
 30
0.0
 40
8.9999999999991367
 50
167.16041159309461
 51
192.83958840690539
  0
ARC
  5
52
  8
0
 10
144.5825756949541
 20
130.0
 30
0.0
 40
4.9999999999984057
 50
156.42182152179009
 51
180.0
  0
ARC
  5
53
  8
0
 10
135.5000000000008
 20
130.0
 30
0.0
 40
8.9999999999991367
 50
347.16041159309458
 51
12.83958840690542
  0
LINE
  5
54
  8
0
 10
144.0
 20
132.0
 30
0.0
 11
144.0
 21
133.0
 31
0.0
  0
LINE
  5
55
  8
0
 10
144.0
 20
128.0
 30
0.0
 11
144.27496438739209
 21
128.0
 31
0.0
  0
LINE
  5
56
  8
0
 10
144.0
 20
132.0
 30
0.0
 11
144.27496438739209
 21
132.0
 31
0.0
  0
LINE
  5
57
  8
0
 10
139.58257569495549
 20
130.0
 30
0.0
 11
139.58257569495549
 21
128.0
 31
0.0
  0
LINE
  5
58
  8
0
 10
144.27496438739209
 20
132.0
 30
0.0
 11
144.274964387392
 21
128.0
 31
0.0
  0
CIRCLE
  5
59
  8
0
 10
135.0
 20
130.0
 30
0.0
 40
1.0
  0
ARC
  5
5A
  8
0
 10
135.0
 20
123.9829874793576
 30
0.0
 40
1.5
 50
131.810359384164
 51
180.0000000000006
  0
LINE
  5
5B
  8
0
 10
136.0
 20
125.1010214681079
 30
0.0
 11
133.999999131881
 21
125.1010206916377
 31
0.0
  0
LINE
  5
5C
  8
0
 10
136.5
 20
123.9829874793576
 30
0.0
 11
136.5
 21
123.5
 31
0.0
  0
LINE
  5
5D
  8
0
 10
133.5
 20
123.9829874793576
 30
0.0
 11
133.5
 21
123.5
 31
0.0
  0
ARC
  5
5E
  8
0
 10
135.0
 20
123.9829874793576
 30
0.0
 40
1.5
 50
359.99999999999949
 51
48.189685104283022
  0
ARC
  5
5F
  8
0
 10
135.0
 20
130.0
 30
0.0
 40
5.0
 50
281.53696918585922
 51
336.42182152179822
  0
ARC
  5
60
  8
2
 10
135.0
 20
123.9829874793576
 30
0.0
 40
1.499999999999998
 50
48.18964061579829
 51
131.81035938416389
  0
LINE
  5
61
  8
0
 10
125.7250356126079
 20
132.0
 30
0.0
 11
125.725035612608
 21
128.0
 31
0.0
  0
LINE
  5
62
  8
0
 10
130.41742430504439
 20
130.0
 30
0.0
 11
130.41742430504439
 21
128.0
 31
0.0
  0
LINE
  5
63
  8
0
 10
126.0
 20
132.0
 30
0.0
 11
125.7250356126079
 21
132.0
 31
0.0
  0
LINE
  5
64
  8
0
 10
126.0
 20
128.0
 30
0.0
 11
125.7250356126079
 21
128.0
 31
0.0
  0
LINE
  5
65
  8
0
 10
126.0
 20
132.0
 30
0.0
 11
126.0
 21
133.0
 31
0.0
  0
ARC
  5
66
  8
0
 10
134.4999999999992
 20
130.0
 30
0.0
 40
8.9999999999991367
 50
167.16041159309461
 51
192.83958840690539
  0
ARC
  5
67
  8
0
 10
125.4174243050459
 20
130.0
 30
0.0
 40
4.9999999999984057
 50
0.0
 51
23.578178478209828
  0
ARC
  5
68
  8
0
 10
117.22503561260871
 20
130.0
 30
0.0
 40
8.9999999999991367
 50
347.16041159309458
 51
12.839588406905399
  0
LINE
  5
69
  8
0
 10
130.41742430504439
 20
128.0
 30
0.0
 11
129.84999999999999
 21
128.0
 31
0.0
  0
LINE
  5
6A
  8
0
 10
130.0
 20
132.0
 30
0.0
 11
129.84999999999999
 21
132.0
 31
0.0
  0
LINE
  5
6B
  8
0
 10
128.0
 20
135.0
 30
0.0
 11
126.0
 21
133.0
 31
0.0
  0
LINE
  5
6C
  8
0
 10
130.0
 20
135.0
 30
0.0
 11
128.0
 21
135.0
 31
0.0
  0
LINE
  5
6D
  8
0
 10
130.0
 20
132.0
 30
0.0
 11
130.0
 21
149.00000000000031
 31
0.0
  0
LINE
  5
6E
  8
0
 10
35.0
 20
135.0
 30
0.0
 11
35.0
 21
159.0
 31
0.0
  0
ARC
  5
6F
  8
2
 10
40.0
 20
159.0
 30
0.0
 40
5.0
 50
180.0
 51
0.0
  0
ARC
  5
70
  8
0
 10
40.0
 20
159.0
 30
0.0
 40
5.0
 50
0.0
 51
180.0
  0
LINE
  5
71
  8
0
 10
45.0
 20
134.78937741781689
 30
0.0
 11
45.0
 21
159.0
 31
0.0
  0
LINE
  5
72
  8
0
 10
44.741044188783818
 20
135.0
 30
0.0
 11
47.19999999999991
 21
133.0
 31
0.0
  0
LINE
  5
73
  8
0
 10
47.199999999999903
 20
123.5
 30
0.0
 11
48.999999999999979
 21
123.5
 31
0.0
  0
LINE
  5
74
  8
0
 10
33.0
 20
135.0
 30
0.0
 11
44.741044188783839
 21
135.0
 31
0.0
  0
LINE
  5
75
  8
1
 10
40.0
 20
97.0
 30
0.0
 11
40.0
 21
168.70558239398821
 31
0.0
  0
LINE
  5
76
  8
0
 10
124.5
 20
118.0
 30
0.0
 11
145.5
 21
118.0
 31
0.0
  0
LINE
  5
77
  8
0
 10
145.5
 20
118.0
 30
0.0
 11
145.5
 21
116.0
 31
0.0
  0
LINE
  5
78
  8
0
 10
145.5
 20
116.0
 30
0.0
 11
124.5
 21
116.0
 31
0.0
  0
LINE
  5
79
  8
0
 10
124.5
 20
116.0
 30
0.0
 11
124.5
 21
118.0
 31
0.0
  0
ARC
  5
7A
  8
0
 10
142.36121593216771
 20
114.8892362396214
 30
0.0
 40
4.3448986723233833
 50
235.6157525319949
 51
295.6157525321085
  0
ARC
  5
7B
  8
0
 10
135.00000000000051
 20
126.78514818876459
 30
0.0
 40
16.24081062146659
 50
252.41204622602839
 51
287.58795377397172
  0
LINE
  5
7C
  8
0
 10
144.8149545762235
 20
111.303526945852
 30
0.0
 11
143.25
 21
110.39999999999981
 31
0.0
  0
LINE
  5
7D
  8
0
 10
144.8149545762235
 20
115.09647305414801
 30
0.0
 11
143.25
 21
116.0000000000002
 31
0.0
  0
ARC
  5
7E
  8
0
 10
142.36121593216771
 20
111.51076376037859
 30
0.0
 40
4.3448986723233833
 50
64.384247467891413
 51
124.384247468005
  0
ARC
  5
7F
  8
0
 10
135.00000000000051
 20
99.614851811235383
 30
0.0
 40
16.24081062146659
 50
72.412046226028394
 51
107.58795377397171
  0
LINE
  5
80
  8
0
 10
144.8149545762235
 20
111.303526945852
 30
0.0
 11
144.8149545762235
 21
115.09647305414791
 31
0.0
  0
LINE
  5
81
  8
0
 10
139.9074772881128
 20
111.303526945852
 30
0.0
 11
139.9074772881122
 21
115.09647305414821
 31
0.0
  0
LINE
  5
82
  8
0
 10
130.0925227118872
 20
111.303526945852
 30
0.0
 11
130.0925227118878
 21
115.09647305414821
 31
0.0
  0
LINE
  5
83
  8
0
 10
125.1850454237764
 20
111.303526945852
 30
0.0
 11
125.1850454237764
 21
115.09647305414791
 31
0.0
  0
ARC
  5
84
  8
0
 10
127.6387840678322
 20
111.51076376037859
 30
0.0
 40
4.3448986723233833
 50
55.615752531994879
 51
115.6157525321085
  0
LINE
  5
85
  8
0
 10
125.1850454237764
 20
115.09647305414801
 30
0.0
 11
126.75
 21
116.0000000000002
 31
0.0
  0
LINE
  5
86
  8
0
 10
125.1850454237764
 20
111.303526945852
 30
0.0
 11
126.75
 21
110.39999999999981
 31
0.0
  0
ARC
  5
87
  8
0
 10
127.6387840678322
 20
114.8892362396214
 30
0.0
 40
4.3448986723233833
 50
244.38424746789141
 51
304.38424746800513
  0
LINE
  5
88
  8
0
 10
143.25
 20
110.39999999999981
 30
0.0
 11
126.7499999999997
 21
110.40000000000001
 31
0.0
  0
LINE
  5
89
  8
3
 10
139.4585000000001
 20
118.0
 30
0.0
 11
139.4585000000001
 21
119.0
 31
0.0
  0
LINE
  5
8A
  8
3
 10
130.54149999999979
 20
118.0
 30
0.0
 11
130.54149999999979
 21
119.0
 31
0.0
  0
LINE
  5
8B
  8
0
 10
140.0
 20
118.0
 30
0.0
 11
140.0
 21
121.0
 31
0.0
  0
LINE
  5
8C
  8
0
 10
130.0
 20
118.0
 30
0.0
 11
130.0
 21
121.0
 31
0.0
  0
LINE
  5
8D
  8
0
 10
35.0
 20
118.0
 30
0.0
 11
35.0
 21
121.0
 31
0.0
  0
LINE
  5
8E
  8
0
 10
45.0
 20
118.0
 30
0.0
 11
45.0
 21
121.0
 31
0.0
  0
LINE
  5
8F
  8
3
 10
35.541499999999843
 20
118.0
 30
0.0
 11
35.541499999999843
 21
119.0
 31
0.0
  0
LINE
  5
90
  8
3
 10
44.458500000000129
 20
118.0
 30
0.0
 11
44.458500000000129
 21
119.0
 31
0.0
  0
LINE
  5
91
  8
0
 10
29.5
 20
116.0
 30
0.0
 11
29.5
 21
118.0
 31
0.0
  0
LINE
  5
92
  8
0
 10
50.5
 20
116.0
 30
0.0
 11
29.5
 21
116.0
 31
0.0
  0
LINE
  5
93
  8
0
 10
50.5
 20
118.0
 30
0.0
 11
50.5
 21
116.0
 31
0.0
  0
LINE
  5
94
  8
0
 10
29.5
 20
118.0
 30
0.0
 11
50.5
 21
118.0
 31
0.0
  0
LINE
  5
95
  8
3
 10
35.541499999999843
 20
119.0
 30
0.0
 11
35.0
 21
121.0
 31
0.0
  0
LINE
  5
96
  8
3
 10
44.458500000000129
 20
119.0
 30
0.0
 11
45.0
 21
121.0
 31
0.0
  0
LINE
  5
97
  8
0
 10
35.0
 20
119.0
 30
0.0
 11
45.0
 21
119.0
 31
0.0
  0
LINE
  5
98
  8
0
 10
45.0
 20
108.0
 30
0.0
 11
35.0
 21
108.0
 31
0.0
  0
LINE
  5
99
  8
0
 10
36.0
 20
107.0
 30
0.0
 11
35.0
 21
108.0
 31
0.0
  0
LINE
  5
9A
  8
0
 10
45.0
 20
108.0
 30
0.0
 11
44.0
 21
107.0
 31
0.0
  0
LINE
  5
9B
  8
0
 10
31.0
 20
121.0
 30
0.0
 11
49.0
 21
121.0
 31
0.0
  0
LINE
  5
9C
  8
0
 10
35.0
 20
108.0
 30
0.0
 11
35.0
 21
110.40000000000001
 31
0.0
  0
LINE
  5
9D
  8
3
 10
35.541499999999843
 20
107.4585000000001
 30
0.0
 11
35.541499999999843
 21
110.39999999999991
 31
0.0
  0
LINE
  5
9E
  8
3
 10
44.458500000000129
 20
107.4585000000001
 30
0.0
 11
44.458500000000129
 21
110.39999999999981
 31
0.0
  0
LINE
  5
9F
  8
0
 10
45.0
 20
108.0
 30
0.0
 11
45.0
 21
110.39999999999981
 31
0.0
  0
LINE
  5
A0
  8
0
 10
36.0
 20
107.0
 30
0.0
 11
44.0
 21
107.0
 31
0.0
  0
ARC
  5
A1
  8
0
 10
35.749999999999972
 20
122.8198442057145
 30
0.0
 40
12.275506638416489
 50
249.7438419996065
 51
290.2561580003935
  0
LINE
  5
A2
  8
0
 10
31.499999999999911
 20
110.5443375672979
 30
0.0
 11
31.750000000000998
 21
110.39999999999991
 31
0.0
  0
LINE
  5
A3
  8
0
 10
31.499999999999911
 20
115.8556624327025
 30
0.0
 11
31.750000000000998
 21
116.0000000000005
 31
0.0
  0
ARC
  5
A4
  8
0
 10
35.749999999999972
 20
103.5801557942861
 30
0.0
 40
12.275506638416489
 50
69.743841999606474
 51
110.2561580003935
  0
LINE
  5
A5
  8
0
 10
31.499999999999911
 20
110.5443375672979
 30
0.0
 11
31.499999999999972
 21
115.8556624327025
 31
0.0
  0
LINE
  5
A6
  8
0
 10
39.999999999999972
 20
111.3035269458523
 30
0.0
 11
39.999999999999972
 21
115.0964730541484
 31
0.0
  0
LINE
  5
A7
  8
0
 10
48.500000000000028
 20
110.5443375672979
 30
0.0
 11
48.499999999999972
 21
115.8556624327025
 31
0.0
  0
LINE
  5
A8
  8
0
 10
48.500000000000028
 20
115.8556624327025
 30
0.0
 11
48.249999999998948
 21
116.0000000000005
 31
0.0
  0
ARC
  5
A9
  8
0
 10
44.249999999999972
 20
103.5801557942861
 30
0.0
 40
12.275506638416489
 50
69.743841999606474
 51
110.2561580003935
  0
LINE
  5
AA
  8
0
 10
48.500000000000028
 20
110.5443375672979
 30
0.0
 11
48.249999999998948
 21
110.39999999999991
 31
0.0
  0
ARC
  5
AB
  8
0
 10
44.249999999999972
 20
122.8198442057145
 30
0.0
 40
12.275506638416489
 50
249.7438419996065
 51
290.2561580003935
  0
LINE
  5
AC
  8
0
 10
31.750000000001052
 20
110.39999999999991
 30
0.0
 11
48.249999999998948
 21
110.39999999999991
 31
0.0
  0
LINE
  5
AD
  8
0
 10
240.0
 20
118.0
 30
0.0
 11
240.0
 21
121.0
 31
0.0
  0
LINE
  5
AE
  8
0
 10
230.0
 20
118.0
 30
0.0
 11
230.0
 21
121.0
 31
0.0
  0
LINE
  5
AF
  8
3
 10
239.45850000000021
 20
118.0
 30
0.0
 11
239.45850000000021
 21
119.0
 31
0.0
  0
LINE
  5
B0
  8
3
 10
230.5414999999999
 20
118.0
 30
0.0
 11
230.5414999999999
 21
119.0
 31
0.0
  0
LINE
  5
B1
  8
0
 10
226.75
 20
110.39999999999981
 30
0.0
 11
243.25000000000031
 21
110.40000000000001
 31
0.0
  0
ARC
  5
B2
  8
0
 10
242.36121593216771
 20
114.8892362396214
 30
0.0
 40
4.3448986723233833
 50
235.61575253199501
 51
295.61575253210862
  0
LINE
  5
B3
  8
0
 10
244.81495457622361
 20
111.303526945852
 30
0.0
 11
243.25
 21
110.39999999999981
 31
0.0
  0
LINE
  5
B4
  8
0
 10
244.81495457622361
 20
115.09647305414801
 30
0.0
 11
243.25
 21
116.0000000000002
 31
0.0
  0
ARC
  5
B5
  8
0
 10
242.36121593216771
 20
111.51076376037859
 30
0.0
 40
4.3448986723233833
 50
64.384247467891484
 51
124.3842474680051
  0
LINE
  5
B6
  8
0
 10
244.81495457622361
 20
111.303526945852
 30
0.0
 11
244.81495457622361
 21
115.09647305414791
 31
0.0
  0
LINE
  5
B7
  8
0
 10
239.9074772881128
 20
111.303526945852
 30
0.0
 11
239.9074772881122
 21
115.09647305414821
 31
0.0
  0
LINE
  5
B8
  8
0
 10
230.0925227118872
 20
111.303526945852
 30
0.0
 11
230.0925227118878
 21
115.09647305414821
 31
0.0
  0
LINE
  5
B9
  8
0
 10
225.18504542377639
 20
111.303526945852
 30
0.0
 11
225.18504542377639
 21
115.09647305414791
 31
0.0
  0
ARC
  5
BA
  8
0
 10
234.99999999999949
 20
99.614851811235383
 30
0.0
 40
16.24081062146659
 50
72.412046226028295
 51
107.58795377397161
  0
ARC
  5
BB
  8
0
 10
227.63878406783229
 20
111.51076376037859
 30
0.0
 40
4.3448986723233833
 50
55.615752531994993
 51
115.6157525321086
  0
LINE
  5
BC
  8
0
 10
225.18504542377639
 20
115.09647305414801
 30
0.0
 11
226.75
 21
116.0000000000002
 31
0.0
  0
LINE
  5
BD
  8
0
 10
225.18504542377639
 20
111.303526945852
 30
0.0
 11
226.75
 21
110.39999999999981
 31
0.0
  0
ARC
  5
BE
  8
0
 10
234.99999999999949
 20
126.78514818876459
 30
0.0
 40
16.24081062146659
 50
252.41204622602839
 51
287.58795377397172
  0
ARC
  5
BF
  8
0
 10
227.63878406783229
 20
114.8892362396214
 30
0.0
 40
4.3448986723233833
 50
244.3842474678915
 51
304.38424746800513
  0
LINE
  5
C0
  8
0
 10
245.5
 20
116.0
 30
0.0
 11
245.5
 21
118.0
 31
0.0
  0
LINE
  5
C1
  8
0
 10
224.5
 20
116.0
 30
0.0
 11
245.5
 21
116.0
 31
0.0
  0
LINE
  5
C2
  8
0
 10
224.5
 20
118.0
 30
0.0
 11
224.5
 21
116.0
 31
0.0
  0
LINE
  5
C3
  8
0
 10
245.5
 20
118.0
 30
0.0
 11
224.5
 21
118.0
 31
0.0
  0
LINE
  5
C4
  8
0
 10
240.0
 20
132.0
 30
0.0
 11
240.0
 21
149.0
 31
0.0
  0
LINE
  5
C5
  8
0
 10
240.0
 20
135.0
 30
0.0
 11
242.0
 21
135.0
 31
0.0
  0
LINE
  5
C6
  8
0
 10
242.0
 20
135.0
 30
0.0
 11
244.0
 21
133.0
 31
0.0
  0
LINE
  5
C7
  8
0
 10
240.0
 20
132.0
 30
0.0
 11
240.15000000000001
 21
132.0
 31
0.0
  0
LINE
  5
C8
  8
0
 10
239.58257569495549
 20
128.0
 30
0.0
 11
240.15000000000001
 21
128.0
 31
0.0
  0
ARC
  5
C9
  8
0
 10
252.77496438739129
 20
130.0
 30
0.0
 40
8.9999999999991367
 50
167.16041159309461
 51
192.83958840690539
  0
ARC
  5
CA
  8
0
 10
244.5825756949541
 20
130.0
 30
0.0
 40
4.9999999999984057
 50
156.42182152179021
 51
180.0
  0
ARC
  5
CB
  8
0
 10
235.5000000000008
 20
130.0
 30
0.0
 40
8.9999999999991367
 50
347.16041159309458
 51
12.839588406905451
  0
LINE
  5
CC
  8
0
 10
244.0
 20
132.0
 30
0.0
 11
244.0
 21
133.0
 31
0.0
  0
LINE
  5
CD
  8
0
 10
244.0
 20
128.0
 30
0.0
 11
244.274964387392
 21
128.0
 31
0.0
  0
LINE
  5
CE
  8
0
 10
244.0
 20
132.0
 30
0.0
 11
244.274964387392
 21
132.0
 31
0.0
  0
LINE
  5
CF
  8
0
 10
239.58257569495549
 20
130.0
 30
0.0
 11
239.58257569495549
 21
128.0
 31
0.0
  0
LINE
  5
D0
  8
0
 10
244.274964387392
 20
132.0
 30
0.0
 11
244.274964387392
 21
128.0
 31
0.0
  0
ARC
  5
D2
  8
0
 10
235.0
 20
130.0
 30
0.0
 40
5.0
 50
203.57817847820181
 51
258.46303081414089
  0
LINE
  5
D6
  8
0
 10
234.0
 20
125.1010214681079
 30
0.0
 11
236.00000086811889
 21
125.1010206916377
 31
0.0
  0
LINE
  5
D8
  8
0
 10
225.72503561260791
 20
132.0
 30
0.0
 11
225.72503561260811
 21
128.0
 31
0.0
  0
LINE
  5
D9
  8
0
 10
230.41742430504439
 20
130.0
 30
0.0
 11
230.41742430504439
 21
128.0
 31
0.0
  0
LINE
  5
DA
  8
0
 10
226.0
 20
132.0
 30
0.0
 11
225.72503561260791
 21
132.0
 31
0.0
  0
LINE
  5
DB
  8
0
 10
226.0
 20
128.0
 30
0.0
 11
225.72503561260791
 21
128.0
 31
0.0
  0
LINE
  5
DC
  8
0
 10
226.0
 20
132.0
 30
0.0
 11
226.0
 21
133.0
 31
0.0
  0
ARC
  5
DD
  8
0
 10
234.4999999999992
 20
130.0
 30
0.0
 40
8.9999999999991367
 50
167.16041159309461
 51
192.83958840690539
  0
ARC
  5
DE
  8
0
 10
225.4174243050459
 20
130.0
 30
0.0
 40
4.9999999999984057
 50
0.0000000000000254
 51
23.57817847820986
  0
ARC
  5
DF
  8
0
 10
217.22503561260871
 20
130.0
 30
0.0
 40
8.9999999999991367
 50
347.16041159309458
 51
12.83958840690542
  0
LINE
  5
E0
  8
0
 10
230.41742430504439
 20
128.0
 30
0.0
 11
229.84999999999999
 21
128.0
 31
0.0
  0
LINE
  5
E1
  8
0
 10
230.0
 20
132.0
 30
0.0
 11
229.84999999999999
 21
132.0
 31
0.0
  0
LINE
  5
E2
  8
0
 10
230.0
 20
132.0
 30
0.0
 11
230.0
 21
149.0
 31
0.0
  0
ARC
  5
E3
  8
0
 10
235.0
 20
130.0
 30
0.0
 40
5.0
 50
281.53696918584461
 51
336.42182152179822
  0
LINE
  5
E4
  8
1
 10
249.5
 20
130.0
 30
0.0
 11
220.5
 21
130.0
 31
0.0
  0
LINE
  5
E5
  8
0
 10
240.15000000000001
 20
123.5
 30
0.0
 11
240.15000000000001
 21
135.0
 31
0.0
  0
LINE
  5
E6
  8
0
 10
228.0
 20
135.0
 30
0.0
 11
226.0
 21
133.0
 31
0.0
  0
LINE
  5
E7
  8
0
 10
229.84999999999999
 20
123.5
 30
0.0
 11
229.84999999999999
 21
135.0
 31
0.0
  0
LINE
  5
E8
  8
0
 10
240.15000000000001
 20
123.5
 30
0.0
 11
229.84999999999999
 21
123.5
 31
0.0
  0
LINE
  5
E9
  8
0
 10
226.0
 20
121.0
 30
0.0
 11
226.0
 21
128.0
 31
0.0
  0
LINE
  5
EA
  8
0
 10
230.0
 20
135.0
 30
0.0
 11
228.0
 21
135.0
 31
0.0
  0
LINE
  5
EB
  8
3
 10
239.45850000000021
 20
119.0
 30
0.0
 11
240.0
 21
121.0
 31
0.0
  0
LINE
  5
EC
  8
3
 10
230.5414999999999
 20
119.0
 30
0.0
 11
230.0
 21
121.0
 31
0.0
  0
LINE
  5
ED
  8
0
 10
240.0
 20
119.0
 30
0.0
 11
230.0
 21
119.0
 31
0.0
  0
LINE
  5
EE
  8
0
 10
230.0
 20
108.0
 30
0.0
 11
240.0
 21
108.0
 31
0.0
  0
LINE
  5
EF
  8
0
 10
239.0
 20
107.0
 30
0.0
 11
240.0
 21
108.0
 31
0.0
  0
LINE
  5
F0
  8
0
 10
230.0
 20
108.0
 30
0.0
 11
231.0
 21
107.0
 31
0.0
  0
LINE
  5
F1
  8
0
 10
244.0
 20
121.0
 30
0.0
 11
226.0
 21
121.0
 31
0.0
  0
LINE
  5
F2
  8
0
 10
240.0
 20
108.0
 30
0.0
 11
240.0
 21
110.40000000000001
 31
0.0
  0
LINE
  5
F3
  8
3
 10
239.45850000000021
 20
107.4585000000001
 30
0.0
 11
239.45850000000021
 21
110.39999999999991
 31
0.0
  0
LINE
  5
F4
  8
3
 10
230.5414999999999
 20
107.4585000000001
 30
0.0
 11
230.5414999999999
 21
110.39999999999981
 31
0.0
  0
LINE
  5
F5
  8
0
 10
230.0
 20
108.0
 30
0.0
 11
230.0
 21
110.39999999999981
 31
0.0
  0
LINE
  5
F6
  8
0
 10
239.0
 20
107.0
 30
0.0
 11
231.0
 21
107.0
 31
0.0
  0
LINE
  5
F7
  8
1
 10
235.0
 20
102.0
 30
0.0
 11
235.0
 21
149.0
 31
0.0
  0
LINE
  5
F8
  8
0
 10
145.0
 20
164.00000000000031
 30
0.0
 11
225.0
 21
164.0
 31
0.0
  0
LINE
  5
F9
  8
0
 10
225.0
 20
154.0
 30
0.0
 11
145.0
 21
153.99999999999969
 31
0.0
  0
ARC
  5
FA
  8
0
 10
225.0
 20
149.0
 30
0.0
 40
15.0
 50
0.0
 51
89.999999999999801
  0
ARC
  5
FB
  8
0
 10
145.0
 20
149.00000000000031
 30
0.0
 40
15.0
 50
89.999999999999801
 51
179.99999999999989
  0
ARC
  5
FC
  8
0
 10
145.0
 20
148.99999999999969
 30
0.0
 40
5.0
 50
90.000000000000185
 51
179.99999999999989
  0
ARC
  5
FD
  8
0
 10
225.0
 20
149.0
 30
0.0
 40
5.0
 50
0.0
 51
90.000000000000156
  0
LINE
  5
FE
  8
0
 10
31.0
 20
133.0
 30
0.0
 11
47.199999999999903
 21
133.0
 31
0.0
  0
LINE
  5
FF
  8
0
 10
126.0
 20
133.0
 30
0.0
 11
129.84999999999999
 21
133.0
 31
0.0
  0
LINE
  5
100
  8
0
 10
144.0
 20
133.0
 30
0.0
 11
140.15000000000001
 21
133.0
 31
0.0
  0
LINE
  5
101
  8
0
 10
226.00000000000011
 20
133.0
 30
0.0
 11
229.84999999999999
 21
133.0
 31
0.0
  0
LINE
  5
102
  8
0
 10
244.00000000000011
 20
133.0
 30
0.0
 11
240.15000000000009
 21
133.0
 31
0.0
  0
LINE
  5
103
  8
0
 10
47.199999999999903
 20
133.0
 30
0.0
 11
47.199999999999903
 21
123.5
 31
0.0
  0
LINE
  5
104
  8
0
 10
31.000000000000011
 20
133.0
 30
0.0
 11
31.000000000000011
 21
121.0
 31
0.0
  0
LINE
  5
105
  8
0
 10
33.0
 20
135.0
 30
0.0
 11
31.0
 21
133.0
 31
0.0
  0
LINE
  5
106
  8
0
 10
48.999999999999979
 20
123.5
 30
0.0
 11
48.999999999999979
 21
121.0
 31
0.0
  0
CIRCLE
  5
107
  8
0
 10
40.0
 20
130.0
 30
0.0
 40
2.0
  0
LINE
  5
108
  8
0
 10
126.0
 20
121.0
 30
0.0
 11
126.0
 21
128.0
 31
0.0
  0
LINE
  5
109
  8
0
 10
244.00000000000011
 20
121.0
 30
0.0
 11
244.00000000000011
 21
128.0
 31
0.0
  0
LINE
  5
10A
  8
1
 10
145.0
 20
159.00000000000031
 30
0.0
 11
225.0
 21
159.0
 31
0.0
  0
ARC
  5
10B
  8
1
 10
225.0
 20
149.0
 30
0.0
 40
10.0
 50
0.0
 51
89.999999999999801
  0
ARC
  5
10C
  8
1
 10
145.0
 20
149.00000000000031
 30
0.0
 40
10.0
 50
89.999999999999787
 51
179.99999999999989
  0
ARC
  5
10D
  8
5
 10
68.999999999999986
 20
130.0
 30
0.0
 40
5.0
 50
270.0
 51
90.0
  0
LINE
  5
10E
  8
5
 10
44.741044188783839
 20
135.0
 30
0.0
 11
68.999999999999986
 21
135.0
 31
0.0
  0
LINE
  5
10F
  8
5
 10
47.199999999999903
 20
125.0
 30
0.0
 11
68.999999999999986
 21
125.0
 31
0.0
  0
LINE
  5
110
  8
1
 10
30.0
 20
130.0
 30
0.0
 11
78.705582393988166
 21
130.0
 31
0.0
  0
LINE
  5
111
  8
0
 10
135.0
 20
231.9999999999998
 30
0.0
 11
235.0
 21
231.9999999999998
 31
0.0
  0
LINE
  5
112
  8
0
 10
235.0
 20
221.9999999999998
 30
0.0
 11
135.0
 21
221.9999999999998
 31
0.0
  0
LINE
  5
113
  8
1
 10
114.5
 20
226.9999999999998
 30
0.0
 11
255.5
 21
226.9999999999998
 31
0.0
  0
ARC
  5
114
  8
0
 10
135.0
 20
227.0
 30
0.0
 40
10.5
 50
28.436890148853688
 51
331.56310985114351
  0
ARC
  5
115
  8
0
 10
135.0
 20
227.0
 30
0.0
 40
5.0
 50
89.999969090092165
 51
270.0
  0
LINE
  5
116
  8
1
 10
135.0
 20
242.5
 30
0.0
 11
135.0
 21
211.5
 31
0.0
  0
ARC
  5
117
  8
0
 10
135.0
 20
226.9999999999998
 30
0.0
 40
7.0
 50
45.584691402802783
 51
222.6323931807411
  0
ARC
  5
118
  8
0
 10
135.0
 20
226.9999999999998
 30
0.0
 40
5.1500000000007073
 50
76.137567883535567
 51
180.0
  0
LINE
  5
119
  8
0
 10
129.8499999999994
 20
226.9999999999998
 30
0.0
 11
129.8499999999994
 21
219.6191125194872
 31
0.0
  0
LINE
  5
11A
  8
0
 10
140.1500000000006
 20
221.99999999999969
 30
0.0
 11
140.1500000000006
 21
219.6191125194872
 31
0.0
  0
ARC
  5
11B
  8
0
 10
134.4999999999992
 20
226.9999999999998
 30
0.0
 40
8.9999999999991367
 50
167.16041159309461
 51
192.83958840690539
  0
LINE
  5
11C
  8
0
 10
126.22503561260839
 20
224.9999999999998
 30
0.0
 11
125.7250356126079
 21
224.9999999999998
 31
0.0
  0
LINE
  5
11D
  8
0
 10
126.22503561260839
 20
228.9999999999998
 30
0.0
 11
125.7250356126079
 21
228.9999999999998
 31
0.0
  0
LINE
  5
11E
  8
0
 10
125.7250356126079
 20
228.9999999999998
 30
0.0
 11
125.725035612608
 21
224.9999999999998
 31
0.0
  0
ARC
  5
11F
  8
0
 10
135.0
 20
226.9999999999998
 30
0.0
 40
9.0
 50
33.748988595887063
 51
326.25101140410942
  0
ARC
  5
120
  8
0
 10
235.0
 20
226.9999999999998
 30
0.0
 40
9.0
 50
213.74898859589069
 51
146.251011404113
  0
LINE
  5
121
  8
0
 10
244.274964387392
 20
228.9999999999998
 30
0.0
 11
244.274964387392
 21
224.9999999999998
 31
0.0
  0
LINE
  5
122
  8
0
 10
243.77496438739161
 20
228.9999999999998
 30
0.0
 11
244.274964387392
 21
228.9999999999998
 31
0.0
  0
LINE
  5
123
  8
0
 10
243.77496438739161
 20
224.9999999999998
 30
0.0
 11
244.274964387392
 21
224.9999999999998
 31
0.0
  0
ARC
  5
124
  8
0
 10
235.5000000000008
 20
226.9999999999998
 30
0.0
 40
8.9999999999991367
 50
347.16041159309458
 51
12.839588406905451
  0
LINE
  5
125
  8
0
 10
229.8499999999994
 20
221.99999999999969
 30
0.0
 11
229.8499999999994
 21
219.6191125194872
 31
0.0
  0
LINE
  5
126
  8
0
 10
240.1500000000006
 20
226.9999999999998
 30
0.0
 11
240.1500000000006
 21
219.6191125194872
 31
0.0
  0
ARC
  5
127
  8
0
 10
235.0
 20
226.9999999999998
 30
0.0
 40
5.1500000000007073
 50
0.0000000000000254
 51
103.8624321164644
  0
ARC
  5
128
  8
0
 10
235.0
 20
226.9999999999998
 30
0.0
 40
7.0
 50
317.36760681925898
 51
134.4153085971972
  0
LINE
  5
129
  8
1
 10
235.0
 20
242.5
 30
0.0
 11
235.0
 21
211.5
 31
0.0
  0
ARC
  5
12A
  8
0
 10
235.0
 20
227.0
 30
0.0
 40
5.0
 50
270.00000000000011
 51
90.000030909907849
  0
ARC
  5
12B
  8
0
 10
235.0
 20
227.0
 30
0.0
 40
10.5
 50
208.43689014885661
 51
151.56310985114629
  0
LINE
  5
12C
  8
1
 10
185.0
 20
236.99999999999989
 30
0.0
 11
185.0
 21
216.9999999999998
 31
0.0
  0
LINE
  5
12D
  8
0
 10
144.23309265630971
 20
47.449275362318843
 30
0.0
 11
225.76690734369029
 21
47.449275362318843
 31
0.0
  0
LINE
  5
12E
  8
0
 10
144.23309265630971
 20
57.449275362318843
 30
0.0
 11
225.76690734369029
 21
57.449275362318843
 31
0.0
  0
CIRCLE
  5
12F
  8
0
 10
135.0
 20
52.449275362318843
 30
0.0
 40
10.5
  0
CIRCLE
  5
130
  8
3
 10
135.0
 20
52.449275362318893
 30
0.0
 40
5.0
  0
CIRCLE
  5
131
  8
0
 10
135.0
 20
52.449275362318893
 30
0.0
 40
4.1879999999999988
  0
LINE
  5
132
  8
0
 10
130.09252271188811
 20
43.94927536231895
 30
0.0
 11
139.90747728811189
 21
43.949275362318893
 31
0.0
  0
LINE
  5
133
  8
0
 10
139.90747728811189
 20
43.949275362318893
 30
0.0
 11
144.8149545762237
 21
52.44927536231895
 31
0.0
  0
LINE
  5
134
  8
0
 10
144.8149545762237
 20
52.44927536231895
 30
0.0
 11
139.90747728811189
 21
60.949275362318893
 31
0.0
  0
LINE
  5
135
  8
0
 10
139.90747728811189
 20
60.949275362318893
 30
0.0
 11
130.09252271188831
 21
60.949275362318893
 31
0.0
  0
LINE
  5
136
  8
0
 10
130.09252271188831
 20
60.949275362318893
 30
0.0
 11
125.1850454237764
 21
52.449275362318893
 31
0.0
  0
LINE
  5
137
  8
0
 10
125.1850454237764
 20
52.449275362318893
 30
0.0
 11
130.09252271188811
 21
43.94927536231895
 31
0.0
  0
CIRCLE
  5
138
  8
0
 10
135.0
 20
52.449275362318893
 30
0.0
 40
8.25
  0
LINE
  5
139
  8
1
 10
150.5
 20
52.449275362318843
 30
0.0
 11
119.5
 21
52.449275362318843
 31
0.0
  0
LINE
  5
13A
  8
1
 10
135.0
 20
67.949275362318843
 30
0.0
 11
135.0
 21
36.949275362318843
 31
0.0
  0
LINE
  5
13B
  8
1
 10
235.0
 20
67.949275362318843
 30
0.0
 11
235.0
 21
36.949275362318843
 31
0.0
  0
LINE
  5
13C
  8
1
 10
219.5
 20
52.449275362318843
 30
0.0
 11
250.5
 21
52.449275362318843
 31
0.0
  0
CIRCLE
  5
13D
  8
0
 10
235.0
 20
52.449275362318893
 30
0.0
 40
8.25
  0
LINE
  5
13E
  8
0
 10
244.8149545762235
 20
52.449275362318893
 30
0.0
 11
239.90747728811181
 21
43.94927536231895
 31
0.0
  0
LINE
  5
13F
  8
0
 10
239.90747728811169
 20
60.949275362318893
 30
0.0
 11
244.8149545762235
 21
52.449275362318893
 31
0.0
  0
LINE
  5
140
  8
0
 10
230.09252271188811
 20
60.949275362318893
 30
0.0
 11
239.90747728811169
 21
60.949275362318893
 31
0.0
  0
LINE
  5
141
  8
0
 10
225.1850454237763
 20
52.44927536231895
 30
0.0
 11
230.09252271188811
 21
60.949275362318893
 31
0.0
  0
LINE
  5
142
  8
0
 10
230.09252271188811
 20
43.949275362318893
 30
0.0
 11
225.1850454237763
 21
52.44927536231895
 31
0.0
  0
LINE
  5
143
  8
0
 10
239.90747728811181
 20
43.94927536231895
 30
0.0
 11
230.09252271188811
 21
43.949275362318893
 31
0.0
  0
CIRCLE
  5
144
  8
0
 10
235.0
 20
52.449275362318893
 30
0.0
 40
4.1879999999999988
  0
CIRCLE
  5
145
  8
3
 10
235.0
 20
52.449275362318893
 30
0.0
 40
5.0
  0
CIRCLE
  5
146
  8
0
 10
235.0
 20
52.449275362318843
 30
0.0
 40
10.5
  0
LINE
  5
147
  8
1
 10
340.00000000000011
 20
130.0
 30
0.0
 11
291.2944176060119
 21
130.0
 31
0.0
  0
LINE
  5
148
  8
5
 10
322.80000000000018
 20
125.0
 30
0.0
 11
301.00000000000011
 21
125.0
 31
0.0
  0
LINE
  5
149
  8
5
 10
325.2589558112162
 20
135.0
 30
0.0
 11
301.00000000000011
 21
135.0
 31
0.0
  0
ARC
  5
14A
  8
5
 10
301.00000000000011
 20
130.0
 30
0.0
 40
5.0
 50
90.000000000000028
 51
270.00000000000011
  0
CIRCLE
  5
14B
  8
0
 10
330.00000000000011
 20
130.0
 30
0.0
 40
2.0
  0
LINE
  5
14C
  8
0
 10
321.00000000000011
 20
123.5
 30
0.0
 11
321.00000000000011
 21
121.0
 31
0.0
  0
LINE
  5
14D
  8
0
 10
337.0
 20
135.0
 30
0.0
 11
339.00000000000011
 21
133.0
 31
0.0
  0
LINE
  5
14E
  8
0
 10
339.00000000000011
 20
133.0
 30
0.0
 11
339.00000000000011
 21
121.0
 31
0.0
  0
LINE
  5
14F
  8
0
 10
322.80000000000018
 20
133.0
 30
0.0
 11
322.80000000000018
 21
123.5
 31
0.0
  0
LINE
  5
150
  8
0
 10
339.00000000000011
 20
133.0
 30
0.0
 11
322.80000000000018
 21
133.0
 31
0.0
  0
LINE
  5
151
  8
0
 10
338.24999999999898
 20
110.39999999999991
 30
0.0
 11
321.75000000000108
 21
110.39999999999991
 31
0.0
  0
ARC
  5
152
  8
0
 10
325.75000000000011
 20
122.8198442057145
 30
0.0
 40
12.275506638416489
 50
249.74384199960659
 51
290.2561580003935
  0
LINE
  5
153
  8
0
 10
321.5
 20
110.5443375672979
 30
0.0
 11
321.75000000000108
 21
110.39999999999991
 31
0.0
  0
ARC
  5
154
  8
0
 10
325.75000000000011
 20
103.5801557942861
 30
0.0
 40
12.275506638416489
 50
69.743841999606474
 51
110.2561580003935
  0
LINE
  5
155
  8
0
 10
321.5
 20
115.8556624327025
 30
0.0
 11
321.75000000000108
 21
116.0000000000005
 31
0.0
  0
LINE
  5
156
  8
0
 10
321.5
 20
110.5443375672979
 30
0.0
 11
321.50000000000011
 21
115.8556624327025
 31
0.0
  0
LINE
  5
157
  8
0
 10
330.00000000000011
 20
111.3035269458523
 30
0.0
 11
330.00000000000011
 21
115.0964730541484
 31
0.0
  0
LINE
  5
158
  8
0
 10
338.50000000000011
 20
110.5443375672979
 30
0.0
 11
338.50000000000011
 21
115.8556624327025
 31
0.0
  0
ARC
  5
159
  8
0
 10
334.25000000000011
 20
103.5801557942861
 30
0.0
 40
12.275506638416489
 50
69.743841999606474
 51
110.2561580003935
  0
LINE
  5
15A
  8
0
 10
338.50000000000011
 20
115.8556624327025
 30
0.0
 11
338.24999999999909
 21
116.0000000000005
 31
0.0
  0
LINE
  5
15B
  8
0
 10
338.50000000000011
 20
110.5443375672979
 30
0.0
 11
338.24999999999909
 21
110.39999999999991
 31
0.0
  0
ARC
  5
15C
  8
0
 10
334.25000000000011
 20
122.8198442057145
 30
0.0
 40
12.275506638416489
 50
249.7438419996065
 51
290.2561580003935
  0
LINE
  5
15D
  8
0
 10
334.00000000000011
 20
107.0
 30
0.0
 11
326.00000000000011
 21
107.0
 31
0.0
  0
LINE
  5
15E
  8
0
 10
325.0
 20
108.0
 30
0.0
 11
325.0
 21
110.39999999999981
 31
0.0
  0
LINE
  5
15F
  8
3
 10
325.54149999999993
 20
107.4585000000001
 30
0.0
 11
325.54149999999993
 21
110.39999999999981
 31
0.0
  0
LINE
  5
160
  8
3
 10
334.45850000000019
 20
107.4585000000001
 30
0.0
 11
334.45850000000019
 21
110.39999999999991
 31
0.0
  0
LINE
  5
161
  8
0
 10
335.0
 20
108.0
 30
0.0
 11
335.0
 21
110.40000000000001
 31
0.0
  0
LINE
  5
162
  8
0
 10
339.00000000000011
 20
121.0
 30
0.0
 11
321.00000000000011
 21
121.0
 31
0.0
  0
LINE
  5
163
  8
0
 10
325.0
 20
108.0
 30
0.0
 11
326.00000000000011
 21
107.0
 31
0.0
  0
LINE
  5
164
  8
0
 10
334.00000000000011
 20
107.0
 30
0.0
 11
335.0
 21
108.0
 31
0.0
  0
LINE
  5
165
  8
0
 10
325.0
 20
108.0
 30
0.0
 11
335.0
 21
108.0
 31
0.0
  0
LINE
  5
166
  8
0
 10
335.0
 20
119.0
 30
0.0
 11
325.0
 21
119.0
 31
0.0
  0
LINE
  5
167
  8
3
 10
325.54149999999993
 20
119.0
 30
0.0
 11
325.0
 21
121.0
 31
0.0
  0
LINE
  5
168
  8
3
 10
334.45850000000019
 20
119.0
 30
0.0
 11
335.0
 21
121.0
 31
0.0
  0
LINE
  5
169
  8
0
 10
340.50000000000011
 20
118.0
 30
0.0
 11
319.50000000000011
 21
118.0
 31
0.0
  0
LINE
  5
16A
  8
0
 10
319.50000000000011
 20
118.0
 30
0.0
 11
319.50000000000011
 21
116.0
 31
0.0
  0
LINE
  5
16B
  8
0
 10
319.50000000000011
 20
116.0
 30
0.0
 11
340.50000000000011
 21
116.0
 31
0.0
  0
LINE
  5
16C
  8
0
 10
340.50000000000011
 20
116.0
 30
0.0
 11
340.50000000000011
 21
118.0
 31
0.0
  0
LINE
  5
16D
  8
3
 10
325.54149999999993
 20
118.0
 30
0.0
 11
325.54149999999993
 21
119.0
 31
0.0
  0
LINE
  5
16E
  8
3
 10
334.45850000000019
 20
118.0
 30
0.0
 11
334.45850000000019
 21
119.0
 31
0.0
  0
LINE
  5
16F
  8
0
 10
325.0
 20
118.0
 30
0.0
 11
325.0
 21
121.0
 31
0.0
  0
LINE
  5
170
  8
0
 10
335.0
 20
118.0
 30
0.0
 11
335.0
 21
121.0
 31
0.0
  0
LINE
  5
171
  8
1
 10
330.00000000000011
 20
97.0
 30
0.0
 11
330.00000000000011
 21
168.70558239398821
 31
0.0
  0
LINE
  5
172
  8
0
 10
337.0
 20
135.0
 30
0.0
 11
325.2589558112162
 21
135.0
 31
0.0
  0
LINE
  5
173
  8
0
 10
322.80000000000018
 20
123.5
 30
0.0
 11
321.00000000000011
 21
123.5
 31
0.0
  0
LINE
  5
174
  8
0
 10
325.25895581121631
 20
135.0
 30
0.0
 11
322.80000000000013
 21
133.0
 31
0.0
  0
LINE
  5
175
  8
0
 10
325.0
 20
134.78937741781689
 30
0.0
 11
325.0
 21
159.0
 31
0.0
  0
ARC
  5
176
  8
0
 10
330.00000000000011
 20
159.0
 30
0.0
 40
5.0
 50
0.0000000000000254
 51
180.0
  0
ARC
  5
177
  8
2
 10
330.00000000000011
 20
159.0
 30
0.0
 40
5.0
 50
180.0
 51
0.0
  0
LINE
  5
178
  8
0
 10
335.0
 20
135.0
 30
0.0
 11
335.0
 21
159.0
 31
0.0
  0
TEXT
  5
2A1
  8
0
 62
     3
 10
0.0
 20
0.0
 30
0.0
 40
10.0
  1
SR1-100
  7
STANDARD1
  0
ENDSEC
  0
EOF
