  0
SECTION
  2
HEADER
  9
$ACADVER
  1
AC1009
  9
$INSBASE
 10
0.0
 20
0.0
 30
0.0
  9
$EXTMIN
 10
0.0
 20
-2.960436562073669
 30
0.0
  9
$EXTMAX
 10
124.5527104491355
 20
120.325
 30
0.0
  9
$LIMMIN
 10
0.0
 20
0.0
  9
$LIMMAX
 10
12.0
 20
9.0
  9
$ORTHOMODE
 70
     1
  9
$REGENMODE
 70
     1
  9
$FILLMODE
 70
     1
  9
$QTEXTMODE
 70
     0
  9
$MIRRTEXT
 70
     0
  9
$DRAGMODE
 70
     2
  9
$LTSCALE
 40
5.0
  9
$OSMODE
 70
    37
  9
$ATTMODE
 70
     1
  9
$TEXTSIZE
 40
0.2
  9
$TRACEWID
 40
0.05
  9
$TEXTSTYLE
  7
STANDARD
  9
$CLAYER
  8
0
  9
$CELTYPE
  6
BYLAYER
  9
$CECOLOR
 62
   256
  9
$DIMSCALE
 40
1.0
  9
$DIMASZ
 40
0.18
  9
$DIMEXO
 40
0.0625
  9
$DIMDLI
 40
0.38
  9
$DIMRND
 40
0.0
  9
$DIMDLE
 40
0.0
  9
$DIMEXE
 40
0.18
  9
$DIMTP
 40
0.0
  9
$DIMTM
 40
0.0
  9
$DIMTXT
 40
0.18
  9
$DIMCEN
 40
0.09
  9
$DIMTSZ
 40
0.0
  9
$DIMTOL
 70
     0
  9
$DIMLIM
 70
     0
  9
$DIMTIH
 70
     1
  9
$DIMTOH
 70
     1
  9
$DIMSE1
 70
     0
  9
$DIMSE2
 70
     0
  9
$DIMTAD
 70
     0
  9
$DIMZIN
 70
     0
  9
$DIMBLK
  1

  9
$DIMASO
 70
     1
  9
$DIMSHO
 70
     1
  9
$DIMPOST
  1

  9
$DIMAPOST
  1

  9
$DIMALT
 70
     0
  9
$DIMALTD
 70
     2
  9
$DIMALTF
 40
25.399999999999999
  9
$DIMLFAC
 40
1.0
  9
$DIMTOFL
 70
     0
  9
$DIMTVP
 40
0.0
  9
$DIMTIX
 70
     0
  9
$DIMSOXD
 70
     0
  9
$DIMSAH
 70
     0
  9
$DIMBLK1
  1

  9
$DIMBLK2
  1

  9
$DIMSTYLE
  2
STANDARD
  9
$DIMCLRD
 70
     0
  9
$DIMCLRE
 70
     0
  9
$DIMCLRT
 70
     0
  9
$DIMTFAC
 40
1.0
  9
$DIMGAP
 40
0.09
  9
$LUNITS
 70
     2
  9
$LUPREC
 70
     1
  9
$SKETCHINC
 40
0.1
  9
$FILLETRAD
 40
2.5
  9
$AUNITS
 70
     0
  9
$AUPREC
 70
     0
  9
$MENU
  1
.
  9
$ELEVATION
 40
0.0
  9
$PELEVATION
 40
0.0
  9
$THICKNESS
 40
0.0
  9
$LIMCHECK
 70
     0
  9
$BLIPMODE
 70
     0
  9
$CHAMFERA
 40
0.25
  9
$CHAMFERB
 40
0.25
  9
$SKPOLY
 70
     0
  9
$TDCREATE
 40
2453083.4120647679
  9
$TDUPDATE
 40
2456980.597007338
  9
$TDINDWG
 40
0.4294177083
  9
$TDUSRTIMER
 40
0.4294175926
  9
$USRTIMER
 70
     1
  9
$ANGBASE
 50
0.0
  9
$ANGDIR
 70
     0
  9
$PDMODE
 70
     0
  9
$PDSIZE
 40
0.0
  9
$PLINEWID
 40
0.0
  9
$COORDS
 70
     1
  9
$SPLFRAME
 70
     0
  9
$SPLINETYPE
 70
     6
  9
$SPLINESEGS
 70
     8
  9
$ATTDIA
 70
     0
  9
$ATTREQ
 70
     1
  9
$HANDLING
 70
     1
  9
$HANDSEED
  5
2EA7
  9
$SURFTAB1
 70
     6
  9
$SURFTAB2
 70
     6
  9
$SURFTYPE
 70
     6
  9
$SURFU
 70
     6
  9
$SURFV
 70
     6
  9
$UCSNAME
  2

  9
$UCSORG
 10
0.0
 20
0.0
 30
0.0
  9
$UCSXDIR
 10
1.0
 20
0.0
 30
0.0
  9
$UCSYDIR
 10
0.0
 20
1.0
 30
0.0
  9
$PUCSNAME
  2

  9
$PUCSORG
 10
0.0
 20
0.0
 30
0.0
  9
$PUCSXDIR
 10
1.0
 20
0.0
 30
0.0
  9
$PUCSYDIR
 10
0.0
 20
1.0
 30
0.0
  9
$USERI1
 70
     0
  9
$USERI2
 70
     1
  9
$USERI3
 70
     0
  9
$USERI4
 70
     0
  9
$USERI5
 70
     0
  9
$USERR1
 40
0.0
  9
$USERR2
 40
0.0
  9
$USERR3
 40
0.0
  9
$USERR4
 40
0.0
  9
$USERR5
 40
0.0
  9
$WORLDVIEW
 70
     1
  9
$SHADEDGE
 70
     3
  9
$SHADEDIF
 70
    70
  9
$TILEMODE
 70
     1
  9
$MAXACTVP
 70
    64
  9
$PLIMCHECK
 70
     0
  9
$PEXTMIN
 10
0.0
 20
0.0
 30
0.0
  9
$PEXTMAX
 10
0.0
 20
0.0
 30
0.0
  9
$PLIMMIN
 10
0.0
 20
0.0
  9
$PLIMMAX
 10
12.0
 20
9.0
  9
$UNITMODE
 70
     0
  9
$VISRETAIN
 70
     1
  9
$PLINEGEN
 70
     0
  9
$PSLTSCALE
 70
     1
  0
ENDSEC
  0
SECTION
  2
TABLES
  0
TABLE
  2
VPORT
 70
     1
  0
VPORT
  2
*ACTIVE
 70
     0
 10
0.0
 20
0.0
 11
1.0
 21
1.0
 12
165.8205841446453
 22
95.0
 13
0.0
 23
0.0
 14
0.5
 24
0.5
 15
0.5
 25
0.5
 16
0.0
 26
0.0
 36
1.0
 17
0.0
 27
0.0
 37
0.0
 40
190.0
 41
1.7454798331015291
 42
50.0
 43
0.0
 44
0.0
 50
0.0
 51
0.0
 71
     0
 72
  1000
 73
     1
 74
     2
 75
     0
 76
     0
 77
     0
 78
     0
  0
ENDTAB
  0
TABLE
  2
LTYPE
 70
     4
  0
LTYPE
  2
CONTINUOUS
 70
     0
  3
Solid Line
 72
    65
 73
     0
 40
0.0
  0
LTYPE
  2
CENTER
 70
     0
  3
____ _ ____ _ ____ _ ____ _ ____ _ ____ _ ____
 72
    65
 73
     4
 40
2.0
 49
1.25
 49
-0.25
 49
0.25
 49
-0.25
  0
LTYPE
  2
HIDDEN
 70
     0
  3
Hidden __ __ __ __ __ __ __ __ __ __ __ __ __ _
 72
    65
 73
     2
 40
0.375
 49
0.25
 49
-0.125
  0
LTYPE
  2
PHANTOM2
 70
     0
  3
___ _ _ ___ _ _ ___ _ _ ___ _ _
 72
    65
 73
     6
 40
1.25
 49
0.625
 49
-0.125
 49
0.125
 49
-0.125
 49
0.125
 49
-0.125
  0
ENDTAB
  0
TABLE
  2
LAYER
 70
     3
  0
LAYER
  2
0
 70
     0
 62
     7
  6
CONTINUOUS
  0
LAYER
  2
1
 70
     0
 62
     1
  6
CENTER
  0
LAYER
  2
2
 70
     0
 62
     2
  6
HIDDEN
  0
ENDTAB
  0
TABLE
  2
STYLE
 70
     2
  0
STYLE
  2
STANDARD
 70
     0
 40
0.0
 41
1.0
 50
0.0
 71
     0
 42
0.2
  3
simplex.shx
  4
bigfont.shx
  0
STYLE
  2
STANDARD1
 70
     0
 40
0.0
 41
1.0
 50
0.0
 71
     0
 42
3.0
  3
txt
  4

  0
ENDTAB
  0
TABLE
  2
VIEW
 70
     0
  0
ENDTAB
  0
TABLE
  2
UCS
 70
     0
  0
ENDTAB
  0
TABLE
  2
APPID
 70
     5
  0
APPID
  2
ACAD
 70
     0
  0
APPID
  2
DCO15
 70
     0
  0
APPID
  2
ACAD_MLEADERVER
 70
     0
  0
APPID
  2
ACAD_EXEMPT_FROM_CAD_STANDARDS
 70
     0
  0
APPID
  2
ACAD_NAV_VCDISPLAY
 70
     0
  0
ENDTAB
  0
TABLE
  2
DIMSTYLE
 70
     1
  0
DIMSTYLE
  2
STANDARD
 70
     0
  3

  4

  5

  6

  7

 40
1.0
 41
0.18
 42
0.0625
 43
0.38
 44
0.18
 45
0.0
 46
0.0
 47
0.0
 48
0.0
140
0.18
141
0.09
142
0.0
143
25.399999999999999
144
1.0
145
0.0
146
1.0
147
0.09
 71
     0
 72
     0
 73
     1
 74
     1
 75
     0
 76
     0
 77
     0
 78
     0
170
     0
171
     2
172
     0
173
     0
174
     0
175
     0
176
     0
177
     0
178
     0
  0
ENDTAB
  0
ENDSEC
  0
SECTION
  2
BLOCKS
  0
BLOCK
  8
0
  2
$MODEL_SPACE
 70
     0
 10
0.0
 20
0.0
 30
0.0
  3
$MODEL_SPACE
  1

  0
ENDBLK
  5
21
  8
0
  0
BLOCK
 67
     1
  8
0
  2
$PAPER_SPACE
 70
     0
 10
0.0
 20
0.0
 30
0.0
  3
$PAPER_SPACE
  1

  0
ENDBLK
  5
5B
 67
     1
  8
0
  0
ENDSEC
  0
SECTION
  2
ENTITIES
  0
TEXT
  5
1FD0
  8
0
 62
     3
 10
0.0
 20
0.0
 30
0.0
 40
10.0
  1
SSF-M5
  7
STANDARD1
  0
LINE
  5
24D8
  8
0
 10
86.053324088320011
 20
52.225000000000009
 30
0.0
 11
88.575000000000017
 21
52.225000000000009
 31
0.0
  0
ARC
  5
24D9
  8
0
 10
88.828999999999965
 20
42.90955000000001
 30
0.0
 40
0.2539999999999949
 50
180.0
 51
270.0
  0
ARC
  5
24DA
  8
0
 10
88.828999999999965
 20
32.965450000000018
 30
0.0
 40
0.2540000000000051
 50
90.0
 51
180.0
  0
LINE
  5
24DB
  8
0
 10
88.828999999999965
 20
42.655550000000012
 30
0.0
 11
93.337500000000006
 21
42.655550000000012
 31
0.0
  0
LINE
  5
24DC
  8
0
 10
93.337500000000006
 20
33.219450000000009
 30
0.0
 11
88.828999999999965
 21
33.219450000000009
 31
0.0
  0
LINE
  5
24F6
  8
0
 10
88.575000000000017
 20
52.225000000000009
 30
0.0
 11
88.575000000000074
 21
30.444500000000019
 31
0.0
  0
LINE
  5
24F7
  8
0
 10
84.631252375699972
 20
46.917756121239997
 30
0.0
 11
86.053324088320011
 21
52.225000000000009
 31
0.0
  0
LINE
  5
24F8
  8
0
 10
84.631252375699972
 20
46.917756121239997
 30
0.0
 11
88.575000000000017
 21
46.917756121239997
 31
0.0
  0
LINE
  5
24F9
  8
0
 10
82.224999999999994
 20
30.444500000000019
 30
0.0
 11
88.575000000000017
 21
30.444500000000019
 31
0.0
  0
LINE
  5
24FA
  8
0
 10
82.224999999999994
 20
37.937500000000007
 30
0.0
 11
82.224999999999994
 21
30.444500000000019
 31
0.0
  0
LINE
  5
24FC
  8
0
 10
82.224999999999994
 20
37.937500000000007
 30
0.0
 11
84.631252375699972
 21
46.917756121239997
 31
0.0
  0
LINE
  5
25E0
  8
0
 10
37.937500000000028
 20
90.162499999999966
 30
0.0
 11
37.937500000000028
 21
112.3875
 31
0.0
  0
LINE
  5
25E1
  8
0
 10
30.44450000000003
 20
90.162499999999966
 30
0.0
 11
30.44450000000003
 21
112.3875
 31
0.0
  0
LINE
  5
25E3
  8
0
 10
30.444500000000058
 20
90.162499999999966
 30
0.0
 11
46.917756121239989
 21
90.162499999999966
 31
0.0
  0
ARC
  5
25E4
  8
0
 10
37.937500000000028
 20
101.27500000000001
 30
0.0
 40
14.28750000000001
 50
308.9424412689973
 51
51.057558731002743
  0
LINE
  5
25E5
  8
0
 10
46.917756121239989
 20
112.3875
 30
0.0
 11
30.444500000000058
 21
112.3875
 31
0.0
  0
LINE
  5
25E6
  8
0
 10
30.397509999999979
 20
94.925000000000026
 30
0.0
 11
30.44450000000003
 21
94.92779613106002
 31
0.0
  0
LINE
  5
25E7
  8
0
 10
30.397509999999979
 20
94.925000000000026
 30
0.0
 11
30.000000000000028
 21
94.925000000000026
 31
0.0
  0
LINE
  5
25E8
  8
0
 10
30.0
 20
82.224999999999966
 30
0.0
 11
30.000000000000028
 21
94.925000000000026
 31
0.0
  0
LINE
  5
25E9
  8
0
 10
30.000000000000028
 20
107.625
 30
0.0
 11
30.397509999999979
 21
107.625
 31
0.0
  0
LINE
  5
25EA
  8
0
 10
30.44450000000003
 20
107.62220386893991
 30
0.0
 11
30.397509999999979
 21
107.625
 31
0.0
  0
LINE
  5
25EB
  8
0
 10
30.000000000000028
 20
107.625
 30
0.0
 11
30.000000000000028
 21
120.325
 31
0.0
  0
LINE
  5
25EE
  8
0
 10
36.810277001719982
 20
119.86003201452
 30
0.0
 11
37.043420000000062
 21
112.3875
 31
0.0
  0
LINE
  5
25F2
  8
0
 10
37.043420000000062
 20
90.162499999999966
 30
0.0
 11
36.810277001719982
 21
82.689967985479996
 31
0.0
  0
LINE
  5
25F4
  8
0
 10
36.77525400344004
 20
120.325
 30
0.0
 11
30.000000000000028
 21
120.325
 31
0.0
  0
POLYLINE
  5
25F5
  8
0
 10
36.77525400344004
 20
120.325
 30
0.0
 66
     1
 70
     8
  0
VERTEX
  8
0
  5
2B9B
 10
36.7753
 20
120.325
 30
0.000000
  70
    32
  0
VERTEX
  8
0
  5
2B9C
 10
36.7756
 20
120.325
 30
0.000000
  70
    32
  0
VERTEX
  8
0
  5
2B9D
 10
36.7759
 20
120.325
 30
0.000000
  70
    32
  0
VERTEX
  8
0
  5
2B9E
 10
36.7762
 20
120.325
 30
0.000000
  70
    32
  0
VERTEX
  8
0
  5
2B9F
 10
36.7765
 20
120.325
 30
0.000000
  70
    32
  0
VERTEX
  8
0
  5
2BA0
 10
36.7768
 20
120.324
 30
0.000000
  70
    32
  0
VERTEX
  8
0
  5
2BA1
 10
36.7771
 20
120.324
 30
0.000000
  70
    32
  0
VERTEX
  8
0
  5
2BA2
 10
36.7774
 20
120.324
 30
0.000000
  70
    32
  0
VERTEX
  8
0
  5
2BA3
 10
36.7777
 20
120.323
 30
0.000000
  70
    32
  0
VERTEX
  8
0
  5
2BA4
 10
36.7780
 20
120.323
 30
0.000000
  70
    32
  0
VERTEX
  8
0
  5
2BA5
 10
36.7783
 20
120.322
 30
0.000000
  70
    32
  0
VERTEX
  8
0
  5
2BA6
 10
36.7786
 20
120.321
 30
0.000000
  70
    32
  0
VERTEX
  8
0
  5
2BA7
 10
36.7789
 20
120.321
 30
0.000000
  70
    32
  0
VERTEX
  8
0
  5
2BA8
 10
36.7792
 20
120.320
 30
0.000000
  70
    32
  0
VERTEX
  8
0
  5
2BA9
 10
36.7795
 20
120.319
 30
0.000000
  70
    32
  0
VERTEX
  8
0
  5
2BAA
 10
36.7798
 20
120.318
 30
0.000000
  70
    32
  0
VERTEX
  8
0
  5
2BAB
 10
36.7801
 20
120.317
 30
0.000000
  70
    32
  0
VERTEX
  8
0
  5
2BAC
 10
36.7804
 20
120.316
 30
0.000000
  70
    32
  0
VERTEX
  8
0
  5
2BAD
 10
36.7807
 20
120.315
 30
0.000000
  70
    32
  0
VERTEX
  8
0
  5
2BAE
 10
36.7810
 20
120.314
 30
0.000000
  70
    32
  0
VERTEX
  8
0
  5
2BAF
 10
36.7813
 20
120.313
 30
0.000000
  70
    32
  0
VERTEX
  8
0
  5
2BB0
 10
36.7816
 20
120.312
 30
0.000000
  70
    32
  0
VERTEX
  8
0
  5
2BB1
 10
36.7819
 20
120.311
 30
0.000000
  70
    32
  0
VERTEX
  8
0
  5
2BB2
 10
36.7822
 20
120.309
 30
0.000000
  70
    32
  0
VERTEX
  8
0
  5
2BB3
 10
36.7825
 20
120.308
 30
0.000000
  70
    32
  0
VERTEX
  8
0
  5
2BB4
 10
36.7828
 20
120.306
 30
0.000000
  70
    32
  0
VERTEX
  8
0
  5
2BB5
 10
36.7831
 20
120.305
 30
0.000000
  70
    32
  0
VERTEX
  8
0
  5
2BB6
 10
36.7834
 20
120.303
 30
0.000000
  70
    32
  0
VERTEX
  8
0
  5
2BB7
 10
36.7837
 20
120.302
 30
0.000000
  70
    32
  0
VERTEX
  8
0
  5
2BB8
 10
36.7840
 20
120.300
 30
0.000000
  70
    32
  0
VERTEX
  8
0
  5
2BB9
 10
36.7843
 20
120.298
 30
0.000000
  70
    32
  0
VERTEX
  8
0
  5
2BBA
 10
36.7846
 20
120.296
 30
0.000000
  70
    32
  0
VERTEX
  8
0
  5
2BBB
 10
36.7849
 20
120.294
 30
0.000000
  70
    32
  0
VERTEX
  8
0
  5
2BBC
 10
36.7852
 20
120.293
 30
0.000000
  70
    32
  0
VERTEX
  8
0
  5
2BBD
 10
36.7855
 20
120.291
 30
0.000000
  70
    32
  0
VERTEX
  8
0
  5
2BBE
 10
36.7858
 20
120.289
 30
0.000000
  70
    32
  0
VERTEX
  8
0
  5
2BBF
 10
36.7861
 20
120.286
 30
0.000000
  70
    32
  0
VERTEX
  8
0
  5
2BC0
 10
36.7864
 20
120.284
 30
0.000000
  70
    32
  0
VERTEX
  8
0
  5
2BC1
 10
36.7867
 20
120.282
 30
0.000000
  70
    32
  0
VERTEX
  8
0
  5
2BC2
 10
36.7870
 20
120.280
 30
0.000000
  70
    32
  0
VERTEX
  8
0
  5
2BC3
 10
36.7873
 20
120.277
 30
0.000000
  70
    32
  0
VERTEX
  8
0
  5
2BC4
 10
36.7876
 20
120.275
 30
0.000000
  70
    32
  0
VERTEX
  8
0
  5
2BC5
 10
36.7879
 20
120.273
 30
0.000000
  70
    32
  0
VERTEX
  8
0
  5
2BC6
 10
36.7882
 20
120.270
 30
0.000000
  70
    32
  0
VERTEX
  8
0
  5
2BC7
 10
36.7885
 20
120.267
 30
0.000000
  70
    32
  0
VERTEX
  8
0
  5
2BC8
 10
36.7888
 20
120.265
 30
0.000000
  70
    32
  0
VERTEX
  8
0
  5
2BC9
 10
36.7890
 20
120.262
 30
0.000000
  70
    32
  0
VERTEX
  8
0
  5
2BCA
 10
36.7893
 20
120.259
 30
0.000000
  70
    32
  0
VERTEX
  8
0
  5
2BCB
 10
36.7896
 20
120.257
 30
0.000000
  70
    32
  0
VERTEX
  8
0
  5
2BCC
 10
36.7899
 20
120.254
 30
0.000000
  70
    32
  0
VERTEX
  8
0
  5
2BCD
 10
36.7902
 20
120.251
 30
0.000000
  70
    32
  0
VERTEX
  8
0
  5
2BCE
 10
36.7905
 20
120.248
 30
0.000000
  70
    32
  0
VERTEX
  8
0
  5
2BCF
 10
36.7908
 20
120.245
 30
0.000000
  70
    32
  0
VERTEX
  8
0
  5
2BD0
 10
36.7911
 20
120.242
 30
0.000000
  70
    32
  0
VERTEX
  8
0
  5
2BD1
 10
36.7914
 20
120.239
 30
0.000000
  70
    32
  0
VERTEX
  8
0
  5
2BD2
 10
36.7917
 20
120.235
 30
0.000000
  70
    32
  0
VERTEX
  8
0
  5
2BD3
 10
36.7919
 20
120.232
 30
0.000000
  70
    32
  0
VERTEX
  8
0
  5
2BD4
 10
36.7922
 20
120.229
 30
0.000000
  70
    32
  0
VERTEX
  8
0
  5
2BD5
 10
36.7925
 20
120.226
 30
0.000000
  70
    32
  0
VERTEX
  8
0
  5
2BD6
 10
36.7928
 20
120.222
 30
0.000000
  70
    32
  0
VERTEX
  8
0
  5
2BD7
 10
36.7931
 20
120.219
 30
0.000000
  70
    32
  0
VERTEX
  8
0
  5
2BD8
 10
36.7934
 20
120.215
 30
0.000000
  70
    32
  0
VERTEX
  8
0
  5
2BD9
 10
36.7936
 20
120.212
 30
0.000000
  70
    32
  0
VERTEX
  8
0
  5
2BDA
 10
36.7939
 20
120.208
 30
0.000000
  70
    32
  0
VERTEX
  8
0
  5
2BDB
 10
36.7942
 20
120.204
 30
0.000000
  70
    32
  0
VERTEX
  8
0
  5
2BDC
 10
36.7945
 20
120.200
 30
0.000000
  70
    32
  0
VERTEX
  8
0
  5
2BDD
 10
36.7948
 20
120.197
 30
0.000000
  70
    32
  0
VERTEX
  8
0
  5
2BDE
 10
36.7950
 20
120.193
 30
0.000000
  70
    32
  0
VERTEX
  8
0
  5
2BDF
 10
36.7953
 20
120.189
 30
0.000000
  70
    32
  0
VERTEX
  8
0
  5
2BE0
 10
36.7956
 20
120.185
 30
0.000000
  70
    32
  0
VERTEX
  8
0
  5
2BE1
 10
36.7959
 20
120.181
 30
0.000000
  70
    32
  0
VERTEX
  8
0
  5
2BE2
 10
36.7962
 20
120.177
 30
0.000000
  70
    32
  0
VERTEX
  8
0
  5
2BE3
 10
36.7964
 20
120.173
 30
0.000000
  70
    32
  0
VERTEX
  8
0
  5
2BE4
 10
36.7967
 20
120.168
 30
0.000000
  70
    32
  0
VERTEX
  8
0
  5
2BE5
 10
36.7970
 20
120.164
 30
0.000000
  70
    32
  0
VERTEX
  8
0
  5
2BE6
 10
36.7973
 20
120.160
 30
0.000000
  70
    32
  0
VERTEX
  8
0
  5
2BE7
 10
36.7975
 20
120.155
 30
0.000000
  70
    32
  0
VERTEX
  8
0
  5
2BE8
 10
36.7978
 20
120.151
 30
0.000000
  70
    32
  0
VERTEX
  8
0
  5
2BE9
 10
36.7981
 20
120.147
 30
0.000000
  70
    32
  0
VERTEX
  8
0
  5
2BEA
 10
36.7983
 20
120.142
 30
0.000000
  70
    32
  0
VERTEX
  8
0
  5
2BEB
 10
36.7986
 20
120.138
 30
0.000000
  70
    32
  0
VERTEX
  8
0
  5
2BEC
 10
36.7989
 20
120.133
 30
0.000000
  70
    32
  0
VERTEX
  8
0
  5
2BED
 10
36.7991
 20
120.128
 30
0.000000
  70
    32
  0
VERTEX
  8
0
  5
2BEE
 10
36.7994
 20
120.124
 30
0.000000
  70
    32
  0
VERTEX
  8
0
  5
2BEF
 10
36.7997
 20
120.119
 30
0.000000
  70
    32
  0
VERTEX
  8
0
  5
2BF0
 10
36.7999
 20
120.114
 30
0.000000
  70
    32
  0
VERTEX
  8
0
  5
2BF1
 10
36.8002
 20
120.109
 30
0.000000
  70
    32
  0
VERTEX
  8
0
  5
2BF2
 10
36.8005
 20
120.104
 30
0.000000
  70
    32
  0
VERTEX
  8
0
  5
2BF3
 10
36.8007
 20
120.099
 30
0.000000
  70
    32
  0
VERTEX
  8
0
  5
2BF4
 10
36.8010
 20
120.094
 30
0.000000
  70
    32
  0
VERTEX
  8
0
  5
2BF5
 10
36.8012
 20
120.089
 30
0.000000
  70
    32
  0
VERTEX
  8
0
  5
2BF6
 10
36.8015
 20
120.084
 30
0.000000
  70
    32
  0
VERTEX
  8
0
  5
2BF7
 10
36.8018
 20
120.079
 30
0.000000
  70
    32
  0
VERTEX
  8
0
  5
2BF8
 10
36.8020
 20
120.073
 30
0.000000
  70
    32
  0
VERTEX
  8
0
  5
2BF9
 10
36.8023
 20
120.068
 30
0.000000
  70
    32
  0
VERTEX
  8
0
  5
2BFA
 10
36.8025
 20
120.063
 30
0.000000
  70
    32
  0
VERTEX
  8
0
  5
2BFB
 10
36.8028
 20
120.057
 30
0.000000
  70
    32
  0
VERTEX
  8
0
  5
2BFC
 10
36.8030
 20
120.052
 30
0.000000
  70
    32
  0
VERTEX
  8
0
  5
2BFD
 10
36.8033
 20
120.047
 30
0.000000
  70
    32
  0
VERTEX
  8
0
  5
2BFE
 10
36.8035
 20
120.041
 30
0.000000
  70
    32
  0
VERTEX
  8
0
  5
2BFF
 10
36.8038
 20
120.035
 30
0.000000
  70
    32
  0
VERTEX
  8
0
  5
2C00
 10
36.8040
 20
120.030
 30
0.000000
  70
    32
  0
VERTEX
  8
0
  5
2C01
 10
36.8043
 20
120.024
 30
0.000000
  70
    32
  0
VERTEX
  8
0
  5
2C02
 10
36.8045
 20
120.018
 30
0.000000
  70
    32
  0
VERTEX
  8
0
  5
2C03
 10
36.8048
 20
120.013
 30
0.000000
  70
    32
  0
VERTEX
  8
0
  5
2C04
 10
36.8050
 20
120.007
 30
0.000000
  70
    32
  0
VERTEX
  8
0
  5
2C05
 10
36.8052
 20
120.001
 30
0.000000
  70
    32
  0
VERTEX
  8
0
  5
2C06
 10
36.8055
 20
119.995
 30
0.000000
  70
    32
  0
VERTEX
  8
0
  5
2C07
 10
36.8057
 20
119.989
 30
0.000000
  70
    32
  0
VERTEX
  8
0
  5
2C08
 10
36.8060
 20
119.983
 30
0.000000
  70
    32
  0
VERTEX
  8
0
  5
2C09
 10
36.8062
 20
119.977
 30
0.000000
  70
    32
  0
VERTEX
  8
0
  5
2C0A
 10
36.8064
 20
119.971
 30
0.000000
  70
    32
  0
VERTEX
  8
0
  5
2C0B
 10
36.8067
 20
119.965
 30
0.000000
  70
    32
  0
VERTEX
  8
0
  5
2C0C
 10
36.8069
 20
119.958
 30
0.000000
  70
    32
  0
VERTEX
  8
0
  5
2C0D
 10
36.8071
 20
119.952
 30
0.000000
  70
    32
  0
VERTEX
  8
0
  5
2C0E
 10
36.8074
 20
119.946
 30
0.000000
  70
    32
  0
VERTEX
  8
0
  5
2C0F
 10
36.8076
 20
119.940
 30
0.000000
  70
    32
  0
VERTEX
  8
0
  5
2C10
 10
36.8078
 20
119.933
 30
0.000000
  70
    32
  0
VERTEX
  8
0
  5
2C11
 10
36.8081
 20
119.927
 30
0.000000
  70
    32
  0
VERTEX
  8
0
  5
2C12
 10
36.8083
 20
119.920
 30
0.000000
  70
    32
  0
VERTEX
  8
0
  5
2C13
 10
36.8085
 20
119.914
 30
0.000000
  70
    32
  0
VERTEX
  8
0
  5
2C14
 10
36.8087
 20
119.907
 30
0.000000
  70
    32
  0
VERTEX
  8
0
  5
2C15
 10
36.8090
 20
119.901
 30
0.000000
  70
    32
  0
VERTEX
  8
0
  5
2C16
 10
36.8092
 20
119.894
 30
0.000000
  70
    32
  0
VERTEX
  8
0
  5
2C17
 10
36.8094
 20
119.887
 30
0.000000
  70
    32
  0
VERTEX
  8
0
  5
2C18
 10
36.8096
 20
119.881
 30
0.000000
  70
    32
  0
VERTEX
  8
0
  5
2C19
 10
36.8098
 20
119.874
 30
0.000000
  70
    32
  0
VERTEX
  8
0
  5
2C1A
 10
36.8101
 20
119.867
 30
0.000000
  70
    32
  0
VERTEX
  8
0
  5
2C1B
 10
36.8103
 20
119.860
 30
0.000000
  70
    32
  0
SEQEND
  8
0
  5
2C1C
  0
LINE
  5
25F7
  8
0
 10
36.77525400344004
 20
82.22499999999998
 30
0.0
 11
30.000000000000028
 21
82.22499999999998
 31
0.0
  0
POLYLINE
  5
25F8
  8
0
 10
36.810277002312212
 20
82.689967984866399
 30
0.0
 66
     1
 70
     8
  0
VERTEX
  8
0
  5
2C1D
 10
36.8103
 20
82.6900
 30
0.000000
  70
    32
  0
VERTEX
  8
0
  5
2C1E
 10
36.8101
 20
82.6831
 30
0.000000
  70
    32
  0
VERTEX
  8
0
  5
2C1F
 10
36.8098
 20
82.6763
 30
0.000000
  70
    32
  0
VERTEX
  8
0
  5
2C20
 10
36.8096
 20
82.6695
 30
0.000000
  70
    32
  0
VERTEX
  8
0
  5
2C21
 10
36.8094
 20
82.6628
 30
0.000000
  70
    32
  0
VERTEX
  8
0
  5
2C22
 10
36.8092
 20
82.6561
 30
0.000000
  70
    32
  0
VERTEX
  8
0
  5
2C23
 10
36.8090
 20
82.6494
 30
0.000000
  70
    32
  0
VERTEX
  8
0
  5
2C24
 10
36.8087
 20
82.6428
 30
0.000000
  70
    32
  0
VERTEX
  8
0
  5
2C25
 10
36.8085
 20
82.6362
 30
0.000000
  70
    32
  0
VERTEX
  8
0
  5
2C26
 10
36.8083
 20
82.6297
 30
0.000000
  70
    32
  0
VERTEX
  8
0
  5
2C27
 10
36.8081
 20
82.6232
 30
0.000000
  70
    32
  0
VERTEX
  8
0
  5
2C28
 10
36.8078
 20
82.6168
 30
0.000000
  70
    32
  0
VERTEX
  8
0
  5
2C29
 10
36.8076
 20
82.6104
 30
0.000000
  70
    32
  0
VERTEX
  8
0
  5
2C2A
 10
36.8074
 20
82.6041
 30
0.000000
  70
    32
  0
VERTEX
  8
0
  5
2C2B
 10
36.8071
 20
82.5978
 30
0.000000
  70
    32
  0
VERTEX
  8
0
  5
2C2C
 10
36.8069
 20
82.5915
 30
0.000000
  70
    32
  0
VERTEX
  8
0
  5
2C2D
 10
36.8067
 20
82.5853
 30
0.000000
  70
    32
  0
VERTEX
  8
0
  5
2C2E
 10
36.8064
 20
82.5792
 30
0.000000
  70
    32
  0
VERTEX
  8
0
  5
2C2F
 10
36.8062
 20
82.5731
 30
0.000000
  70
    32
  0
VERTEX
  8
0
  5
2C30
 10
36.8060
 20
82.5670
 30
0.000000
  70
    32
  0
VERTEX
  8
0
  5
2C31
 10
36.8057
 20
82.5610
 30
0.000000
  70
    32
  0
VERTEX
  8
0
  5
2C32
 10
36.8055
 20
82.5550
 30
0.000000
  70
    32
  0
VERTEX
  8
0
  5
2C33
 10
36.8052
 20
82.5491
 30
0.000000
  70
    32
  0
VERTEX
  8
0
  5
2C34
 10
36.8050
 20
82.5432
 30
0.000000
  70
    32
  0
VERTEX
  8
0
  5
2C35
 10
36.8048
 20
82.5374
 30
0.000000
  70
    32
  0
VERTEX
  8
0
  5
2C36
 10
36.8045
 20
82.5316
 30
0.000000
  70
    32
  0
VERTEX
  8
0
  5
2C37
 10
36.8043
 20
82.5259
 30
0.000000
  70
    32
  0
VERTEX
  8
0
  5
2C38
 10
36.8040
 20
82.5202
 30
0.000000
  70
    32
  0
VERTEX
  8
0
  5
2C39
 10
36.8038
 20
82.5146
 30
0.000000
  70
    32
  0
VERTEX
  8
0
  5
2C3A
 10
36.8035
 20
82.5090
 30
0.000000
  70
    32
  0
VERTEX
  8
0
  5
2C3B
 10
36.8033
 20
82.5035
 30
0.000000
  70
    32
  0
VERTEX
  8
0
  5
2C3C
 10
36.8030
 20
82.4980
 30
0.000000
  70
    32
  0
VERTEX
  8
0
  5
2C3D
 10
36.8028
 20
82.4925
 30
0.000000
  70
    32
  0
VERTEX
  8
0
  5
2C3E
 10
36.8025
 20
82.4872
 30
0.000000
  70
    32
  0
VERTEX
  8
0
  5
2C3F
 10
36.8023
 20
82.4818
 30
0.000000
  70
    32
  0
VERTEX
  8
0
  5
2C40
 10
36.8020
 20
82.4765
 30
0.000000
  70
    32
  0
VERTEX
  8
0
  5
2C41
 10
36.8018
 20
82.4713
 30
0.000000
  70
    32
  0
VERTEX
  8
0
  5
2C42
 10
36.8015
 20
82.4661
 30
0.000000
  70
    32
  0
VERTEX
  8
0
  5
2C43
 10
36.8012
 20
82.4610
 30
0.000000
  70
    32
  0
VERTEX
  8
0
  5
2C44
 10
36.8010
 20
82.4559
 30
0.000000
  70
    32
  0
VERTEX
  8
0
  5
2C45
 10
36.8007
 20
82.4509
 30
0.000000
  70
    32
  0
VERTEX
  8
0
  5
2C46
 10
36.8005
 20
82.4459
 30
0.000000
  70
    32
  0
VERTEX
  8
0
  5
2C47
 10
36.8002
 20
82.4409
 30
0.000000
  70
    32
  0
VERTEX
  8
0
  5
2C48
 10
36.7999
 20
82.4361
 30
0.000000
  70
    32
  0
VERTEX
  8
0
  5
2C49
 10
36.7997
 20
82.4312
 30
0.000000
  70
    32
  0
VERTEX
  8
0
  5
2C4A
 10
36.7994
 20
82.4265
 30
0.000000
  70
    32
  0
VERTEX
  8
0
  5
2C4B
 10
36.7991
 20
82.4217
 30
0.000000
  70
    32
  0
VERTEX
  8
0
  5
2C4C
 10
36.7989
 20
82.4171
 30
0.000000
  70
    32
  0
VERTEX
  8
0
  5
2C4D
 10
36.7986
 20
82.4124
 30
0.000000
  70
    32
  0
VERTEX
  8
0
  5
2C4E
 10
36.7983
 20
82.4079
 30
0.000000
  70
    32
  0
VERTEX
  8
0
  5
2C4F
 10
36.7981
 20
82.4034
 30
0.000000
  70
    32
  0
VERTEX
  8
0
  5
2C50
 10
36.7978
 20
82.3989
 30
0.000000
  70
    32
  0
VERTEX
  8
0
  5
2C51
 10
36.7975
 20
82.3945
 30
0.000000
  70
    32
  0
VERTEX
  8
0
  5
2C52
 10
36.7973
 20
82.3902
 30
0.000000
  70
    32
  0
VERTEX
  8
0
  5
2C53
 10
36.7970
 20
82.3859
 30
0.000000
  70
    32
  0
VERTEX
  8
0
  5
2C54
 10
36.7967
 20
82.3816
 30
0.000000
  70
    32
  0
VERTEX
  8
0
  5
2C55
 10
36.7964
 20
82.3774
 30
0.000000
  70
    32
  0
VERTEX
  8
0
  5
2C56
 10
36.7962
 20
82.3733
 30
0.000000
  70
    32
  0
VERTEX
  8
0
  5
2C57
 10
36.7959
 20
82.3692
 30
0.000000
  70
    32
  0
VERTEX
  8
0
  5
2C58
 10
36.7956
 20
82.3652
 30
0.000000
  70
    32
  0
VERTEX
  8
0
  5
2C59
 10
36.7953
 20
82.3612
 30
0.000000
  70
    32
  0
VERTEX
  8
0
  5
2C5A
 10
36.7950
 20
82.3573
 30
0.000000
  70
    32
  0
VERTEX
  8
0
  5
2C5B
 10
36.7948
 20
82.3534
 30
0.000000
  70
    32
  0
VERTEX
  8
0
  5
2C5C
 10
36.7945
 20
82.3496
 30
0.000000
  70
    32
  0
VERTEX
  8
0
  5
2C5D
 10
36.7942
 20
82.3458
 30
0.000000
  70
    32
  0
VERTEX
  8
0
  5
2C5E
 10
36.7939
 20
82.3421
 30
0.000000
  70
    32
  0
VERTEX
  8
0
  5
2C5F
 10
36.7936
 20
82.3385
 30
0.000000
  70
    32
  0
VERTEX
  8
0
  5
2C60
 10
36.7934
 20
82.3349
 30
0.000000
  70
    32
  0
VERTEX
  8
0
  5
2C61
 10
36.7931
 20
82.3314
 30
0.000000
  70
    32
  0
VERTEX
  8
0
  5
2C62
 10
36.7928
 20
82.3279
 30
0.000000
  70
    32
  0
VERTEX
  8
0
  5
2C63
 10
36.7925
 20
82.3245
 30
0.000000
  70
    32
  0
VERTEX
  8
0
  5
2C64
 10
36.7922
 20
82.3211
 30
0.000000
  70
    32
  0
VERTEX
  8
0
  5
2C65
 10
36.7919
 20
82.3178
 30
0.000000
  70
    32
  0
VERTEX
  8
0
  5
2C66
 10
36.7917
 20
82.3145
 30
0.000000
  70
    32
  0
VERTEX
  8
0
  5
2C67
 10
36.7914
 20
82.3113
 30
0.000000
  70
    32
  0
VERTEX
  8
0
  5
2C68
 10
36.7911
 20
82.3082
 30
0.000000
  70
    32
  0
VERTEX
  8
0
  5
2C69
 10
36.7908
 20
82.3051
 30
0.000000
  70
    32
  0
VERTEX
  8
0
  5
2C6A
 10
36.7905
 20
82.3021
 30
0.000000
  70
    32
  0
VERTEX
  8
0
  5
2C6B
 10
36.7902
 20
82.2991
 30
0.000000
  70
    32
  0
VERTEX
  8
0
  5
2C6C
 10
36.7899
 20
82.2962
 30
0.000000
  70
    32
  0
VERTEX
  8
0
  5
2C6D
 10
36.7896
 20
82.2934
 30
0.000000
  70
    32
  0
VERTEX
  8
0
  5
2C6E
 10
36.7893
 20
82.2906
 30
0.000000
  70
    32
  0
VERTEX
  8
0
  5
2C6F
 10
36.7890
 20
82.2878
 30
0.000000
  70
    32
  0
VERTEX
  8
0
  5
2C70
 10
36.7888
 20
82.2851
 30
0.000000
  70
    32
  0
VERTEX
  8
0
  5
2C71
 10
36.7885
 20
82.2825
 30
0.000000
  70
    32
  0
VERTEX
  8
0
  5
2C72
 10
36.7882
 20
82.2799
 30
0.000000
  70
    32
  0
VERTEX
  8
0
  5
2C73
 10
36.7879
 20
82.2774
 30
0.000000
  70
    32
  0
VERTEX
  8
0
  5
2C74
 10
36.7876
 20
82.2750
 30
0.000000
  70
    32
  0
VERTEX
  8
0
  5
2C75
 10
36.7873
 20
82.2726
 30
0.000000
  70
    32
  0
VERTEX
  8
0
  5
2C76
 10
36.7870
 20
82.2702
 30
0.000000
  70
    32
  0
VERTEX
  8
0
  5
2C77
 10
36.7867
 20
82.2680
 30
0.000000
  70
    32
  0
VERTEX
  8
0
  5
2C78
 10
36.7864
 20
82.2657
 30
0.000000
  70
    32
  0
VERTEX
  8
0
  5
2C79
 10
36.7861
 20
82.2636
 30
0.000000
  70
    32
  0
VERTEX
  8
0
  5
2C7A
 10
36.7858
 20
82.2615
 30
0.000000
  70
    32
  0
VERTEX
  8
0
  5
2C7B
 10
36.7855
 20
82.2594
 30
0.000000
  70
    32
  0
VERTEX
  8
0
  5
2C7C
 10
36.7852
 20
82.2574
 30
0.000000
  70
    32
  0
VERTEX
  8
0
  5
2C7D
 10
36.7849
 20
82.2555
 30
0.000000
  70
    32
  0
VERTEX
  8
0
  5
2C7E
 10
36.7846
 20
82.2536
 30
0.000000
  70
    32
  0
VERTEX
  8
0
  5
2C7F
 10
36.7843
 20
82.2518
 30
0.000000
  70
    32
  0
VERTEX
  8
0
  5
2C80
 10
36.7840
 20
82.2501
 30
0.000000
  70
    32
  0
VERTEX
  8
0
  5
2C81
 10
36.7837
 20
82.2484
 30
0.000000
  70
    32
  0
VERTEX
  8
0
  5
2C82
 10
36.7834
 20
82.2467
 30
0.000000
  70
    32
  0
VERTEX
  8
0
  5
2C83
 10
36.7831
 20
82.2452
 30
0.000000
  70
    32
  0
VERTEX
  8
0
  5
2C84
 10
36.7828
 20
82.2436
 30
0.000000
  70
    32
  0
VERTEX
  8
0
  5
2C85
 10
36.7825
 20
82.2422
 30
0.000000
  70
    32
  0
VERTEX
  8
0
  5
2C86
 10
36.7822
 20
82.2408
 30
0.000000
  70
    32
  0
VERTEX
  8
0
  5
2C87
 10
36.7819
 20
82.2394
 30
0.000000
  70
    32
  0
VERTEX
  8
0
  5
2C88
 10
36.7816
 20
82.2382
 30
0.000000
  70
    32
  0
VERTEX
  8
0
  5
2C89
 10
36.7813
 20
82.2369
 30
0.000000
  70
    32
  0
VERTEX
  8
0
  5
2C8A
 10
36.7810
 20
82.2358
 30
0.000000
  70
    32
  0
VERTEX
  8
0
  5
2C8B
 10
36.7807
 20
82.2347
 30
0.000000
  70
    32
  0
VERTEX
  8
0
  5
2C8C
 10
36.7804
 20
82.2336
 30
0.000000
  70
    32
  0
VERTEX
  8
0
  5
2C8D
 10
36.7801
 20
82.2326
 30
0.000000
  70
    32
  0
VERTEX
  8
0
  5
2C8E
 10
36.7798
 20
82.2317
 30
0.000000
  70
    32
  0
VERTEX
  8
0
  5
2C8F
 10
36.7795
 20
82.2309
 30
0.000000
  70
    32
  0
VERTEX
  8
0
  5
2C90
 10
36.7792
 20
82.2300
 30
0.000000
  70
    32
  0
VERTEX
  8
0
  5
2C91
 10
36.7789
 20
82.2293
 30
0.000000
  70
    32
  0
VERTEX
  8
0
  5
2C92
 10
36.7786
 20
82.2286
 30
0.000000
  70
    32
  0
VERTEX
  8
0
  5
2C93
 10
36.7783
 20
82.2280
 30
0.000000
  70
    32
  0
VERTEX
  8
0
  5
2C94
 10
36.7780
 20
82.2274
 30
0.000000
  70
    32
  0
VERTEX
  8
0
  5
2C95
 10
36.7777
 20
82.2269
 30
0.000000
  70
    32
  0
VERTEX
  8
0
  5
2C96
 10
36.7774
 20
82.2265
 30
0.000000
  70
    32
  0
VERTEX
  8
0
  5
2C97
 10
36.7771
 20
82.2261
 30
0.000000
  70
    32
  0
VERTEX
  8
0
  5
2C98
 10
36.7768
 20
82.2257
 30
0.000000
  70
    32
  0
VERTEX
  8
0
  5
2C99
 10
36.7765
 20
82.2255
 30
0.000000
  70
    32
  0
VERTEX
  8
0
  5
2C9A
 10
36.7762
 20
82.2253
 30
0.000000
  70
    32
  0
VERTEX
  8
0
  5
2C9B
 10
36.7759
 20
82.2251
 30
0.000000
  70
    32
  0
VERTEX
  8
0
  5
2C9C
 10
36.7756
 20
82.2250
 30
0.000000
  70
    32
  0
VERTEX
  8
0
  5
2C9D
 10
36.7753
 20
82.2250
 30
0.000000
  70
    32
  0
SEQEND
  8
0
  5
2C9E
  0
ARC
  5
2600
  8
0
 10
88.829000000000036
 20
106.24704999873001
 30
0.0
 40
0.2540000000000178
 50
180.0
 51
270.0
  0
ARC
  5
2601
  8
0
 10
88.829000000000036
 20
96.302949998730028
 30
0.0
 40
0.2539999999999949
 50
90.0
 51
180.0
  0
LINE
  5
2602
  8
0
 10
88.829000000000036
 20
105.99304999873
 30
0.0
 11
93.337500000000077
 21
105.99304999873
 31
0.0
  0
LINE
  5
2603
  8
0
 10
93.337500000000077
 20
96.556949998730062
 30
0.0
 11
88.829000000000036
 21
96.556949998730062
 31
0.0
  0
LINE
  5
260A
  8
0
 10
82.225000000000094
 20
112.38749999872999
 30
0.0
 11
88.575000000000074
 21
112.38749999872999
 31
0.0
  0
POLYLINE
  5
260B
  8
0
 10
84.631252375185682
 20
112.38749999872998
 30
0.0
 66
     1
 70
     8
  0
VERTEX
  8
0
  5
2C9F
 10
84.6313
 20
112.387
 30
0.000000
  70
    32
  0
VERTEX
  8
0
  5
2CA0
 10
84.6725
 20
112.261
 30
0.000000
  70
    32
  0
VERTEX
  8
0
  5
2CA1
 10
84.7132
 20
112.133
 30
0.000000
  70
    32
  0
VERTEX
  8
0
  5
2CA2
 10
84.7535
 20
112.003
 30
0.000000
  70
    32
  0
VERTEX
  8
0
  5
2CA3
 10
84.7933
 20
111.870
 30
0.000000
  70
    32
  0
VERTEX
  8
0
  5
2CA4
 10
84.8326
 20
111.736
 30
0.000000
  70
    32
  0
VERTEX
  8
0
  5
2CA5
 10
84.8713
 20
111.599
 30
0.000000
  70
    32
  0
VERTEX
  8
0
  5
2CA6
 10
84.9096
 20
111.461
 30
0.000000
  70
    32
  0
VERTEX
  8
0
  5
2CA7
 10
84.9473
 20
111.320
 30
0.000000
  70
    32
  0
VERTEX
  8
0
  5
2CA8
 10
84.9845
 20
111.178
 30
0.000000
  70
    32
  0
VERTEX
  8
0
  5
2CA9
 10
85.0212
 20
111.034
 30
0.000000
  70
    32
  0
VERTEX
  8
0
  5
2CAA
 10
85.0574
 20
110.887
 30
0.000000
  70
    32
  0
VERTEX
  8
0
  5
2CAB
 10
85.0929
 20
110.739
 30
0.000000
  70
    32
  0
VERTEX
  8
0
  5
2CAC
 10
85.1280
 20
110.589
 30
0.000000
  70
    32
  0
VERTEX
  8
0
  5
2CAD
 10
85.1624
 20
110.438
 30
0.000000
  70
    32
  0
VERTEX
  8
0
  5
2CAE
 10
85.1963
 20
110.284
 30
0.000000
  70
    32
  0
VERTEX
  8
0
  5
2CAF
 10
85.2297
 20
110.129
 30
0.000000
  70
    32
  0
VERTEX
  8
0
  5
2CB0
 10
85.2624
 20
109.972
 30
0.000000
  70
    32
  0
VERTEX
  8
0
  5
2CB1
 10
85.2946
 20
109.813
 30
0.000000
  70
    32
  0
VERTEX
  8
0
  5
2CB2
 10
85.3261
 20
109.653
 30
0.000000
  70
    32
  0
VERTEX
  8
0
  5
2CB3
 10
85.3571
 20
109.491
 30
0.000000
  70
    32
  0
VERTEX
  8
0
  5
2CB4
 10
85.3874
 20
109.327
 30
0.000000
  70
    32
  0
VERTEX
  8
0
  5
2CB5
 10
85.4171
 20
109.162
 30
0.000000
  70
    32
  0
VERTEX
  8
0
  5
2CB6
 10
85.4463
 20
108.996
 30
0.000000
  70
    32
  0
VERTEX
  8
0
  5
2CB7
 10
85.4748
 20
108.827
 30
0.000000
  70
    32
  0
VERTEX
  8
0
  5
2CB8
 10
85.5026
 20
108.658
 30
0.000000
  70
    32
  0
VERTEX
  8
0
  5
2CB9
 10
85.5298
 20
108.487
 30
0.000000
  70
    32
  0
VERTEX
  8
0
  5
2CBA
 10
85.5564
 20
108.314
 30
0.000000
  70
    32
  0
VERTEX
  8
0
  5
2CBB
 10
85.5824
 20
108.141
 30
0.000000
  70
    32
  0
VERTEX
  8
0
  5
2CBC
 10
85.6076
 20
107.965
 30
0.000000
  70
    32
  0
VERTEX
  8
0
  5
2CBD
 10
85.6323
 20
107.789
 30
0.000000
  70
    32
  0
VERTEX
  8
0
  5
2CBE
 10
85.6563
 20
107.611
 30
0.000000
  70
    32
  0
VERTEX
  8
0
  5
2CBF
 10
85.6796
 20
107.432
 30
0.000000
  70
    32
  0
VERTEX
  8
0
  5
2CC0
 10
85.7022
 20
107.252
 30
0.000000
  70
    32
  0
VERTEX
  8
0
  5
2CC1
 10
85.7242
 20
107.071
 30
0.000000
  70
    32
  0
VERTEX
  8
0
  5
2CC2
 10
85.7454
 20
106.889
 30
0.000000
  70
    32
  0
VERTEX
  8
0
  5
2CC3
 10
85.7660
 20
106.705
 30
0.000000
  70
    32
  0
VERTEX
  8
0
  5
2CC4
 10
85.7860
 20
106.521
 30
0.000000
  70
    32
  0
VERTEX
  8
0
  5
2CC5
 10
85.8052
 20
106.335
 30
0.000000
  70
    32
  0
VERTEX
  8
0
  5
2CC6
 10
85.8237
 20
106.149
 30
0.000000
  70
    32
  0
VERTEX
  8
0
  5
2CC7
 10
85.8416
 20
105.961
 30
0.000000
  70
    32
  0
VERTEX
  8
0
  5
2CC8
 10
85.8587
 20
105.773
 30
0.000000
  70
    32
  0
VERTEX
  8
0
  5
2CC9
 10
85.8751
 20
105.583
 30
0.000000
  70
    32
  0
VERTEX
  8
0
  5
2CCA
 10
85.8908
 20
105.393
 30
0.000000
  70
    32
  0
VERTEX
  8
0
  5
2CCB
 10
85.9058
 20
105.202
 30
0.000000
  70
    32
  0
VERTEX
  8
0
  5
2CCC
 10
85.9201
 20
105.011
 30
0.000000
  70
    32
  0
VERTEX
  8
0
  5
2CCD
 10
85.9337
 20
104.818
 30
0.000000
  70
    32
  0
VERTEX
  8
0
  5
2CCE
 10
85.9466
 20
104.625
 30
0.000000
  70
    32
  0
VERTEX
  8
0
  5
2CCF
 10
85.9587
 20
104.432
 30
0.000000
  70
    32
  0
VERTEX
  8
0
  5
2CD0
 10
85.9701
 20
104.237
 30
0.000000
  70
    32
  0
VERTEX
  8
0
  5
2CD1
 10
85.9808
 20
104.043
 30
0.000000
  70
    32
  0
VERTEX
  8
0
  5
2CD2
 10
85.9908
 20
103.847
 30
0.000000
  70
    32
  0
VERTEX
  8
0
  5
2CD3
 10
86.0000
 20
103.651
 30
0.000000
  70
    32
  0
VERTEX
  8
0
  5
2CD4
 10
86.0085
 20
103.455
 30
0.000000
  70
    32
  0
VERTEX
  8
0
  5
2CD5
 10
86.0163
 20
103.258
 30
0.000000
  70
    32
  0
VERTEX
  8
0
  5
2CD6
 10
86.0233
 20
103.061
 30
0.000000
  70
    32
  0
VERTEX
  8
0
  5
2CD7
 10
86.0296
 20
102.863
 30
0.000000
  70
    32
  0
VERTEX
  8
0
  5
2CD8
 10
86.0352
 20
102.665
 30
0.000000
  70
    32
  0
VERTEX
  8
0
  5
2CD9
 10
86.0400
 20
102.467
 30
0.000000
  70
    32
  0
VERTEX
  8
0
  5
2CDA
 10
86.0441
 20
102.269
 30
0.000000
  70
    32
  0
VERTEX
  8
0
  5
2CDB
 10
86.0474
 20
102.070
 30
0.000000
  70
    32
  0
VERTEX
  8
0
  5
2CDC
 10
86.0500
 20
101.872
 30
0.000000
  70
    32
  0
VERTEX
  8
0
  5
2CDD
 10
86.0518
 20
101.673
 30
0.000000
  70
    32
  0
VERTEX
  8
0
  5
2CDE
 10
86.0530
 20
101.474
 30
0.000000
  70
    32
  0
VERTEX
  8
0
  5
2CDF
 10
86.0533
 20
101.275
 30
0.000000
  70
    32
  0
VERTEX
  8
0
  5
2CE0
 10
86.0530
 20
101.076
 30
0.000000
  70
    32
  0
VERTEX
  8
0
  5
2CE1
 10
86.0518
 20
100.877
 30
0.000000
  70
    32
  0
VERTEX
  8
0
  5
2CE2
 10
86.0500
 20
100.678
 30
0.000000
  70
    32
  0
VERTEX
  8
0
  5
2CE3
 10
86.0474
 20
100.480
 30
0.000000
  70
    32
  0
VERTEX
  8
0
  5
2CE4
 10
86.0441
 20
100.281
 30
0.000000
  70
    32
  0
VERTEX
  8
0
  5
2CE5
 10
86.0400
 20
100.083
 30
0.000000
  70
    32
  0
VERTEX
  8
0
  5
2CE6
 10
86.0352
 20
99.8847
 30
0.000000
  70
    32
  0
VERTEX
  8
0
  5
2CE7
 10
86.0296
 20
99.6868
 30
0.000000
  70
    32
  0
VERTEX
  8
0
  5
2CE8
 10
86.0233
 20
99.4893
 30
0.000000
  70
    32
  0
VERTEX
  8
0
  5
2CE9
 10
86.0163
 20
99.2921
 30
0.000000
  70
    32
  0
VERTEX
  8
0
  5
2CEA
 10
86.0085
 20
99.0952
 30
0.000000
  70
    32
  0
VERTEX
  8
0
  5
2CEB
 10
86.0000
 20
98.8989
 30
0.000000
  70
    32
  0
VERTEX
  8
0
  5
2CEC
 10
85.9908
 20
98.7029
 30
0.000000
  70
    32
  0
VERTEX
  8
0
  5
2CED
 10
85.9808
 20
98.5075
 30
0.000000
  70
    32
  0
VERTEX
  8
0
  5
2CEE
 10
85.9701
 20
98.3126
 30
0.000000
  70
    32
  0
VERTEX
  8
0
  5
2CEF
 10
85.9587
 20
98.1183
 30
0.000000
  70
    32
  0
VERTEX
  8
0
  5
2CF0
 10
85.9466
 20
97.9246
 30
0.000000
  70
    32
  0
VERTEX
  8
0
  5
2CF1
 10
85.9337
 20
97.7315
 30
0.000000
  70
    32
  0
VERTEX
  8
0
  5
2CF2
 10
85.9201
 20
97.5391
 30
0.000000
  70
    32
  0
VERTEX
  8
0
  5
2CF3
 10
85.9058
 20
97.3475
 30
0.000000
  70
    32
  0
VERTEX
  8
0
  5
2CF4
 10
85.8908
 20
97.1566
 30
0.000000
  70
    32
  0
VERTEX
  8
0
  5
2CF5
 10
85.8751
 20
96.9665
 30
0.000000
  70
    32
  0
VERTEX
  8
0
  5
2CF6
 10
85.8587
 20
96.7773
 30
0.000000
  70
    32
  0
VERTEX
  8
0
  5
2CF7
 10
85.8416
 20
96.5889
 30
0.000000
  70
    32
  0
VERTEX
  8
0
  5
2CF8
 10
85.8237
 20
96.4014
 30
0.000000
  70
    32
  0
VERTEX
  8
0
  5
2CF9
 10
85.8052
 20
96.2149
 30
0.000000
  70
    32
  0
VERTEX
  8
0
  5
2CFA
 10
85.7860
 20
96.0294
 30
0.000000
  70
    32
  0
VERTEX
  8
0
  5
2CFB
 10
85.7660
 20
95.8448
 30
0.000000
  70
    32
  0
VERTEX
  8
0
  5
2CFC
 10
85.7454
 20
95.6614
 30
0.000000
  70
    32
  0
VERTEX
  8
0
  5
2CFD
 10
85.7242
 20
95.4790
 30
0.000000
  70
    32
  0
VERTEX
  8
0
  5
2CFE
 10
85.7022
 20
95.2977
 30
0.000000
  70
    32
  0
VERTEX
  8
0
  5
2CFF
 10
85.6796
 20
95.1176
 30
0.000000
  70
    32
  0
VERTEX
  8
0
  5
2D00
 10
85.6563
 20
94.9387
 30
0.000000
  70
    32
  0
VERTEX
  8
0
  5
2D01
 10
85.6323
 20
94.7610
 30
0.000000
  70
    32
  0
VERTEX
  8
0
  5
2D02
 10
85.6076
 20
94.5846
 30
0.000000
  70
    32
  0
VERTEX
  8
0
  5
2D03
 10
85.5824
 20
94.4095
 30
0.000000
  70
    32
  0
VERTEX
  8
0
  5
2D04
 10
85.5564
 20
94.2357
 30
0.000000
  70
    32
  0
VERTEX
  8
0
  5
2D05
 10
85.5298
 20
94.0632
 30
0.000000
  70
    32
  0
VERTEX
  8
0
  5
2D06
 10
85.5026
 20
93.8922
 30
0.000000
  70
    32
  0
VERTEX
  8
0
  5
2D07
 10
85.4748
 20
93.7226
 30
0.000000
  70
    32
  0
VERTEX
  8
0
  5
2D08
 10
85.4463
 20
93.5545
 30
0.000000
  70
    32
  0
VERTEX
  8
0
  5
2D09
 10
85.4171
 20
93.3878
 30
0.000000
  70
    32
  0
VERTEX
  8
0
  5
2D0A
 10
85.3874
 20
93.2227
 30
0.000000
  70
    32
  0
VERTEX
  8
0
  5
2D0B
 10
85.3571
 20
93.0592
 30
0.000000
  70
    32
  0
VERTEX
  8
0
  5
2D0C
 10
85.3261
 20
92.8972
 30
0.000000
  70
    32
  0
VERTEX
  8
0
  5
2D0D
 10
85.2946
 20
92.7369
 30
0.000000
  70
    32
  0
VERTEX
  8
0
  5
2D0E
 10
85.2624
 20
92.5782
 30
0.000000
  70
    32
  0
VERTEX
  8
0
  5
2D0F
 10
85.2297
 20
92.4212
 30
0.000000
  70
    32
  0
VERTEX
  8
0
  5
2D10
 10
85.1963
 20
92.2660
 30
0.000000
  70
    32
  0
VERTEX
  8
0
  5
2D11
 10
85.1624
 20
92.1124
 30
0.000000
  70
    32
  0
VERTEX
  8
0
  5
2D12
 10
85.1280
 20
91.9607
 30
0.000000
  70
    32
  0
VERTEX
  8
0
  5
2D13
 10
85.0929
 20
91.8108
 30
0.000000
  70
    32
  0
VERTEX
  8
0
  5
2D14
 10
85.0574
 20
91.6626
 30
0.000000
  70
    32
  0
VERTEX
  8
0
  5
2D15
 10
85.0212
 20
91.5164
 30
0.000000
  70
    32
  0
VERTEX
  8
0
  5
2D16
 10
84.9845
 20
91.3720
 30
0.000000
  70
    32
  0
VERTEX
  8
0
  5
2D17
 10
84.9473
 20
91.2296
 30
0.000000
  70
    32
  0
VERTEX
  8
0
  5
2D18
 10
84.9096
 20
91.0891
 30
0.000000
  70
    32
  0
VERTEX
  8
0
  5
2D19
 10
84.8713
 20
90.9506
 30
0.000000
  70
    32
  0
VERTEX
  8
0
  5
2D1A
 10
84.8326
 20
90.8141
 30
0.000000
  70
    32
  0
VERTEX
  8
0
  5
2D1B
 10
84.7933
 20
90.6796
 30
0.000000
  70
    32
  0
VERTEX
  8
0
  5
2D1C
 10
84.7535
 20
90.5472
 30
0.000000
  70
    32
  0
VERTEX
  8
0
  5
2D1D
 10
84.7132
 20
90.4169
 30
0.000000
  70
    32
  0
VERTEX
  8
0
  5
2D1E
 10
84.6725
 20
90.2886
 30
0.000000
  70
    32
  0
VERTEX
  8
0
  5
2D1F
 10
84.6313
 20
90.1625
 30
0.000000
  70
    32
  0
SEQEND
  8
0
  5
2D20
  0
LINE
  5
260C
  8
0
 10
82.225000000000094
 20
90.162499998729984
 30
0.0
 11
88.575000000000074
 21
90.162499998729984
 31
0.0
  0
LINE
  5
260D
  8
0
 10
88.575000000000074
 20
112.38749999872999
 30
0.0
 11
88.575000000000074
 21
90.162499998729984
 31
0.0
  0
LINE
  5
260F
  8
0
 10
82.225000000000051
 20
90.162499998729984
 30
0.0
 11
82.225000000000051
 21
112.38749999872999
 31
0.0
  0
LINE
  5
2914
  8
0
 10
121.1759000000001
 20
35.06730000000001
 30
0.0
 11
118.7375000000001
 21
35.06730000000001
 31
0.0
  0
LINE
  5
2915
  8
0
 10
118.7375000000001
 20
40.807699999999997
 30
0.0
 11
121.1759000000001
 21
40.807699999999997
 31
0.0
  0
ARC
  5
2916
  8
0
 10
117.1284805561201
 20
37.9375
 30
0.0
 40
4.9618194444444841
 50
7.0570839042000744
 51
35.342100723997802
  0
ARC
  5
2917
  8
0
 10
117.1284805561201
 20
37.9375
 30
0.0
 40
4.9618194444444841
 50
324.65789927600218
 51
352.94291609579989
  0
LINE
  5
291F
  8
0
 10
93.337500000000077
 20
45.875
 30
0.0
 11
118.7375000000001
 21
45.875
 31
0.0
  0
LINE
  5
2920
  8
0
 10
121.1759000000001
 20
35.06730000000001
 30
0.0
 11
121.1759000000001
 21
37.3279
 31
0.0
  0
LINE
  5
2921
  8
0
 10
120.5663000000001
 20
37.3279
 30
0.0
 11
120.5663000000001
 21
38.5471
 31
0.0
  0
LINE
  5
2922
  8
0
 10
121.1759000000001
 20
38.5471
 30
0.0
 11
121.1759000000001
 21
40.807699999999997
 31
0.0
  0
LINE
  5
2923
  8
0
 10
122.05271044856001
 20
38.5471
 30
0.0
 11
120.5663000000001
 21
38.5471
 31
0.0
  0
LINE
  5
2924
  8
0
 10
120.5663000000001
 20
37.327900000000007
 30
0.0
 11
122.05271044856001
 21
37.3279
 31
0.0
  0
LINE
  5
2927
  8
0
 10
93.337500000000006
 20
30.000000000000011
 30
0.0
 11
118.7375000000001
 21
30.0
 31
0.0
  0
LINE
  5
2928
  8
0
 10
93.337500000000077
 20
37.142479999955832
 30
0.0
 11
118.7375000000001
 21
36.350000001428171
 31
0.0
  0
LINE
  5
2929
  8
0
 10
93.337500000000006
 20
30.0
 30
0.0
 11
93.337500000000077
 21
45.875
 31
0.0
  0
LINE
  5
292A
  8
0
 10
118.7375000000001
 20
45.875
 30
0.0
 11
118.7375000000001
 21
30.0
 31
0.0
  0
ARC
  5
2930
  8
2
 10
37.9375
 20
101.27500000000011
 30
0.0
 40
7.9375000000000169
 50
286.2119455843993
 51
73.788054415600712
  0
LINE
  5
2934
  8
2
 10
37.9375
 20
109.21250000000011
 30
0.0
 11
37.90271536801999
 21
109.21250000000011
 31
0.0
  0
ARC
  5
2935
  8
2
 10
37.905572789280029
 20
109.9938102941201
 30
0.0
 40
0.7813155196687691
 50
225.58921271639949
 51
269.79045767189967
  0
ARC
  5
2936
  8
2
 10
37.9375
 20
101.27500000000011
 30
0.0
 40
7.9375000000002496
 50
73.788054415600712
 51
90.0
  0
ARC
  5
2937
  8
2
 10
37.905946938900001
 20
92.555277896680082
 30
0.0
 40
0.7822287780508161
 50
90.236703106999528
 51
134.38362650470239
  0
LINE
  5
2938
  8
2
 10
37.9375
 20
93.337500000000091
 30
0.0
 11
37.90271536801999
 21
93.337500000000091
 31
0.0
  0
ARC
  5
2939
  8
2
 10
37.9375
 20
101.27500000000011
 30
0.0
 40
7.9374999999990736
 50
270.0
 51
286.2119455843993
  0
POLYLINE
  5
293A
  8
2
 10
37.11870559877724
 20
92.575499999996424
 30
0.0
 66
     1
 70
     8
  0
VERTEX
  8
2
  5
2D21
 10
37.1187
 20
92.5755
 30
0.000000
  70
    32
  0
VERTEX
  8
2
  5
2D22
 10
37.1189
 20
92.5802
 30
0.000000
  70
    32
  0
VERTEX
  8
2
  5
2D23
 10
37.1191
 20
92.5849
 30
0.000000
  70
    32
  0
VERTEX
  8
2
  5
2D24
 10
37.1193
 20
92.5895
 30
0.000000
  70
    32
  0
VERTEX
  8
2
  5
2D25
 10
37.1195
 20
92.5942
 30
0.000000
  70
    32
  0
VERTEX
  8
2
  5
2D26
 10
37.1198
 20
92.5989
 30
0.000000
  70
    32
  0
VERTEX
  8
2
  5
2D27
 10
37.1201
 20
92.6035
 30
0.000000
  70
    32
  0
VERTEX
  8
2
  5
2D28
 10
37.1204
 20
92.6082
 30
0.000000
  70
    32
  0
VERTEX
  8
2
  5
2D29
 10
37.1208
 20
92.6129
 30
0.000000
  70
    32
  0
VERTEX
  8
2
  5
2D2A
 10
37.1212
 20
92.6176
 30
0.000000
  70
    32
  0
VERTEX
  8
2
  5
2D2B
 10
37.1216
 20
92.6222
 30
0.000000
  70
    32
  0
VERTEX
  8
2
  5
2D2C
 10
37.1220
 20
92.6269
 30
0.000000
  70
    32
  0
VERTEX
  8
2
  5
2D2D
 10
37.1225
 20
92.6316
 30
0.000000
  70
    32
  0
VERTEX
  8
2
  5
2D2E
 10
37.1230
 20
92.6362
 30
0.000000
  70
    32
  0
VERTEX
  8
2
  5
2D2F
 10
37.1236
 20
92.6409
 30
0.000000
  70
    32
  0
VERTEX
  8
2
  5
2D30
 10
37.1241
 20
92.6455
 30
0.000000
  70
    32
  0
VERTEX
  8
2
  5
2D31
 10
37.1247
 20
92.6502
 30
0.000000
  70
    32
  0
VERTEX
  8
2
  5
2D32
 10
37.1253
 20
92.6548
 30
0.000000
  70
    32
  0
VERTEX
  8
2
  5
2D33
 10
37.1260
 20
92.6595
 30
0.000000
  70
    32
  0
VERTEX
  8
2
  5
2D34
 10
37.1266
 20
92.6641
 30
0.000000
  70
    32
  0
VERTEX
  8
2
  5
2D35
 10
37.1273
 20
92.6688
 30
0.000000
  70
    32
  0
VERTEX
  8
2
  5
2D36
 10
37.1281
 20
92.6734
 30
0.000000
  70
    32
  0
VERTEX
  8
2
  5
2D37
 10
37.1288
 20
92.6781
 30
0.000000
  70
    32
  0
VERTEX
  8
2
  5
2D38
 10
37.1296
 20
92.6827
 30
0.000000
  70
    32
  0
VERTEX
  8
2
  5
2D39
 10
37.1304
 20
92.6873
 30
0.000000
  70
    32
  0
VERTEX
  8
2
  5
2D3A
 10
37.1313
 20
92.6919
 30
0.000000
  70
    32
  0
VERTEX
  8
2
  5
2D3B
 10
37.1322
 20
92.6965
 30
0.000000
  70
    32
  0
VERTEX
  8
2
  5
2D3C
 10
37.1331
 20
92.7012
 30
0.000000
  70
    32
  0
VERTEX
  8
2
  5
2D3D
 10
37.1340
 20
92.7058
 30
0.000000
  70
    32
  0
VERTEX
  8
2
  5
2D3E
 10
37.1350
 20
92.7104
 30
0.000000
  70
    32
  0
VERTEX
  8
2
  5
2D3F
 10
37.1359
 20
92.7150
 30
0.000000
  70
    32
  0
VERTEX
  8
2
  5
2D40
 10
37.1370
 20
92.7196
 30
0.000000
  70
    32
  0
VERTEX
  8
2
  5
2D41
 10
37.1380
 20
92.7242
 30
0.000000
  70
    32
  0
VERTEX
  8
2
  5
2D42
 10
37.1391
 20
92.7287
 30
0.000000
  70
    32
  0
VERTEX
  8
2
  5
2D43
 10
37.1402
 20
92.7333
 30
0.000000
  70
    32
  0
VERTEX
  8
2
  5
2D44
 10
37.1413
 20
92.7379
 30
0.000000
  70
    32
  0
VERTEX
  8
2
  5
2D45
 10
37.1424
 20
92.7425
 30
0.000000
  70
    32
  0
VERTEX
  8
2
  5
2D46
 10
37.1436
 20
92.7470
 30
0.000000
  70
    32
  0
VERTEX
  8
2
  5
2D47
 10
37.1448
 20
92.7516
 30
0.000000
  70
    32
  0
VERTEX
  8
2
  5
2D48
 10
37.1461
 20
92.7561
 30
0.000000
  70
    32
  0
VERTEX
  8
2
  5
2D49
 10
37.1473
 20
92.7607
 30
0.000000
  70
    32
  0
VERTEX
  8
2
  5
2D4A
 10
37.1486
 20
92.7652
 30
0.000000
  70
    32
  0
VERTEX
  8
2
  5
2D4B
 10
37.1499
 20
92.7697
 30
0.000000
  70
    32
  0
VERTEX
  8
2
  5
2D4C
 10
37.1513
 20
92.7742
 30
0.000000
  70
    32
  0
VERTEX
  8
2
  5
2D4D
 10
37.1527
 20
92.7787
 30
0.000000
  70
    32
  0
VERTEX
  8
2
  5
2D4E
 10
37.1541
 20
92.7832
 30
0.000000
  70
    32
  0
VERTEX
  8
2
  5
2D4F
 10
37.1555
 20
92.7877
 30
0.000000
  70
    32
  0
VERTEX
  8
2
  5
2D50
 10
37.1570
 20
92.7922
 30
0.000000
  70
    32
  0
VERTEX
  8
2
  5
2D51
 10
37.1584
 20
92.7967
 30
0.000000
  70
    32
  0
VERTEX
  8
2
  5
2D52
 10
37.1599
 20
92.8012
 30
0.000000
  70
    32
  0
VERTEX
  8
2
  5
2D53
 10
37.1615
 20
92.8056
 30
0.000000
  70
    32
  0
VERTEX
  8
2
  5
2D54
 10
37.1630
 20
92.8101
 30
0.000000
  70
    32
  0
VERTEX
  8
2
  5
2D55
 10
37.1646
 20
92.8145
 30
0.000000
  70
    32
  0
VERTEX
  8
2
  5
2D56
 10
37.1663
 20
92.8190
 30
0.000000
  70
    32
  0
VERTEX
  8
2
  5
2D57
 10
37.1679
 20
92.8234
 30
0.000000
  70
    32
  0
VERTEX
  8
2
  5
2D58
 10
37.1696
 20
92.8278
 30
0.000000
  70
    32
  0
VERTEX
  8
2
  5
2D59
 10
37.1713
 20
92.8322
 30
0.000000
  70
    32
  0
VERTEX
  8
2
  5
2D5A
 10
37.1730
 20
92.8366
 30
0.000000
  70
    32
  0
VERTEX
  8
2
  5
2D5B
 10
37.1748
 20
92.8410
 30
0.000000
  70
    32
  0
VERTEX
  8
2
  5
2D5C
 10
37.1765
 20
92.8454
 30
0.000000
  70
    32
  0
VERTEX
  8
2
  5
2D5D
 10
37.1783
 20
92.8497
 30
0.000000
  70
    32
  0
VERTEX
  8
2
  5
2D5E
 10
37.1802
 20
92.8541
 30
0.000000
  70
    32
  0
VERTEX
  8
2
  5
2D5F
 10
37.1820
 20
92.8584
 30
0.000000
  70
    32
  0
VERTEX
  8
2
  5
2D60
 10
37.1839
 20
92.8628
 30
0.000000
  70
    32
  0
VERTEX
  8
2
  5
2D61
 10
37.1858
 20
92.8671
 30
0.000000
  70
    32
  0
VERTEX
  8
2
  5
2D62
 10
37.1878
 20
92.8714
 30
0.000000
  70
    32
  0
VERTEX
  8
2
  5
2D63
 10
37.1897
 20
92.8757
 30
0.000000
  70
    32
  0
VERTEX
  8
2
  5
2D64
 10
37.1917
 20
92.8800
 30
0.000000
  70
    32
  0
VERTEX
  8
2
  5
2D65
 10
37.1937
 20
92.8843
 30
0.000000
  70
    32
  0
VERTEX
  8
2
  5
2D66
 10
37.1958
 20
92.8886
 30
0.000000
  70
    32
  0
VERTEX
  8
2
  5
2D67
 10
37.1979
 20
92.8928
 30
0.000000
  70
    32
  0
VERTEX
  8
2
  5
2D68
 10
37.1999
 20
92.8971
 30
0.000000
  70
    32
  0
VERTEX
  8
2
  5
2D69
 10
37.2021
 20
92.9013
 30
0.000000
  70
    32
  0
VERTEX
  8
2
  5
2D6A
 10
37.2042
 20
92.9055
 30
0.000000
  70
    32
  0
VERTEX
  8
2
  5
2D6B
 10
37.2064
 20
92.9097
 30
0.000000
  70
    32
  0
VERTEX
  8
2
  5
2D6C
 10
37.2086
 20
92.9139
 30
0.000000
  70
    32
  0
VERTEX
  8
2
  5
2D6D
 10
37.2108
 20
92.9181
 30
0.000000
  70
    32
  0
VERTEX
  8
2
  5
2D6E
 10
37.2130
 20
92.9223
 30
0.000000
  70
    32
  0
VERTEX
  8
2
  5
2D6F
 10
37.2153
 20
92.9264
 30
0.000000
  70
    32
  0
VERTEX
  8
2
  5
2D70
 10
37.2176
 20
92.9306
 30
0.000000
  70
    32
  0
VERTEX
  8
2
  5
2D71
 10
37.2199
 20
92.9347
 30
0.000000
  70
    32
  0
VERTEX
  8
2
  5
2D72
 10
37.2223
 20
92.9388
 30
0.000000
  70
    32
  0
VERTEX
  8
2
  5
2D73
 10
37.2246
 20
92.9429
 30
0.000000
  70
    32
  0
VERTEX
  8
2
  5
2D74
 10
37.2270
 20
92.9470
 30
0.000000
  70
    32
  0
VERTEX
  8
2
  5
2D75
 10
37.2295
 20
92.9511
 30
0.000000
  70
    32
  0
VERTEX
  8
2
  5
2D76
 10
37.2319
 20
92.9551
 30
0.000000
  70
    32
  0
VERTEX
  8
2
  5
2D77
 10
37.2344
 20
92.9592
 30
0.000000
  70
    32
  0
VERTEX
  8
2
  5
2D78
 10
37.2369
 20
92.9632
 30
0.000000
  70
    32
  0
VERTEX
  8
2
  5
2D79
 10
37.2394
 20
92.9672
 30
0.000000
  70
    32
  0
VERTEX
  8
2
  5
2D7A
 10
37.2419
 20
92.9712
 30
0.000000
  70
    32
  0
VERTEX
  8
2
  5
2D7B
 10
37.2445
 20
92.9752
 30
0.000000
  70
    32
  0
VERTEX
  8
2
  5
2D7C
 10
37.2471
 20
92.9792
 30
0.000000
  70
    32
  0
VERTEX
  8
2
  5
2D7D
 10
37.2497
 20
92.9832
 30
0.000000
  70
    32
  0
VERTEX
  8
2
  5
2D7E
 10
37.2523
 20
92.9871
 30
0.000000
  70
    32
  0
VERTEX
  8
2
  5
2D7F
 10
37.2550
 20
92.9910
 30
0.000000
  70
    32
  0
VERTEX
  8
2
  5
2D80
 10
37.2577
 20
92.9949
 30
0.000000
  70
    32
  0
VERTEX
  8
2
  5
2D81
 10
37.2604
 20
92.9988
 30
0.000000
  70
    32
  0
VERTEX
  8
2
  5
2D82
 10
37.2631
 20
93.0027
 30
0.000000
  70
    32
  0
VERTEX
  8
2
  5
2D83
 10
37.2659
 20
93.0066
 30
0.000000
  70
    32
  0
VERTEX
  8
2
  5
2D84
 10
37.2687
 20
93.0104
 30
0.000000
  70
    32
  0
VERTEX
  8
2
  5
2D85
 10
37.2715
 20
93.0143
 30
0.000000
  70
    32
  0
VERTEX
  8
2
  5
2D86
 10
37.2743
 20
93.0181
 30
0.000000
  70
    32
  0
VERTEX
  8
2
  5
2D87
 10
37.2771
 20
93.0219
 30
0.000000
  70
    32
  0
VERTEX
  8
2
  5
2D88
 10
37.2800
 20
93.0257
 30
0.000000
  70
    32
  0
VERTEX
  8
2
  5
2D89
 10
37.2829
 20
93.0294
 30
0.000000
  70
    32
  0
VERTEX
  8
2
  5
2D8A
 10
37.2858
 20
93.0332
 30
0.000000
  70
    32
  0
VERTEX
  8
2
  5
2D8B
 10
37.2887
 20
93.0369
 30
0.000000
  70
    32
  0
VERTEX
  8
2
  5
2D8C
 10
37.2917
 20
93.0406
 30
0.000000
  70
    32
  0
VERTEX
  8
2
  5
2D8D
 10
37.2947
 20
93.0443
 30
0.000000
  70
    32
  0
VERTEX
  8
2
  5
2D8E
 10
37.2977
 20
93.0480
 30
0.000000
  70
    32
  0
VERTEX
  8
2
  5
2D8F
 10
37.3007
 20
93.0516
 30
0.000000
  70
    32
  0
VERTEX
  8
2
  5
2D90
 10
37.3038
 20
93.0553
 30
0.000000
  70
    32
  0
VERTEX
  8
2
  5
2D91
 10
37.3068
 20
93.0589
 30
0.000000
  70
    32
  0
VERTEX
  8
2
  5
2D92
 10
37.3099
 20
93.0625
 30
0.000000
  70
    32
  0
VERTEX
  8
2
  5
2D93
 10
37.3130
 20
93.0661
 30
0.000000
  70
    32
  0
VERTEX
  8
2
  5
2D94
 10
37.3162
 20
93.0697
 30
0.000000
  70
    32
  0
VERTEX
  8
2
  5
2D95
 10
37.3193
 20
93.0732
 30
0.000000
  70
    32
  0
VERTEX
  8
2
  5
2D96
 10
37.3225
 20
93.0767
 30
0.000000
  70
    32
  0
VERTEX
  8
2
  5
2D97
 10
37.3257
 20
93.0803
 30
0.000000
  70
    32
  0
VERTEX
  8
2
  5
2D98
 10
37.3289
 20
93.0838
 30
0.000000
  70
    32
  0
VERTEX
  8
2
  5
2D99
 10
37.3322
 20
93.0872
 30
0.000000
  70
    32
  0
VERTEX
  8
2
  5
2D9A
 10
37.3354
 20
93.0907
 30
0.000000
  70
    32
  0
VERTEX
  8
2
  5
2D9B
 10
37.3387
 20
93.0941
 30
0.000000
  70
    32
  0
VERTEX
  8
2
  5
2D9C
 10
37.3420
 20
93.0975
 30
0.000000
  70
    32
  0
VERTEX
  8
2
  5
2D9D
 10
37.3453
 20
93.1009
 30
0.000000
  70
    32
  0
VERTEX
  8
2
  5
2D9E
 10
37.3487
 20
93.1043
 30
0.000000
  70
    32
  0
VERTEX
  8
2
  5
2D9F
 10
37.3520
 20
93.1077
 30
0.000000
  70
    32
  0
VERTEX
  8
2
  5
2DA0
 10
37.3554
 20
93.1110
 30
0.000000
  70
    32
  0
VERTEX
  8
2
  5
2DA1
 10
37.3588
 20
93.1143
 30
0.000000
  70
    32
  0
SEQEND
  8
2
  5
2DA2
  0
POLYLINE
  5
293B
  8
2
 10
37.358809872974696
 20
109.4356846327412
 30
0.0
 66
     1
 70
     8
  0
VERTEX
  8
2
  5
2DA3
 10
37.3588
 20
109.436
 30
0.000000
  70
    32
  0
VERTEX
  8
2
  5
2DA4
 10
37.3554
 20
109.439
 30
0.000000
  70
    32
  0
VERTEX
  8
2
  5
2DA5
 10
37.3520
 20
109.442
 30
0.000000
  70
    32
  0
VERTEX
  8
2
  5
2DA6
 10
37.3487
 20
109.446
 30
0.000000
  70
    32
  0
VERTEX
  8
2
  5
2DA7
 10
37.3453
 20
109.449
 30
0.000000
  70
    32
  0
VERTEX
  8
2
  5
2DA8
 10
37.3420
 20
109.452
 30
0.000000
  70
    32
  0
VERTEX
  8
2
  5
2DA9
 10
37.3387
 20
109.456
 30
0.000000
  70
    32
  0
VERTEX
  8
2
  5
2DAA
 10
37.3354
 20
109.459
 30
0.000000
  70
    32
  0
VERTEX
  8
2
  5
2DAB
 10
37.3322
 20
109.463
 30
0.000000
  70
    32
  0
VERTEX
  8
2
  5
2DAC
 10
37.3289
 20
109.466
 30
0.000000
  70
    32
  0
VERTEX
  8
2
  5
2DAD
 10
37.3257
 20
109.470
 30
0.000000
  70
    32
  0
VERTEX
  8
2
  5
2DAE
 10
37.3225
 20
109.473
 30
0.000000
  70
    32
  0
VERTEX
  8
2
  5
2DAF
 10
37.3193
 20
109.477
 30
0.000000
  70
    32
  0
VERTEX
  8
2
  5
2DB0
 10
37.3162
 20
109.480
 30
0.000000
  70
    32
  0
VERTEX
  8
2
  5
2DB1
 10
37.3130
 20
109.484
 30
0.000000
  70
    32
  0
VERTEX
  8
2
  5
2DB2
 10
37.3099
 20
109.487
 30
0.000000
  70
    32
  0
VERTEX
  8
2
  5
2DB3
 10
37.3068
 20
109.491
 30
0.000000
  70
    32
  0
VERTEX
  8
2
  5
2DB4
 10
37.3038
 20
109.495
 30
0.000000
  70
    32
  0
VERTEX
  8
2
  5
2DB5
 10
37.3007
 20
109.498
 30
0.000000
  70
    32
  0
VERTEX
  8
2
  5
2DB6
 10
37.2977
 20
109.502
 30
0.000000
  70
    32
  0
VERTEX
  8
2
  5
2DB7
 10
37.2947
 20
109.506
 30
0.000000
  70
    32
  0
VERTEX
  8
2
  5
2DB8
 10
37.2917
 20
109.509
 30
0.000000
  70
    32
  0
VERTEX
  8
2
  5
2DB9
 10
37.2887
 20
109.513
 30
0.000000
  70
    32
  0
VERTEX
  8
2
  5
2DBA
 10
37.2858
 20
109.517
 30
0.000000
  70
    32
  0
VERTEX
  8
2
  5
2DBB
 10
37.2829
 20
109.521
 30
0.000000
  70
    32
  0
VERTEX
  8
2
  5
2DBC
 10
37.2800
 20
109.524
 30
0.000000
  70
    32
  0
VERTEX
  8
2
  5
2DBD
 10
37.2771
 20
109.528
 30
0.000000
  70
    32
  0
VERTEX
  8
2
  5
2DBE
 10
37.2743
 20
109.532
 30
0.000000
  70
    32
  0
VERTEX
  8
2
  5
2DBF
 10
37.2715
 20
109.536
 30
0.000000
  70
    32
  0
VERTEX
  8
2
  5
2DC0
 10
37.2687
 20
109.540
 30
0.000000
  70
    32
  0
VERTEX
  8
2
  5
2DC1
 10
37.2659
 20
109.543
 30
0.000000
  70
    32
  0
VERTEX
  8
2
  5
2DC2
 10
37.2631
 20
109.547
 30
0.000000
  70
    32
  0
VERTEX
  8
2
  5
2DC3
 10
37.2604
 20
109.551
 30
0.000000
  70
    32
  0
VERTEX
  8
2
  5
2DC4
 10
37.2577
 20
109.555
 30
0.000000
  70
    32
  0
VERTEX
  8
2
  5
2DC5
 10
37.2550
 20
109.559
 30
0.000000
  70
    32
  0
VERTEX
  8
2
  5
2DC6
 10
37.2523
 20
109.563
 30
0.000000
  70
    32
  0
VERTEX
  8
2
  5
2DC7
 10
37.2497
 20
109.567
 30
0.000000
  70
    32
  0
VERTEX
  8
2
  5
2DC8
 10
37.2471
 20
109.571
 30
0.000000
  70
    32
  0
VERTEX
  8
2
  5
2DC9
 10
37.2445
 20
109.575
 30
0.000000
  70
    32
  0
VERTEX
  8
2
  5
2DCA
 10
37.2419
 20
109.579
 30
0.000000
  70
    32
  0
VERTEX
  8
2
  5
2DCB
 10
37.2394
 20
109.583
 30
0.000000
  70
    32
  0
VERTEX
  8
2
  5
2DCC
 10
37.2369
 20
109.587
 30
0.000000
  70
    32
  0
VERTEX
  8
2
  5
2DCD
 10
37.2344
 20
109.591
 30
0.000000
  70
    32
  0
VERTEX
  8
2
  5
2DCE
 10
37.2319
 20
109.595
 30
0.000000
  70
    32
  0
VERTEX
  8
2
  5
2DCF
 10
37.2295
 20
109.599
 30
0.000000
  70
    32
  0
VERTEX
  8
2
  5
2DD0
 10
37.2270
 20
109.603
 30
0.000000
  70
    32
  0
VERTEX
  8
2
  5
2DD1
 10
37.2246
 20
109.607
 30
0.000000
  70
    32
  0
VERTEX
  8
2
  5
2DD2
 10
37.2223
 20
109.611
 30
0.000000
  70
    32
  0
VERTEX
  8
2
  5
2DD3
 10
37.2199
 20
109.615
 30
0.000000
  70
    32
  0
VERTEX
  8
2
  5
2DD4
 10
37.2176
 20
109.619
 30
0.000000
  70
    32
  0
VERTEX
  8
2
  5
2DD5
 10
37.2153
 20
109.624
 30
0.000000
  70
    32
  0
VERTEX
  8
2
  5
2DD6
 10
37.2130
 20
109.628
 30
0.000000
  70
    32
  0
VERTEX
  8
2
  5
2DD7
 10
37.2108
 20
109.632
 30
0.000000
  70
    32
  0
VERTEX
  8
2
  5
2DD8
 10
37.2086
 20
109.636
 30
0.000000
  70
    32
  0
VERTEX
  8
2
  5
2DD9
 10
37.2064
 20
109.640
 30
0.000000
  70
    32
  0
VERTEX
  8
2
  5
2DDA
 10
37.2042
 20
109.644
 30
0.000000
  70
    32
  0
VERTEX
  8
2
  5
2DDB
 10
37.2021
 20
109.649
 30
0.000000
  70
    32
  0
VERTEX
  8
2
  5
2DDC
 10
37.1999
 20
109.653
 30
0.000000
  70
    32
  0
VERTEX
  8
2
  5
2DDD
 10
37.1979
 20
109.657
 30
0.000000
  70
    32
  0
VERTEX
  8
2
  5
2DDE
 10
37.1958
 20
109.661
 30
0.000000
  70
    32
  0
VERTEX
  8
2
  5
2DDF
 10
37.1937
 20
109.666
 30
0.000000
  70
    32
  0
VERTEX
  8
2
  5
2DE0
 10
37.1917
 20
109.670
 30
0.000000
  70
    32
  0
VERTEX
  8
2
  5
2DE1
 10
37.1897
 20
109.674
 30
0.000000
  70
    32
  0
VERTEX
  8
2
  5
2DE2
 10
37.1878
 20
109.679
 30
0.000000
  70
    32
  0
VERTEX
  8
2
  5
2DE3
 10
37.1858
 20
109.683
 30
0.000000
  70
    32
  0
VERTEX
  8
2
  5
2DE4
 10
37.1839
 20
109.687
 30
0.000000
  70
    32
  0
VERTEX
  8
2
  5
2DE5
 10
37.1820
 20
109.692
 30
0.000000
  70
    32
  0
VERTEX
  8
2
  5
2DE6
 10
37.1802
 20
109.696
 30
0.000000
  70
    32
  0
VERTEX
  8
2
  5
2DE7
 10
37.1783
 20
109.700
 30
0.000000
  70
    32
  0
VERTEX
  8
2
  5
2DE8
 10
37.1765
 20
109.705
 30
0.000000
  70
    32
  0
VERTEX
  8
2
  5
2DE9
 10
37.1748
 20
109.709
 30
0.000000
  70
    32
  0
VERTEX
  8
2
  5
2DEA
 10
37.1730
 20
109.713
 30
0.000000
  70
    32
  0
VERTEX
  8
2
  5
2DEB
 10
37.1713
 20
109.718
 30
0.000000
  70
    32
  0
VERTEX
  8
2
  5
2DEC
 10
37.1696
 20
109.722
 30
0.000000
  70
    32
  0
VERTEX
  8
2
  5
2DED
 10
37.1679
 20
109.727
 30
0.000000
  70
    32
  0
VERTEX
  8
2
  5
2DEE
 10
37.1663
 20
109.731
 30
0.000000
  70
    32
  0
VERTEX
  8
2
  5
2DEF
 10
37.1646
 20
109.735
 30
0.000000
  70
    32
  0
VERTEX
  8
2
  5
2DF0
 10
37.1630
 20
109.740
 30
0.000000
  70
    32
  0
VERTEX
  8
2
  5
2DF1
 10
37.1615
 20
109.744
 30
0.000000
  70
    32
  0
VERTEX
  8
2
  5
2DF2
 10
37.1599
 20
109.749
 30
0.000000
  70
    32
  0
VERTEX
  8
2
  5
2DF3
 10
37.1584
 20
109.753
 30
0.000000
  70
    32
  0
VERTEX
  8
2
  5
2DF4
 10
37.1570
 20
109.758
 30
0.000000
  70
    32
  0
VERTEX
  8
2
  5
2DF5
 10
37.1555
 20
109.762
 30
0.000000
  70
    32
  0
VERTEX
  8
2
  5
2DF6
 10
37.1541
 20
109.767
 30
0.000000
  70
    32
  0
VERTEX
  8
2
  5
2DF7
 10
37.1527
 20
109.771
 30
0.000000
  70
    32
  0
VERTEX
  8
2
  5
2DF8
 10
37.1513
 20
109.776
 30
0.000000
  70
    32
  0
VERTEX
  8
2
  5
2DF9
 10
37.1499
 20
109.780
 30
0.000000
  70
    32
  0
VERTEX
  8
2
  5
2DFA
 10
37.1486
 20
109.785
 30
0.000000
  70
    32
  0
VERTEX
  8
2
  5
2DFB
 10
37.1473
 20
109.789
 30
0.000000
  70
    32
  0
VERTEX
  8
2
  5
2DFC
 10
37.1461
 20
109.794
 30
0.000000
  70
    32
  0
VERTEX
  8
2
  5
2DFD
 10
37.1448
 20
109.798
 30
0.000000
  70
    32
  0
VERTEX
  8
2
  5
2DFE
 10
37.1436
 20
109.803
 30
0.000000
  70
    32
  0
VERTEX
  8
2
  5
2DFF
 10
37.1424
 20
109.808
 30
0.000000
  70
    32
  0
VERTEX
  8
2
  5
2E00
 10
37.1413
 20
109.812
 30
0.000000
  70
    32
  0
VERTEX
  8
2
  5
2E01
 10
37.1402
 20
109.817
 30
0.000000
  70
    32
  0
VERTEX
  8
2
  5
2E02
 10
37.1391
 20
109.821
 30
0.000000
  70
    32
  0
VERTEX
  8
2
  5
2E03
 10
37.1380
 20
109.826
 30
0.000000
  70
    32
  0
VERTEX
  8
2
  5
2E04
 10
37.1370
 20
109.830
 30
0.000000
  70
    32
  0
VERTEX
  8
2
  5
2E05
 10
37.1359
 20
109.835
 30
0.000000
  70
    32
  0
VERTEX
  8
2
  5
2E06
 10
37.1350
 20
109.840
 30
0.000000
  70
    32
  0
VERTEX
  8
2
  5
2E07
 10
37.1340
 20
109.844
 30
0.000000
  70
    32
  0
VERTEX
  8
2
  5
2E08
 10
37.1331
 20
109.849
 30
0.000000
  70
    32
  0
VERTEX
  8
2
  5
2E09
 10
37.1322
 20
109.853
 30
0.000000
  70
    32
  0
VERTEX
  8
2
  5
2E0A
 10
37.1313
 20
109.858
 30
0.000000
  70
    32
  0
VERTEX
  8
2
  5
2E0B
 10
37.1304
 20
109.863
 30
0.000000
  70
    32
  0
VERTEX
  8
2
  5
2E0C
 10
37.1296
 20
109.867
 30
0.000000
  70
    32
  0
VERTEX
  8
2
  5
2E0D
 10
37.1288
 20
109.872
 30
0.000000
  70
    32
  0
VERTEX
  8
2
  5
2E0E
 10
37.1281
 20
109.877
 30
0.000000
  70
    32
  0
VERTEX
  8
2
  5
2E0F
 10
37.1273
 20
109.881
 30
0.000000
  70
    32
  0
VERTEX
  8
2
  5
2E10
 10
37.1266
 20
109.886
 30
0.000000
  70
    32
  0
VERTEX
  8
2
  5
2E11
 10
37.1260
 20
109.891
 30
0.000000
  70
    32
  0
VERTEX
  8
2
  5
2E12
 10
37.1253
 20
109.895
 30
0.000000
  70
    32
  0
VERTEX
  8
2
  5
2E13
 10
37.1247
 20
109.900
 30
0.000000
  70
    32
  0
VERTEX
  8
2
  5
2E14
 10
37.1241
 20
109.904
 30
0.000000
  70
    32
  0
VERTEX
  8
2
  5
2E15
 10
37.1236
 20
109.909
 30
0.000000
  70
    32
  0
VERTEX
  8
2
  5
2E16
 10
37.1230
 20
109.914
 30
0.000000
  70
    32
  0
VERTEX
  8
2
  5
2E17
 10
37.1225
 20
109.918
 30
0.000000
  70
    32
  0
VERTEX
  8
2
  5
2E18
 10
37.1220
 20
109.923
 30
0.000000
  70
    32
  0
VERTEX
  8
2
  5
2E19
 10
37.1216
 20
109.928
 30
0.000000
  70
    32
  0
VERTEX
  8
2
  5
2E1A
 10
37.1212
 20
109.932
 30
0.000000
  70
    32
  0
VERTEX
  8
2
  5
2E1B
 10
37.1208
 20
109.937
 30
0.000000
  70
    32
  0
VERTEX
  8
2
  5
2E1C
 10
37.1204
 20
109.942
 30
0.000000
  70
    32
  0
VERTEX
  8
2
  5
2E1D
 10
37.1201
 20
109.946
 30
0.000000
  70
    32
  0
VERTEX
  8
2
  5
2E1E
 10
37.1198
 20
109.951
 30
0.000000
  70
    32
  0
VERTEX
  8
2
  5
2E1F
 10
37.1195
 20
109.956
 30
0.000000
  70
    32
  0
VERTEX
  8
2
  5
2E20
 10
37.1193
 20
109.960
 30
0.000000
  70
    32
  0
VERTEX
  8
2
  5
2E21
 10
37.1191
 20
109.965
 30
0.000000
  70
    32
  0
VERTEX
  8
2
  5
2E22
 10
37.1189
 20
109.970
 30
0.000000
  70
    32
  0
VERTEX
  8
2
  5
2E23
 10
37.1187
 20
109.975
 30
0.000000
  70
    32
  0
SEQEND
  8
2
  5
2E24
  0
LINE
  5
293C
  8
2
 10
37.043420000139889
 20
112.3875
 30
0.0
 11
37.118705599999998
 21
109.97450000000011
 31
0.0
  0
LINE
  5
293D
  8
2
 10
37.118705599999998
 20
92.575500000000133
 30
0.0
 11
37.043420000139861
 21
90.162499999999966
 31
0.0
  0
POLYLINE
  5
2941
  8
2
 10
36.810276999772185
 20
82.689967984866385
 30
0.0
 66
     1
 70
     8
  0
VERTEX
  8
2
  5
2E25
 10
36.8103
 20
82.6900
 30
0.000000
  70
    32
  0
VERTEX
  8
2
  5
2E26
 10
36.8101
 20
82.6831
 30
0.000000
  70
    32
  0
VERTEX
  8
2
  5
2E27
 10
36.8098
 20
82.6763
 30
0.000000
  70
    32
  0
VERTEX
  8
2
  5
2E28
 10
36.8096
 20
82.6695
 30
0.000000
  70
    32
  0
VERTEX
  8
2
  5
2E29
 10
36.8094
 20
82.6628
 30
0.000000
  70
    32
  0
VERTEX
  8
2
  5
2E2A
 10
36.8092
 20
82.6561
 30
0.000000
  70
    32
  0
VERTEX
  8
2
  5
2E2B
 10
36.8090
 20
82.6494
 30
0.000000
  70
    32
  0
VERTEX
  8
2
  5
2E2C
 10
36.8087
 20
82.6428
 30
0.000000
  70
    32
  0
VERTEX
  8
2
  5
2E2D
 10
36.8085
 20
82.6362
 30
0.000000
  70
    32
  0
VERTEX
  8
2
  5
2E2E
 10
36.8083
 20
82.6297
 30
0.000000
  70
    32
  0
VERTEX
  8
2
  5
2E2F
 10
36.8081
 20
82.6232
 30
0.000000
  70
    32
  0
VERTEX
  8
2
  5
2E30
 10
36.8078
 20
82.6168
 30
0.000000
  70
    32
  0
VERTEX
  8
2
  5
2E31
 10
36.8076
 20
82.6104
 30
0.000000
  70
    32
  0
VERTEX
  8
2
  5
2E32
 10
36.8074
 20
82.6041
 30
0.000000
  70
    32
  0
VERTEX
  8
2
  5
2E33
 10
36.8071
 20
82.5978
 30
0.000000
  70
    32
  0
VERTEX
  8
2
  5
2E34
 10
36.8069
 20
82.5915
 30
0.000000
  70
    32
  0
VERTEX
  8
2
  5
2E35
 10
36.8067
 20
82.5853
 30
0.000000
  70
    32
  0
VERTEX
  8
2
  5
2E36
 10
36.8064
 20
82.5792
 30
0.000000
  70
    32
  0
VERTEX
  8
2
  5
2E37
 10
36.8062
 20
82.5731
 30
0.000000
  70
    32
  0
VERTEX
  8
2
  5
2E38
 10
36.8060
 20
82.5670
 30
0.000000
  70
    32
  0
VERTEX
  8
2
  5
2E39
 10
36.8057
 20
82.5610
 30
0.000000
  70
    32
  0
VERTEX
  8
2
  5
2E3A
 10
36.8055
 20
82.5550
 30
0.000000
  70
    32
  0
VERTEX
  8
2
  5
2E3B
 10
36.8052
 20
82.5491
 30
0.000000
  70
    32
  0
VERTEX
  8
2
  5
2E3C
 10
36.8050
 20
82.5432
 30
0.000000
  70
    32
  0
VERTEX
  8
2
  5
2E3D
 10
36.8048
 20
82.5374
 30
0.000000
  70
    32
  0
VERTEX
  8
2
  5
2E3E
 10
36.8045
 20
82.5316
 30
0.000000
  70
    32
  0
VERTEX
  8
2
  5
2E3F
 10
36.8043
 20
82.5259
 30
0.000000
  70
    32
  0
VERTEX
  8
2
  5
2E40
 10
36.8040
 20
82.5202
 30
0.000000
  70
    32
  0
VERTEX
  8
2
  5
2E41
 10
36.8038
 20
82.5146
 30
0.000000
  70
    32
  0
VERTEX
  8
2
  5
2E42
 10
36.8035
 20
82.5090
 30
0.000000
  70
    32
  0
VERTEX
  8
2
  5
2E43
 10
36.8033
 20
82.5035
 30
0.000000
  70
    32
  0
VERTEX
  8
2
  5
2E44
 10
36.8030
 20
82.4980
 30
0.000000
  70
    32
  0
VERTEX
  8
2
  5
2E45
 10
36.8028
 20
82.4925
 30
0.000000
  70
    32
  0
VERTEX
  8
2
  5
2E46
 10
36.8025
 20
82.4872
 30
0.000000
  70
    32
  0
VERTEX
  8
2
  5
2E47
 10
36.8023
 20
82.4818
 30
0.000000
  70
    32
  0
VERTEX
  8
2
  5
2E48
 10
36.8020
 20
82.4765
 30
0.000000
  70
    32
  0
VERTEX
  8
2
  5
2E49
 10
36.8018
 20
82.4713
 30
0.000000
  70
    32
  0
VERTEX
  8
2
  5
2E4A
 10
36.8015
 20
82.4661
 30
0.000000
  70
    32
  0
VERTEX
  8
2
  5
2E4B
 10
36.8012
 20
82.4610
 30
0.000000
  70
    32
  0
VERTEX
  8
2
  5
2E4C
 10
36.8010
 20
82.4559
 30
0.000000
  70
    32
  0
VERTEX
  8
2
  5
2E4D
 10
36.8007
 20
82.4509
 30
0.000000
  70
    32
  0
VERTEX
  8
2
  5
2E4E
 10
36.8005
 20
82.4459
 30
0.000000
  70
    32
  0
VERTEX
  8
2
  5
2E4F
 10
36.8002
 20
82.4409
 30
0.000000
  70
    32
  0
VERTEX
  8
2
  5
2E50
 10
36.7999
 20
82.4361
 30
0.000000
  70
    32
  0
VERTEX
  8
2
  5
2E51
 10
36.7997
 20
82.4312
 30
0.000000
  70
    32
  0
VERTEX
  8
2
  5
2E52
 10
36.7994
 20
82.4265
 30
0.000000
  70
    32
  0
VERTEX
  8
2
  5
2E53
 10
36.7991
 20
82.4217
 30
0.000000
  70
    32
  0
VERTEX
  8
2
  5
2E54
 10
36.7989
 20
82.4171
 30
0.000000
  70
    32
  0
VERTEX
  8
2
  5
2E55
 10
36.7986
 20
82.4124
 30
0.000000
  70
    32
  0
VERTEX
  8
2
  5
2E56
 10
36.7983
 20
82.4079
 30
0.000000
  70
    32
  0
VERTEX
  8
2
  5
2E57
 10
36.7981
 20
82.4034
 30
0.000000
  70
    32
  0
VERTEX
  8
2
  5
2E58
 10
36.7978
 20
82.3989
 30
0.000000
  70
    32
  0
VERTEX
  8
2
  5
2E59
 10
36.7975
 20
82.3945
 30
0.000000
  70
    32
  0
VERTEX
  8
2
  5
2E5A
 10
36.7973
 20
82.3902
 30
0.000000
  70
    32
  0
VERTEX
  8
2
  5
2E5B
 10
36.7970
 20
82.3859
 30
0.000000
  70
    32
  0
VERTEX
  8
2
  5
2E5C
 10
36.7967
 20
82.3816
 30
0.000000
  70
    32
  0
VERTEX
  8
2
  5
2E5D
 10
36.7964
 20
82.3774
 30
0.000000
  70
    32
  0
VERTEX
  8
2
  5
2E5E
 10
36.7962
 20
82.3733
 30
0.000000
  70
    32
  0
VERTEX
  8
2
  5
2E5F
 10
36.7959
 20
82.3692
 30
0.000000
  70
    32
  0
VERTEX
  8
2
  5
2E60
 10
36.7956
 20
82.3652
 30
0.000000
  70
    32
  0
VERTEX
  8
2
  5
2E61
 10
36.7953
 20
82.3612
 30
0.000000
  70
    32
  0
VERTEX
  8
2
  5
2E62
 10
36.7950
 20
82.3573
 30
0.000000
  70
    32
  0
VERTEX
  8
2
  5
2E63
 10
36.7948
 20
82.3534
 30
0.000000
  70
    32
  0
VERTEX
  8
2
  5
2E64
 10
36.7945
 20
82.3496
 30
0.000000
  70
    32
  0
VERTEX
  8
2
  5
2E65
 10
36.7942
 20
82.3458
 30
0.000000
  70
    32
  0
VERTEX
  8
2
  5
2E66
 10
36.7939
 20
82.3421
 30
0.000000
  70
    32
  0
VERTEX
  8
2
  5
2E67
 10
36.7936
 20
82.3385
 30
0.000000
  70
    32
  0
VERTEX
  8
2
  5
2E68
 10
36.7934
 20
82.3349
 30
0.000000
  70
    32
  0
VERTEX
  8
2
  5
2E69
 10
36.7931
 20
82.3314
 30
0.000000
  70
    32
  0
VERTEX
  8
2
  5
2E6A
 10
36.7928
 20
82.3279
 30
0.000000
  70
    32
  0
VERTEX
  8
2
  5
2E6B
 10
36.7925
 20
82.3245
 30
0.000000
  70
    32
  0
VERTEX
  8
2
  5
2E6C
 10
36.7922
 20
82.3211
 30
0.000000
  70
    32
  0
VERTEX
  8
2
  5
2E6D
 10
36.7919
 20
82.3178
 30
0.000000
  70
    32
  0
VERTEX
  8
2
  5
2E6E
 10
36.7917
 20
82.3145
 30
0.000000
  70
    32
  0
VERTEX
  8
2
  5
2E6F
 10
36.7914
 20
82.3113
 30
0.000000
  70
    32
  0
VERTEX
  8
2
  5
2E70
 10
36.7911
 20
82.3082
 30
0.000000
  70
    32
  0
VERTEX
  8
2
  5
2E71
 10
36.7908
 20
82.3051
 30
0.000000
  70
    32
  0
VERTEX
  8
2
  5
2E72
 10
36.7905
 20
82.3021
 30
0.000000
  70
    32
  0
VERTEX
  8
2
  5
2E73
 10
36.7902
 20
82.2991
 30
0.000000
  70
    32
  0
VERTEX
  8
2
  5
2E74
 10
36.7899
 20
82.2962
 30
0.000000
  70
    32
  0
VERTEX
  8
2
  5
2E75
 10
36.7896
 20
82.2934
 30
0.000000
  70
    32
  0
VERTEX
  8
2
  5
2E76
 10
36.7893
 20
82.2906
 30
0.000000
  70
    32
  0
VERTEX
  8
2
  5
2E77
 10
36.7890
 20
82.2878
 30
0.000000
  70
    32
  0
VERTEX
  8
2
  5
2E78
 10
36.7888
 20
82.2851
 30
0.000000
  70
    32
  0
VERTEX
  8
2
  5
2E79
 10
36.7885
 20
82.2825
 30
0.000000
  70
    32
  0
VERTEX
  8
2
  5
2E7A
 10
36.7882
 20
82.2799
 30
0.000000
  70
    32
  0
VERTEX
  8
2
  5
2E7B
 10
36.7879
 20
82.2774
 30
0.000000
  70
    32
  0
VERTEX
  8
2
  5
2E7C
 10
36.7876
 20
82.2750
 30
0.000000
  70
    32
  0
VERTEX
  8
2
  5
2E7D
 10
36.7873
 20
82.2726
 30
0.000000
  70
    32
  0
VERTEX
  8
2
  5
2E7E
 10
36.7870
 20
82.2702
 30
0.000000
  70
    32
  0
VERTEX
  8
2
  5
2E7F
 10
36.7867
 20
82.2680
 30
0.000000
  70
    32
  0
VERTEX
  8
2
  5
2E80
 10
36.7864
 20
82.2657
 30
0.000000
  70
    32
  0
VERTEX
  8
2
  5
2E81
 10
36.7861
 20
82.2636
 30
0.000000
  70
    32
  0
VERTEX
  8
2
  5
2E82
 10
36.7858
 20
82.2615
 30
0.000000
  70
    32
  0
VERTEX
  8
2
  5
2E83
 10
36.7855
 20
82.2594
 30
0.000000
  70
    32
  0
VERTEX
  8
2
  5
2E84
 10
36.7852
 20
82.2574
 30
0.000000
  70
    32
  0
VERTEX
  8
2
  5
2E85
 10
36.7849
 20
82.2555
 30
0.000000
  70
    32
  0
VERTEX
  8
2
  5
2E86
 10
36.7846
 20
82.2536
 30
0.000000
  70
    32
  0
VERTEX
  8
2
  5
2E87
 10
36.7843
 20
82.2518
 30
0.000000
  70
    32
  0
VERTEX
  8
2
  5
2E88
 10
36.7840
 20
82.2501
 30
0.000000
  70
    32
  0
VERTEX
  8
2
  5
2E89
 10
36.7837
 20
82.2484
 30
0.000000
  70
    32
  0
VERTEX
  8
2
  5
2E8A
 10
36.7834
 20
82.2467
 30
0.000000
  70
    32
  0
VERTEX
  8
2
  5
2E8B
 10
36.7831
 20
82.2452
 30
0.000000
  70
    32
  0
VERTEX
  8
2
  5
2E8C
 10
36.7828
 20
82.2436
 30
0.000000
  70
    32
  0
VERTEX
  8
2
  5
2E8D
 10
36.7825
 20
82.2422
 30
0.000000
  70
    32
  0
VERTEX
  8
2
  5
2E8E
 10
36.7822
 20
82.2408
 30
0.000000
  70
    32
  0
VERTEX
  8
2
  5
2E8F
 10
36.7819
 20
82.2394
 30
0.000000
  70
    32
  0
VERTEX
  8
2
  5
2E90
 10
36.7816
 20
82.2382
 30
0.000000
  70
    32
  0
VERTEX
  8
2
  5
2E91
 10
36.7813
 20
82.2369
 30
0.000000
  70
    32
  0
VERTEX
  8
2
  5
2E92
 10
36.7810
 20
82.2358
 30
0.000000
  70
    32
  0
VERTEX
  8
2
  5
2E93
 10
36.7807
 20
82.2347
 30
0.000000
  70
    32
  0
VERTEX
  8
2
  5
2E94
 10
36.7804
 20
82.2336
 30
0.000000
  70
    32
  0
VERTEX
  8
2
  5
2E95
 10
36.7801
 20
82.2326
 30
0.000000
  70
    32
  0
VERTEX
  8
2
  5
2E96
 10
36.7798
 20
82.2317
 30
0.000000
  70
    32
  0
VERTEX
  8
2
  5
2E97
 10
36.7795
 20
82.2309
 30
0.000000
  70
    32
  0
VERTEX
  8
2
  5
2E98
 10
36.7792
 20
82.2300
 30
0.000000
  70
    32
  0
VERTEX
  8
2
  5
2E99
 10
36.7789
 20
82.2293
 30
0.000000
  70
    32
  0
VERTEX
  8
2
  5
2E9A
 10
36.7786
 20
82.2286
 30
0.000000
  70
    32
  0
VERTEX
  8
2
  5
2E9B
 10
36.7783
 20
82.2280
 30
0.000000
  70
    32
  0
VERTEX
  8
2
  5
2E9C
 10
36.7780
 20
82.2274
 30
0.000000
  70
    32
  0
VERTEX
  8
2
  5
2E9D
 10
36.7777
 20
82.2269
 30
0.000000
  70
    32
  0
VERTEX
  8
2
  5
2E9E
 10
36.7774
 20
82.2265
 30
0.000000
  70
    32
  0
VERTEX
  8
2
  5
2E9F
 10
36.7771
 20
82.2261
 30
0.000000
  70
    32
  0
VERTEX
  8
2
  5
2EA0
 10
36.7768
 20
82.2257
 30
0.000000
  70
    32
  0
VERTEX
  8
2
  5
2EA1
 10
36.7765
 20
82.2255
 30
0.000000
  70
    32
  0
VERTEX
  8
2
  5
2EA2
 10
36.7762
 20
82.2253
 30
0.000000
  70
    32
  0
VERTEX
  8
2
  5
2EA3
 10
36.7759
 20
82.2251
 30
0.000000
  70
    32
  0
VERTEX
  8
2
  5
2EA4
 10
36.7756
 20
82.2250
 30
0.000000
  70
    32
  0
VERTEX
  8
2
  5
2EA5
 10
36.7753
 20
82.2250
 30
0.000000
  70
    32
  0
SEQEND
  8
2
  5
2EA6
  0
LINE
  5
2942
  8
0
 10
120.5663000000001
 20
98.404800000000009
 30
0.0
 11
118.7375000000001
 21
98.404800000000009
 31
0.0
  0
LINE
  5
2943
  8
0
 10
118.7375000000001
 20
104.1452
 30
0.0
 11
120.5663000000001
 21
104.1452
 31
0.0
  0
ARC
  5
294B
  8
0
 10
117.1284805561201
 20
101.27500000000001
 30
0.0
 40
4.9242298930154904
 50
325.27942700739823
 51
34.720572992601703
  0
LINE
  5
294C
  8
0
 10
121.1759000000001
 20
98.470283280260006
 30
0.0
 11
121.1759000000001
 21
104.07971671974001
 31
0.0
  0
LINE
  5
294D
  8
0
 10
120.5663000000001
 20
98.404800000000009
 30
0.0
 11
120.5663000000001
 21
98.470283280260006
 31
0.0
  0
LINE
  5
294E
  8
0
 10
120.5663000000001
 20
98.470283280260006
 30
0.0
 11
121.1759000000001
 21
98.470283280260006
 31
0.0
  0
LINE
  5
294F
  8
0
 10
121.1759000000001
 20
104.07971671974001
 30
0.0
 11
120.5663000000001
 21
104.07971671974001
 31
0.0
  0
LINE
  5
2950
  8
0
 10
120.5663000000001
 20
104.07971671974001
 30
0.0
 11
120.5663000000001
 21
104.1452
 31
0.0
  0
LINE
  5
2953
  8
0
 10
93.405943053360062
 20
109.21250000000001
 30
0.0
 11
118.7375000000001
 21
109.21250000000001
 31
0.0
  0
ARC
  5
2954
  8
0
 10
94.099500000000063
 20
108.89686926474
 30
0.0
 40
0.761999999887798
 50
155.53019947750059
 51
180.0000000018
  0
LINE
  5
2955
  8
0
 10
93.337500000000077
 20
93.653130735260007
 30
0.0
 11
93.337500000000077
 21
108.89686926474
 31
0.0
  0
ARC
  5
2956
  8
0
 10
94.099500000000063
 20
93.653130735260007
 30
0.0
 40
0.7620000000000965
 50
180.0
 51
204.46980052069981
  0
LINE
  5
2957
  8
0
 10
118.7375000000001
 20
93.337500000000006
 30
0.0
 11
93.405943053360062
 21
93.337500000000006
 31
0.0
  0
LINE
  5
2958
  8
0
 10
94.099500000000063
 20
109.97450000000001
 30
0.0
 11
93.560684633640079
 21
109.43568463363989
 31
0.0
  0
ARC
  5
2959
  8
0
 10
94.099500000000063
 20
108.89686926474
 30
0.0
 40
0.7619999999990221
 50
135.0000000000004
 51
155.53019947930011
  0
LINE
  5
295A
  8
0
 10
93.560684633640079
 20
93.114315366359975
 30
0.0
 11
94.099500000000063
 21
92.575500000000005
 31
0.0
  0
ARC
  5
295B
  8
0
 10
94.099500000000063
 20
93.653130735260007
 30
0.0
 40
0.761999999999182
 50
204.46980052069981
 51
224.9999999999996
  0
ARC
  5
295C
  8
0
 10
117.15000000000001
 20
118.7375
 30
0.0
 40
1.5875000000000099
 50
0.0
 51
90.0
  0
LINE
  5
295D
  8
0
 10
117.15000000000001
 20
120.325
 30
0.0
 11
105.1075640315801
 21
120.325
 31
0.0
  0
ARC
  5
295E
  8
0
 10
105.1075640315801
 20
118.7375
 30
0.0
 40
1.587499999999999
 50
90.0
 51
135.0000000000004
  0
LINE
  5
295F
  8
0
 10
105.9105
 20
118.10249999999991
 30
0.0
 11
114.54649999999999
 21
118.10249999999991
 31
0.0
  0
ARC
  5
2960
  8
0
 10
114.54649999999999
 20
115.5625
 30
0.0
 40
2.540000000000012
 50
270.0
 51
90.0
  0
LINE
  5
2961
  8
0
 10
114.54649999999999
 20
113.02249999999999
 30
0.0
 11
105.9105
 21
113.02249999999999
 31
0.0
  0
ARC
  5
2962
  8
0
 10
105.9105
 20
115.5625
 30
0.0
 40
2.540000000000012
 50
90.0
 51
270.0
  0
LINE
  5
2963
  8
0
 10
103.98503201452
 20
119.86003201452
 30
0.0
 11
94.099500000000063
 21
109.97450000000001
 31
0.0
  0
ARC
  5
2964
  8
0
 10
105.1075640315801
 20
83.812500000000014
 30
0.0
 40
1.587499999999997
 50
224.9999999999996
 51
270.0
  0
LINE
  5
2965
  8
0
 10
105.1075640315801
 20
82.225000000000009
 30
0.0
 11
117.15000000000001
 21
82.225000000000009
 31
0.0
  0
ARC
  5
2966
  8
0
 10
117.15000000000001
 20
83.812500000000014
 30
0.0
 40
1.587499999999999
 50
270.0
 51
0.0
  0
LINE
  5
2967
  8
0
 10
105.9105
 20
89.527499999999989
 30
0.0
 11
114.54649999999999
 21
89.527499999999989
 31
0.0
  0
ARC
  5
2968
  8
0
 10
114.54649999999999
 20
86.987499999999997
 30
0.0
 40
2.540000000000012
 50
270.0
 51
90.0
  0
LINE
  5
2969
  8
0
 10
114.54649999999999
 20
84.447500000000005
 30
0.0
 11
105.9105
 21
84.447500000000005
 31
0.0
  0
ARC
  5
296A
  8
0
 10
105.9105
 20
86.987499999999997
 30
0.0
 40
2.540000000000012
 50
90.0
 51
270.0
  0
LINE
  5
296B
  8
0
 10
94.099500000000063
 20
92.575500000000005
 30
0.0
 11
103.98503201452
 21
82.689967985479996
 31
0.0
  0
LINE
  5
296C
  8
0
 10
118.7375000000001
 20
118.7375
 30
0.0
 11
118.7375000000001
 21
83.812500000000014
 31
0.0
  0
LINE
  5
296F
  8
0
 10
104.4499999999999
 20
30.000000000000011
 30
0.0
 11
104.4499999999999
 21
36.795769999791112
 31
0.0
  0
LINE
  5
2970
  8
1
 10
124.5527104491355
 20
101.27500000000001
 30
0.0
 11
79.725000000000051
 21
101.27500000000001
 31
0.0
  0
LINE
  5
2971
  8
1
 10
54.725000000000051
 20
101.27500000000011
 30
0.0
 11
27.94450000000003
 21
101.27500000000011
 31
0.0
  0
LINE
  5
2972
  8
1
 10
79.725000000000051
 20
37.9375
 30
0.0
 11
124.5527104491355
 21
37.9375
 31
0.0
  0
LINE
  5
2973
  8
2
 10
30.0
 20
118.10250000000011
 30
0.0
 11
36.865112000471129
 21
118.10250000000011
 31
0.0
  0
LINE
  5
2974
  8
2
 10
30.0
 20
113.02250000000009
 30
0.0
 11
37.023608000176687
 21
113.02250000000009
 31
0.0
  0
LINE
  5
2975
  8
2
 10
30.0
 20
89.527500000000074
 30
0.0
 11
37.023608000176687
 21
89.527500000000074
 31
0.0
  0
LINE
  5
2976
  8
2
 10
30.0
 20
84.447500000000105
 30
0.0
 11
36.865112000471129
 21
84.447500000000105
 31
0.0
  0
LINE
  5
2977
  8
1
 10
29.0
 20
115.5625000000001
 30
0.0
 11
37.944846601931602
 21
115.5625000000001
 31
0.0
  0
LINE
  5
2978
  8
1
 10
102.37050000000001
 20
115.5625
 30
0.0
 11
118.0865000000001
 21
115.5625
 31
0.0
  0
LINE
  5
2979
  8
1
 10
29.0
 20
86.987500000000097
 30
0.0
 11
37.944846601931552
 21
86.987500000000125
 31
0.0
  0
LINE
  5
297A
  8
1
 10
102.37050000000001
 20
86.987499999999997
 30
0.0
 11
118.0865000000001
 21
86.987499999999997
 31
0.0
  0
LINE
  5
297B
  8
1
 10
114.54649999999999
 20
119.10250000000001
 30
0.0
 11
114.54649999999999
 21
112.02249999999999
 31
0.0
  0
LINE
  5
297C
  8
1
 10
114.54649999999999
 20
90.527500000000003
 30
0.0
 11
114.54649999999999
 21
83.447500000000005
 31
0.0
  0
LINE
  5
297D
  8
1
 10
105.9105
 20
119.10250000000001
 30
0.0
 11
105.9105
 21
112.02249999999999
 31
0.0
  0
LINE
  5
297E
  8
1
 10
105.9105
 20
90.527500000000003
 30
0.0
 11
105.9105
 21
83.447500000000005
 31
0.0
  0
LINE
  5
297F
  8
1
 10
37.9375
 20
113.3875
 30
0.0
 11
37.9375
 21
89.16249999999998
 31
0.0
  0
ENDSEC
  0
EOF
