  0
SECTION
  2
HEADER
  9
$ACADVER
  1
AC1009
  9
$INSBASE
 10
0.0
 20
0.0
 30
0.0
  9
$EXTMIN
 10
0.0
 20
-2.960436562073669
 30
0.0
  9
$EXTMAX
 10
113.07679783824381
 20
105.593
 30
0.0
  9
$LIMMIN
 10
0.0
 20
0.0
  9
$LIMMAX
 10
12.0
 20
9.0
  9
$ORTHOMODE
 70
     1
  9
$REGENMODE
 70
     1
  9
$FILLMODE
 70
     1
  9
$QTEXTMODE
 70
     0
  9
$MIRRTEXT
 70
     0
  9
$DRAGMODE
 70
     2
  9
$LTSCALE
 40
5.0
  9
$OSMODE
 70
    37
  9
$ATTMODE
 70
     1
  9
$TEXTSIZE
 40
0.2
  9
$TRACEWID
 40
0.05
  9
$TEXTSTYLE
  7
STANDARD
  9
$CLAYER
  8
0
  9
$CELTYPE
  6
BYLAYER
  9
$CECOLOR
 62
   256
  9
$DIMSCALE
 40
1.0
  9
$DIMASZ
 40
0.18
  9
$DIMEXO
 40
0.0625
  9
$DIMDLI
 40
0.38
  9
$DIMRND
 40
0.0
  9
$DIMDLE
 40
0.0
  9
$DIMEXE
 40
0.18
  9
$DIMTP
 40
0.0
  9
$DIMTM
 40
0.0
  9
$DIMTXT
 40
0.18
  9
$DIMCEN
 40
0.09
  9
$DIMTSZ
 40
0.0
  9
$DIMTOL
 70
     0
  9
$DIMLIM
 70
     0
  9
$DIMTIH
 70
     1
  9
$DIMTOH
 70
     1
  9
$DIMSE1
 70
     0
  9
$DIMSE2
 70
     0
  9
$DIMTAD
 70
     0
  9
$DIMZIN
 70
     0
  9
$DIMBLK
  1

  9
$DIMASO
 70
     1
  9
$DIMSHO
 70
     1
  9
$DIMPOST
  1

  9
$DIMAPOST
  1

  9
$DIMALT
 70
     0
  9
$DIMALTD
 70
     2
  9
$DIMALTF
 40
25.399999999999999
  9
$DIMLFAC
 40
1.0
  9
$DIMTOFL
 70
     0
  9
$DIMTVP
 40
0.0
  9
$DIMTIX
 70
     0
  9
$DIMSOXD
 70
     0
  9
$DIMSAH
 70
     0
  9
$DIMBLK1
  1

  9
$DIMBLK2
  1

  9
$DIMSTYLE
  2
STANDARD
  9
$DIMCLRD
 70
     0
  9
$DIMCLRE
 70
     0
  9
$DIMCLRT
 70
     0
  9
$DIMTFAC
 40
1.0
  9
$DIMGAP
 40
0.09
  9
$LUNITS
 70
     2
  9
$LUPREC
 70
     4
  9
$SKETCHINC
 40
0.1
  9
$FILLETRAD
 40
2.5
  9
$AUNITS
 70
     0
  9
$AUPREC
 70
     0
  9
$MENU
  1
.
  9
$ELEVATION
 40
0.0
  9
$PELEVATION
 40
0.0
  9
$THICKNESS
 40
0.0
  9
$LIMCHECK
 70
     0
  9
$BLIPMODE
 70
     0
  9
$CHAMFERA
 40
0.25
  9
$CHAMFERB
 40
0.25
  9
$SKPOLY
 70
     0
  9
$TDCREATE
 40
2453083.4120647679
  9
$TDUPDATE
 40
2456980.597026655
  9
$TDINDWG
 40
0.4331814468
  9
$TDUSRTIMER
 40
0.433181331
  9
$USRTIMER
 70
     1
  9
$ANGBASE
 50
0.0
  9
$ANGDIR
 70
     0
  9
$PDMODE
 70
     0
  9
$PDSIZE
 40
0.0
  9
$PLINEWID
 40
0.0
  9
$COORDS
 70
     1
  9
$SPLFRAME
 70
     0
  9
$SPLINETYPE
 70
     6
  9
$SPLINESEGS
 70
     8
  9
$ATTDIA
 70
     0
  9
$ATTREQ
 70
     1
  9
$HANDLING
 70
     1
  9
$HANDSEED
  5
2D3F
  9
$SURFTAB1
 70
     6
  9
$SURFTAB2
 70
     6
  9
$SURFTYPE
 70
     6
  9
$SURFU
 70
     6
  9
$SURFV
 70
     6
  9
$UCSNAME
  2

  9
$UCSORG
 10
0.0
 20
0.0
 30
0.0
  9
$UCSXDIR
 10
1.0
 20
0.0
 30
0.0
  9
$UCSYDIR
 10
0.0
 20
1.0
 30
0.0
  9
$PUCSNAME
  2

  9
$PUCSORG
 10
0.0
 20
0.0
 30
0.0
  9
$PUCSXDIR
 10
1.0
 20
0.0
 30
0.0
  9
$PUCSYDIR
 10
0.0
 20
1.0
 30
0.0
  9
$USERI1
 70
     0
  9
$USERI2
 70
     1
  9
$USERI3
 70
     0
  9
$USERI4
 70
     0
  9
$USERI5
 70
     0
  9
$USERR1
 40
0.0
  9
$USERR2
 40
0.0
  9
$USERR3
 40
0.0
  9
$USERR4
 40
0.0
  9
$USERR5
 40
0.0
  9
$WORLDVIEW
 70
     1
  9
$SHADEDGE
 70
     3
  9
$SHADEDIF
 70
    70
  9
$TILEMODE
 70
     1
  9
$MAXACTVP
 70
    64
  9
$PLIMCHECK
 70
     0
  9
$PEXTMIN
 10
0.0
 20
0.0
 30
0.0
  9
$PEXTMAX
 10
0.0
 20
0.0
 30
0.0
  9
$PLIMMIN
 10
0.0
 20
0.0
  9
$PLIMMAX
 10
12.0
 20
9.0
  9
$UNITMODE
 70
     0
  9
$VISRETAIN
 70
     1
  9
$PLINEGEN
 70
     0
  9
$PSLTSCALE
 70
     1
  0
ENDSEC
  0
SECTION
  2
TABLES
  0
TABLE
  2
VPORT
 70
     1
  0
VPORT
  2
*ACTIVE
 70
     0
 10
0.0
 20
0.0
 11
1.0
 21
1.0
 12
165.8205841446453
 22
95.0
 13
0.0
 23
0.0
 14
0.5
 24
0.5
 15
0.5
 25
0.5
 16
0.0
 26
0.0
 36
1.0
 17
0.0
 27
0.0
 37
0.0
 40
190.0
 41
1.7454798331015291
 42
50.0
 43
0.0
 44
0.0
 50
0.0
 51
0.0
 71
     0
 72
  1000
 73
     1
 74
     2
 75
     0
 76
     0
 77
     0
 78
     0
  0
ENDTAB
  0
TABLE
  2
LTYPE
 70
     4
  0
LTYPE
  2
CONTINUOUS
 70
     0
  3
Solid Line
 72
    65
 73
     0
 40
0.0
  0
LTYPE
  2
CENTER
 70
     0
  3
____ _ ____ _ ____ _ ____ _ ____ _ ____ _ ____
 72
    65
 73
     4
 40
2.0
 49
1.25
 49
-0.25
 49
0.25
 49
-0.25
  0
LTYPE
  2
HIDDEN
 70
     0
  3
Hidden __ __ __ __ __ __ __ __ __ __ __ __ __ _
 72
    65
 73
     2
 40
0.375
 49
0.25
 49
-0.125
  0
LTYPE
  2
PHANTOM2
 70
     0
  3
___ _ _ ___ _ _ ___ _ _ ___ _ _
 72
    65
 73
     6
 40
1.25
 49
0.625
 49
-0.125
 49
0.125
 49
-0.125
 49
0.125
 49
-0.125
  0
ENDTAB
  0
TABLE
  2
LAYER
 70
     3
  0
LAYER
  2
0
 70
     0
 62
     7
  6
CONTINUOUS
  0
LAYER
  2
1
 70
     0
 62
     1
  6
CENTER
  0
LAYER
  2
2
 70
     0
 62
     2
  6
HIDDEN
  0
ENDTAB
  0
TABLE
  2
STYLE
 70
     2
  0
STYLE
  2
STANDARD
 70
     0
 40
0.0
 41
1.0
 50
0.0
 71
     0
 42
0.2
  3
simplex.shx
  4
bigfont.shx
  0
STYLE
  2
STANDARD1
 70
     0
 40
0.0
 41
1.0
 50
0.0
 71
     0
 42
3.0
  3
txt
  4

  0
ENDTAB
  0
TABLE
  2
VIEW
 70
     0
  0
ENDTAB
  0
TABLE
  2
UCS
 70
     0
  0
ENDTAB
  0
TABLE
  2
APPID
 70
     5
  0
APPID
  2
ACAD
 70
     0
  0
APPID
  2
DCO15
 70
     0
  0
APPID
  2
ACAD_MLEADERVER
 70
     0
  0
APPID
  2
ACAD_EXEMPT_FROM_CAD_STANDARDS
 70
     0
  0
APPID
  2
ACAD_NAV_VCDISPLAY
 70
     0
  0
ENDTAB
  0
TABLE
  2
DIMSTYLE
 70
     1
  0
DIMSTYLE
  2
STANDARD
 70
     0
  3

  4

  5

  6

  7

 40
1.0
 41
0.18
 42
0.0625
 43
0.38
 44
0.18
 45
0.0
 46
0.0
 47
0.0
 48
0.0
140
0.18
141
0.09
142
0.0
143
25.399999999999999
144
1.0
145
0.0
146
1.0
147
0.09
 71
     0
 72
     0
 73
     1
 74
     1
 75
     0
 76
     0
 77
     0
 78
     0
170
     0
171
     2
172
     0
173
     0
174
     0
175
     0
176
     0
177
     0
178
     0
  0
ENDTAB
  0
ENDSEC
  0
SECTION
  2
BLOCKS
  0
BLOCK
  8
0
  2
$MODEL_SPACE
 70
     0
 10
0.0
 20
0.0
 30
0.0
  3
$MODEL_SPACE
  1

  0
ENDBLK
  5
21
  8
0
  0
BLOCK
 67
     1
  8
0
  2
$PAPER_SPACE
 70
     0
 10
0.0
 20
0.0
 30
0.0
  3
$PAPER_SPACE
  1

  0
ENDBLK
  5
5B
 67
     1
  8
0
  0
ENDSEC
  0
SECTION
  2
ENTITIES
  0
TEXT
  5
2170
  8
0
 62
     3
 10
0.0
 20
0.0
 30
0.0
 40
10.0
  1
SST-M3
  7
STANDARD1
  0
LINE
  5
2710
  8
0
 10
85.202585401180016
 20
52.225000000000023
 30
0.0
 11
86.924000000000007
 21
52.225000000000023
 31
0.0
  0
ARC
  5
2711
  8
0
 10
87.178000000000026
 20
44.497050000000002
 30
0.0
 40
0.2539999999999949
 50
180.0
 51
270.0
  0
ARC
  5
2712
  8
0
 10
87.178000000000026
 20
37.727950000000021
 30
0.0
 40
0.2539999999999949
 50
90.0
 51
180.0
  0
LINE
  5
2713
  8
0
 10
86.924000000000007
 20
30.0
 30
0.0
 11
82.225000000000051
 21
30.0
 31
0.0
  0
LINE
  5
2714
  8
0
 10
87.178000000000026
 20
44.243050000000011
 30
0.0
 11
90.099000000000004
 21
44.243050000000011
 31
0.0
  0
LINE
  5
2715
  8
0
 10
90.099000000000004
 20
37.981950000000012
 30
0.0
 11
87.178000000000026
 21
37.981950000000012
 31
0.0
  0
LINE
  5
2732
  8
0
 10
86.924000000000007
 20
52.225000000000023
 30
0.0
 11
86.924000000000007
 21
30.0
 31
0.0
  0
LINE
  5
2733
  8
0
 10
84.308875687460016
 20
48.889629932119988
 30
0.0
 11
86.924000000000007
 21
48.889629932119988
 31
0.0
  0
LINE
  5
2734
  8
0
 10
84.308875687460016
 20
48.889629932119988
 30
0.0
 11
85.202585401180016
 21
52.225000000000023
 31
0.0
  0
LINE
  5
2735
  8
0
 10
82.225000000000051
 20
35.953125
 30
0.0
 11
86.924000000000007
 21
35.953125
 31
0.0
  0
LINE
  5
2736
  8
0
 10
82.225000000000051
 20
41.112499999999997
 30
0.0
 11
82.225000000000051
 21
30.0
 31
0.0
  0
LINE
  5
2738
  8
0
 10
82.225000000000051
 20
41.112499999999997
 30
0.0
 11
84.308875687460016
 21
48.889629932119988
 31
0.0
  0
LINE
  5
27CF
  8
0
 10
48.889629932119988
 20
101.84650000000001
 30
0.0
 11
35.953125000000028
 21
101.84650000000001
 31
0.0
  0
LINE
  5
27D0
  8
0
 10
41.112499999999997
 20
85.97150000000002
 30
0.0
 11
41.112499999999997
 21
101.84650000000001
 31
0.0
  0
LINE
  5
27D1
  8
0
 10
35.953125
 20
85.97150000000002
 30
0.0
 11
48.889629932119988
 21
85.97150000000002
 31
0.0
  0
ARC
  5
27D2
  8
0
 10
41.112499999999997
 20
93.90900000000002
 30
0.0
 40
11.112500000000029
 50
314.4153085971991
 51
45.584691402800843
  0
ARC
  5
27D3
  8
0
 10
35.699124999999981
 20
97.338000000000022
 30
0.0
 40
0.2540000000000178
 50
270.0
 51
0.0
  0
LINE
  5
27D4
  8
0
 10
30.463226256680009
 20
97.084000000000003
 30
0.0
 11
35.699124999999981
 21
97.084000000000003
 31
0.0
  0
ARC
  5
27D5
  8
0
 10
41.112499999999997
 20
93.90900000000002
 30
0.0
 40
11.11250000000001
 50
163.3984504010007
 51
196.60154959899921
  0
LINE
  5
27D6
  8
0
 10
35.699124999999981
 20
90.734000000000009
 30
0.0
 11
30.463226256680009
 21
90.734000000000009
 31
0.0
  0
ARC
  5
27D7
  8
0
 10
35.699124999999981
 20
90.480000000000004
 30
0.0
 40
0.2539999999999949
 50
0.0
 51
90.0
  0
LINE
  5
27D8
  8
0
 10
35.953125
 20
85.97150000000002
 30
0.0
 11
35.953125
 21
90.480000000000004
 31
0.0
  0
LINE
  5
27DB
  8
0
 10
35.953125
 20
97.338000000000022
 30
0.0
 11
35.953125
 21
101.84650000000001
 31
0.0
  0
LINE
  5
27DC
  8
0
 10
35.556249999999977
 20
98.671500000000023
 30
0.0
 11
35.953125
 21
98.671500000000023
 31
0.0
  0
LINE
  5
27DE
  8
0
 10
35.953125
 20
89.146499999999989
 30
0.0
 11
35.556249999999977
 21
89.146499999999989
 31
0.0
  0
LINE
  5
27DF
  8
0
 10
35.556249999999977
 20
89.146499999999989
 30
0.0
 11
35.556249999999977
 21
82.225000000000009
 31
0.0
  0
LINE
  5
27E0
  8
0
 10
40.968181817720051
 20
101.84650000000001
 30
0.0
 11
40.819021270219991
 21
105.12803201452
 31
0.0
  0
LINE
  5
27E4
  8
0
 10
40.819021270219991
 20
82.689967982940004
 30
0.0
 11
40.968181817720051
 21
85.97150000000002
 31
0.0
  0
LINE
  5
27E6
  8
0
 10
40.76799708728003
 20
105.593
 30
0.0
 11
35.556249999999977
 21
105.593
 31
0.0
  0
POLYLINE
  5
27E7
  8
0
 10
40.76799708728003
 20
105.593
 30
0.0
 66
     1
 70
     8
  0
VERTEX
  8
0
  5
2BB9
 10
40.7680
 20
105.593
 30
0.000000
  70
    32
  0
VERTEX
  8
0
  5
2BBA
 10
40.7684
 20
105.593
 30
0.000000
  70
    32
  0
VERTEX
  8
0
  5
2BBB
 10
40.7689
 20
105.593
 30
0.000000
  70
    32
  0
VERTEX
  8
0
  5
2BBC
 10
40.7693
 20
105.593
 30
0.000000
  70
    32
  0
VERTEX
  8
0
  5
2BBD
 10
40.7698
 20
105.593
 30
0.000000
  70
    32
  0
VERTEX
  8
0
  5
2BBE
 10
40.7702
 20
105.592
 30
0.000000
  70
    32
  0
VERTEX
  8
0
  5
2BBF
 10
40.7707
 20
105.592
 30
0.000000
  70
    32
  0
VERTEX
  8
0
  5
2BC0
 10
40.7711
 20
105.592
 30
0.000000
  70
    32
  0
VERTEX
  8
0
  5
2BC1
 10
40.7715
 20
105.591
 30
0.000000
  70
    32
  0
VERTEX
  8
0
  5
2BC2
 10
40.7720
 20
105.591
 30
0.000000
  70
    32
  0
VERTEX
  8
0
  5
2BC3
 10
40.7724
 20
105.590
 30
0.000000
  70
    32
  0
VERTEX
  8
0
  5
2BC4
 10
40.7729
 20
105.589
 30
0.000000
  70
    32
  0
VERTEX
  8
0
  5
2BC5
 10
40.7733
 20
105.589
 30
0.000000
  70
    32
  0
VERTEX
  8
0
  5
2BC6
 10
40.7737
 20
105.588
 30
0.000000
  70
    32
  0
VERTEX
  8
0
  5
2BC7
 10
40.7742
 20
105.587
 30
0.000000
  70
    32
  0
VERTEX
  8
0
  5
2BC8
 10
40.7746
 20
105.586
 30
0.000000
  70
    32
  0
VERTEX
  8
0
  5
2BC9
 10
40.7751
 20
105.585
 30
0.000000
  70
    32
  0
VERTEX
  8
0
  5
2BCA
 10
40.7755
 20
105.584
 30
0.000000
  70
    32
  0
VERTEX
  8
0
  5
2BCB
 10
40.7760
 20
105.583
 30
0.000000
  70
    32
  0
VERTEX
  8
0
  5
2BCC
 10
40.7764
 20
105.582
 30
0.000000
  70
    32
  0
VERTEX
  8
0
  5
2BCD
 10
40.7768
 20
105.581
 30
0.000000
  70
    32
  0
VERTEX
  8
0
  5
2BCE
 10
40.7773
 20
105.580
 30
0.000000
  70
    32
  0
VERTEX
  8
0
  5
2BCF
 10
40.7777
 20
105.579
 30
0.000000
  70
    32
  0
VERTEX
  8
0
  5
2BD0
 10
40.7781
 20
105.577
 30
0.000000
  70
    32
  0
VERTEX
  8
0
  5
2BD1
 10
40.7786
 20
105.576
 30
0.000000
  70
    32
  0
VERTEX
  8
0
  5
2BD2
 10
40.7790
 20
105.574
 30
0.000000
  70
    32
  0
VERTEX
  8
0
  5
2BD3
 10
40.7795
 20
105.573
 30
0.000000
  70
    32
  0
VERTEX
  8
0
  5
2BD4
 10
40.7799
 20
105.571
 30
0.000000
  70
    32
  0
VERTEX
  8
0
  5
2BD5
 10
40.7803
 20
105.570
 30
0.000000
  70
    32
  0
VERTEX
  8
0
  5
2BD6
 10
40.7808
 20
105.568
 30
0.000000
  70
    32
  0
VERTEX
  8
0
  5
2BD7
 10
40.7812
 20
105.566
 30
0.000000
  70
    32
  0
VERTEX
  8
0
  5
2BD8
 10
40.7816
 20
105.564
 30
0.000000
  70
    32
  0
VERTEX
  8
0
  5
2BD9
 10
40.7821
 20
105.562
 30
0.000000
  70
    32
  0
VERTEX
  8
0
  5
2BDA
 10
40.7825
 20
105.561
 30
0.000000
  70
    32
  0
VERTEX
  8
0
  5
2BDB
 10
40.7829
 20
105.559
 30
0.000000
  70
    32
  0
VERTEX
  8
0
  5
2BDC
 10
40.7834
 20
105.557
 30
0.000000
  70
    32
  0
VERTEX
  8
0
  5
2BDD
 10
40.7838
 20
105.554
 30
0.000000
  70
    32
  0
VERTEX
  8
0
  5
2BDE
 10
40.7842
 20
105.552
 30
0.000000
  70
    32
  0
VERTEX
  8
0
  5
2BDF
 10
40.7847
 20
105.550
 30
0.000000
  70
    32
  0
VERTEX
  8
0
  5
2BE0
 10
40.7851
 20
105.548
 30
0.000000
  70
    32
  0
VERTEX
  8
0
  5
2BE1
 10
40.7855
 20
105.545
 30
0.000000
  70
    32
  0
VERTEX
  8
0
  5
2BE2
 10
40.7860
 20
105.543
 30
0.000000
  70
    32
  0
VERTEX
  8
0
  5
2BE3
 10
40.7864
 20
105.541
 30
0.000000
  70
    32
  0
VERTEX
  8
0
  5
2BE4
 10
40.7868
 20
105.538
 30
0.000000
  70
    32
  0
VERTEX
  8
0
  5
2BE5
 10
40.7872
 20
105.535
 30
0.000000
  70
    32
  0
VERTEX
  8
0
  5
2BE6
 10
40.7877
 20
105.533
 30
0.000000
  70
    32
  0
VERTEX
  8
0
  5
2BE7
 10
40.7881
 20
105.530
 30
0.000000
  70
    32
  0
VERTEX
  8
0
  5
2BE8
 10
40.7885
 20
105.527
 30
0.000000
  70
    32
  0
VERTEX
  8
0
  5
2BE9
 10
40.7889
 20
105.525
 30
0.000000
  70
    32
  0
VERTEX
  8
0
  5
2BEA
 10
40.7894
 20
105.522
 30
0.000000
  70
    32
  0
VERTEX
  8
0
  5
2BEB
 10
40.7898
 20
105.519
 30
0.000000
  70
    32
  0
VERTEX
  8
0
  5
2BEC
 10
40.7902
 20
105.516
 30
0.000000
  70
    32
  0
VERTEX
  8
0
  5
2BED
 10
40.7906
 20
105.513
 30
0.000000
  70
    32
  0
VERTEX
  8
0
  5
2BEE
 10
40.7911
 20
105.510
 30
0.000000
  70
    32
  0
VERTEX
  8
0
  5
2BEF
 10
40.7915
 20
105.507
 30
0.000000
  70
    32
  0
VERTEX
  8
0
  5
2BF0
 10
40.7919
 20
105.503
 30
0.000000
  70
    32
  0
VERTEX
  8
0
  5
2BF1
 10
40.7923
 20
105.500
 30
0.000000
  70
    32
  0
VERTEX
  8
0
  5
2BF2
 10
40.7927
 20
105.497
 30
0.000000
  70
    32
  0
VERTEX
  8
0
  5
2BF3
 10
40.7931
 20
105.494
 30
0.000000
  70
    32
  0
VERTEX
  8
0
  5
2BF4
 10
40.7936
 20
105.490
 30
0.000000
  70
    32
  0
VERTEX
  8
0
  5
2BF5
 10
40.7940
 20
105.487
 30
0.000000
  70
    32
  0
VERTEX
  8
0
  5
2BF6
 10
40.7944
 20
105.483
 30
0.000000
  70
    32
  0
VERTEX
  8
0
  5
2BF7
 10
40.7948
 20
105.480
 30
0.000000
  70
    32
  0
VERTEX
  8
0
  5
2BF8
 10
40.7952
 20
105.476
 30
0.000000
  70
    32
  0
VERTEX
  8
0
  5
2BF9
 10
40.7956
 20
105.472
 30
0.000000
  70
    32
  0
VERTEX
  8
0
  5
2BFA
 10
40.7960
 20
105.468
 30
0.000000
  70
    32
  0
VERTEX
  8
0
  5
2BFB
 10
40.7964
 20
105.465
 30
0.000000
  70
    32
  0
VERTEX
  8
0
  5
2BFC
 10
40.7968
 20
105.461
 30
0.000000
  70
    32
  0
VERTEX
  8
0
  5
2BFD
 10
40.7972
 20
105.457
 30
0.000000
  70
    32
  0
VERTEX
  8
0
  5
2BFE
 10
40.7976
 20
105.453
 30
0.000000
  70
    32
  0
VERTEX
  8
0
  5
2BFF
 10
40.7980
 20
105.449
 30
0.000000
  70
    32
  0
VERTEX
  8
0
  5
2C00
 10
40.7984
 20
105.445
 30
0.000000
  70
    32
  0
VERTEX
  8
0
  5
2C01
 10
40.7988
 20
105.441
 30
0.000000
  70
    32
  0
VERTEX
  8
0
  5
2C02
 10
40.7992
 20
105.436
 30
0.000000
  70
    32
  0
VERTEX
  8
0
  5
2C03
 10
40.7996
 20
105.432
 30
0.000000
  70
    32
  0
VERTEX
  8
0
  5
2C04
 10
40.8000
 20
105.428
 30
0.000000
  70
    32
  0
VERTEX
  8
0
  5
2C05
 10
40.8004
 20
105.423
 30
0.000000
  70
    32
  0
VERTEX
  8
0
  5
2C06
 10
40.8008
 20
105.419
 30
0.000000
  70
    32
  0
VERTEX
  8
0
  5
2C07
 10
40.8012
 20
105.415
 30
0.000000
  70
    32
  0
VERTEX
  8
0
  5
2C08
 10
40.8016
 20
105.410
 30
0.000000
  70
    32
  0
VERTEX
  8
0
  5
2C09
 10
40.8020
 20
105.406
 30
0.000000
  70
    32
  0
VERTEX
  8
0
  5
2C0A
 10
40.8024
 20
105.401
 30
0.000000
  70
    32
  0
VERTEX
  8
0
  5
2C0B
 10
40.8028
 20
105.396
 30
0.000000
  70
    32
  0
VERTEX
  8
0
  5
2C0C
 10
40.8032
 20
105.392
 30
0.000000
  70
    32
  0
VERTEX
  8
0
  5
2C0D
 10
40.8036
 20
105.387
 30
0.000000
  70
    32
  0
VERTEX
  8
0
  5
2C0E
 10
40.8039
 20
105.382
 30
0.000000
  70
    32
  0
VERTEX
  8
0
  5
2C0F
 10
40.8043
 20
105.377
 30
0.000000
  70
    32
  0
VERTEX
  8
0
  5
2C10
 10
40.8047
 20
105.372
 30
0.000000
  70
    32
  0
VERTEX
  8
0
  5
2C11
 10
40.8051
 20
105.367
 30
0.000000
  70
    32
  0
VERTEX
  8
0
  5
2C12
 10
40.8055
 20
105.362
 30
0.000000
  70
    32
  0
VERTEX
  8
0
  5
2C13
 10
40.8059
 20
105.357
 30
0.000000
  70
    32
  0
VERTEX
  8
0
  5
2C14
 10
40.8062
 20
105.352
 30
0.000000
  70
    32
  0
VERTEX
  8
0
  5
2C15
 10
40.8066
 20
105.347
 30
0.000000
  70
    32
  0
VERTEX
  8
0
  5
2C16
 10
40.8070
 20
105.341
 30
0.000000
  70
    32
  0
VERTEX
  8
0
  5
2C17
 10
40.8073
 20
105.336
 30
0.000000
  70
    32
  0
VERTEX
  8
0
  5
2C18
 10
40.8077
 20
105.331
 30
0.000000
  70
    32
  0
VERTEX
  8
0
  5
2C19
 10
40.8081
 20
105.325
 30
0.000000
  70
    32
  0
VERTEX
  8
0
  5
2C1A
 10
40.8085
 20
105.320
 30
0.000000
  70
    32
  0
VERTEX
  8
0
  5
2C1B
 10
40.8088
 20
105.315
 30
0.000000
  70
    32
  0
VERTEX
  8
0
  5
2C1C
 10
40.8092
 20
105.309
 30
0.000000
  70
    32
  0
VERTEX
  8
0
  5
2C1D
 10
40.8095
 20
105.303
 30
0.000000
  70
    32
  0
VERTEX
  8
0
  5
2C1E
 10
40.8099
 20
105.298
 30
0.000000
  70
    32
  0
VERTEX
  8
0
  5
2C1F
 10
40.8103
 20
105.292
 30
0.000000
  70
    32
  0
VERTEX
  8
0
  5
2C20
 10
40.8106
 20
105.286
 30
0.000000
  70
    32
  0
VERTEX
  8
0
  5
2C21
 10
40.8110
 20
105.281
 30
0.000000
  70
    32
  0
VERTEX
  8
0
  5
2C22
 10
40.8113
 20
105.275
 30
0.000000
  70
    32
  0
VERTEX
  8
0
  5
2C23
 10
40.8117
 20
105.269
 30
0.000000
  70
    32
  0
VERTEX
  8
0
  5
2C24
 10
40.8120
 20
105.263
 30
0.000000
  70
    32
  0
VERTEX
  8
0
  5
2C25
 10
40.8124
 20
105.257
 30
0.000000
  70
    32
  0
VERTEX
  8
0
  5
2C26
 10
40.8127
 20
105.251
 30
0.000000
  70
    32
  0
VERTEX
  8
0
  5
2C27
 10
40.8131
 20
105.245
 30
0.000000
  70
    32
  0
VERTEX
  8
0
  5
2C28
 10
40.8134
 20
105.239
 30
0.000000
  70
    32
  0
VERTEX
  8
0
  5
2C29
 10
40.8138
 20
105.233
 30
0.000000
  70
    32
  0
VERTEX
  8
0
  5
2C2A
 10
40.8141
 20
105.226
 30
0.000000
  70
    32
  0
VERTEX
  8
0
  5
2C2B
 10
40.8145
 20
105.220
 30
0.000000
  70
    32
  0
VERTEX
  8
0
  5
2C2C
 10
40.8148
 20
105.214
 30
0.000000
  70
    32
  0
VERTEX
  8
0
  5
2C2D
 10
40.8151
 20
105.208
 30
0.000000
  70
    32
  0
VERTEX
  8
0
  5
2C2E
 10
40.8155
 20
105.201
 30
0.000000
  70
    32
  0
VERTEX
  8
0
  5
2C2F
 10
40.8158
 20
105.195
 30
0.000000
  70
    32
  0
VERTEX
  8
0
  5
2C30
 10
40.8161
 20
105.188
 30
0.000000
  70
    32
  0
VERTEX
  8
0
  5
2C31
 10
40.8165
 20
105.182
 30
0.000000
  70
    32
  0
VERTEX
  8
0
  5
2C32
 10
40.8168
 20
105.175
 30
0.000000
  70
    32
  0
VERTEX
  8
0
  5
2C33
 10
40.8171
 20
105.169
 30
0.000000
  70
    32
  0
VERTEX
  8
0
  5
2C34
 10
40.8174
 20
105.162
 30
0.000000
  70
    32
  0
VERTEX
  8
0
  5
2C35
 10
40.8178
 20
105.155
 30
0.000000
  70
    32
  0
VERTEX
  8
0
  5
2C36
 10
40.8181
 20
105.149
 30
0.000000
  70
    32
  0
VERTEX
  8
0
  5
2C37
 10
40.8184
 20
105.142
 30
0.000000
  70
    32
  0
VERTEX
  8
0
  5
2C38
 10
40.8187
 20
105.135
 30
0.000000
  70
    32
  0
VERTEX
  8
0
  5
2C39
 10
40.8190
 20
105.128
 30
0.000000
  70
    32
  0
SEQEND
  8
0
  5
2C3A
  0
LINE
  5
27E8
  8
0
 10
35.556249999999977
 20
105.593
 30
0.0
 11
35.556249999999977
 21
98.67149999999998
 31
0.0
  0
LINE
  5
27E9
  8
0
 10
40.76799708728003
 20
82.225000000000009
 30
0.0
 11
35.556249999999977
 21
82.225000000000009
 31
0.0
  0
POLYLINE
  5
27EA
  8
0
 10
40.81902126983713
 20
82.689967984866442
 30
0.0
 66
     1
 70
     8
  0
VERTEX
  8
0
  5
2C3B
 10
40.8190
 20
82.6900
 30
0.000000
  70
    32
  0
VERTEX
  8
0
  5
2C3C
 10
40.8187
 20
82.6831
 30
0.000000
  70
    32
  0
VERTEX
  8
0
  5
2C3D
 10
40.8184
 20
82.6763
 30
0.000000
  70
    32
  0
VERTEX
  8
0
  5
2C3E
 10
40.8181
 20
82.6695
 30
0.000000
  70
    32
  0
VERTEX
  8
0
  5
2C3F
 10
40.8178
 20
82.6628
 30
0.000000
  70
    32
  0
VERTEX
  8
0
  5
2C40
 10
40.8174
 20
82.6561
 30
0.000000
  70
    32
  0
VERTEX
  8
0
  5
2C41
 10
40.8171
 20
82.6494
 30
0.000000
  70
    32
  0
VERTEX
  8
0
  5
2C42
 10
40.8168
 20
82.6428
 30
0.000000
  70
    32
  0
VERTEX
  8
0
  5
2C43
 10
40.8165
 20
82.6362
 30
0.000000
  70
    32
  0
VERTEX
  8
0
  5
2C44
 10
40.8161
 20
82.6297
 30
0.000000
  70
    32
  0
VERTEX
  8
0
  5
2C45
 10
40.8158
 20
82.6232
 30
0.000000
  70
    32
  0
VERTEX
  8
0
  5
2C46
 10
40.8155
 20
82.6168
 30
0.000000
  70
    32
  0
VERTEX
  8
0
  5
2C47
 10
40.8151
 20
82.6104
 30
0.000000
  70
    32
  0
VERTEX
  8
0
  5
2C48
 10
40.8148
 20
82.6041
 30
0.000000
  70
    32
  0
VERTEX
  8
0
  5
2C49
 10
40.8145
 20
82.5978
 30
0.000000
  70
    32
  0
VERTEX
  8
0
  5
2C4A
 10
40.8141
 20
82.5915
 30
0.000000
  70
    32
  0
VERTEX
  8
0
  5
2C4B
 10
40.8138
 20
82.5853
 30
0.000000
  70
    32
  0
VERTEX
  8
0
  5
2C4C
 10
40.8134
 20
82.5792
 30
0.000000
  70
    32
  0
VERTEX
  8
0
  5
2C4D
 10
40.8131
 20
82.5731
 30
0.000000
  70
    32
  0
VERTEX
  8
0
  5
2C4E
 10
40.8127
 20
82.5670
 30
0.000000
  70
    32
  0
VERTEX
  8
0
  5
2C4F
 10
40.8124
 20
82.5610
 30
0.000000
  70
    32
  0
VERTEX
  8
0
  5
2C50
 10
40.8120
 20
82.5550
 30
0.000000
  70
    32
  0
VERTEX
  8
0
  5
2C51
 10
40.8117
 20
82.5491
 30
0.000000
  70
    32
  0
VERTEX
  8
0
  5
2C52
 10
40.8113
 20
82.5432
 30
0.000000
  70
    32
  0
VERTEX
  8
0
  5
2C53
 10
40.8110
 20
82.5374
 30
0.000000
  70
    32
  0
VERTEX
  8
0
  5
2C54
 10
40.8106
 20
82.5316
 30
0.000000
  70
    32
  0
VERTEX
  8
0
  5
2C55
 10
40.8103
 20
82.5259
 30
0.000000
  70
    32
  0
VERTEX
  8
0
  5
2C56
 10
40.8099
 20
82.5202
 30
0.000000
  70
    32
  0
VERTEX
  8
0
  5
2C57
 10
40.8095
 20
82.5146
 30
0.000000
  70
    32
  0
VERTEX
  8
0
  5
2C58
 10
40.8092
 20
82.5090
 30
0.000000
  70
    32
  0
VERTEX
  8
0
  5
2C59
 10
40.8088
 20
82.5035
 30
0.000000
  70
    32
  0
VERTEX
  8
0
  5
2C5A
 10
40.8085
 20
82.4980
 30
0.000000
  70
    32
  0
VERTEX
  8
0
  5
2C5B
 10
40.8081
 20
82.4925
 30
0.000000
  70
    32
  0
VERTEX
  8
0
  5
2C5C
 10
40.8077
 20
82.4872
 30
0.000000
  70
    32
  0
VERTEX
  8
0
  5
2C5D
 10
40.8073
 20
82.4818
 30
0.000000
  70
    32
  0
VERTEX
  8
0
  5
2C5E
 10
40.8070
 20
82.4765
 30
0.000000
  70
    32
  0
VERTEX
  8
0
  5
2C5F
 10
40.8066
 20
82.4713
 30
0.000000
  70
    32
  0
VERTEX
  8
0
  5
2C60
 10
40.8062
 20
82.4661
 30
0.000000
  70
    32
  0
VERTEX
  8
0
  5
2C61
 10
40.8059
 20
82.4610
 30
0.000000
  70
    32
  0
VERTEX
  8
0
  5
2C62
 10
40.8055
 20
82.4559
 30
0.000000
  70
    32
  0
VERTEX
  8
0
  5
2C63
 10
40.8051
 20
82.4509
 30
0.000000
  70
    32
  0
VERTEX
  8
0
  5
2C64
 10
40.8047
 20
82.4459
 30
0.000000
  70
    32
  0
VERTEX
  8
0
  5
2C65
 10
40.8043
 20
82.4409
 30
0.000000
  70
    32
  0
VERTEX
  8
0
  5
2C66
 10
40.8039
 20
82.4361
 30
0.000000
  70
    32
  0
VERTEX
  8
0
  5
2C67
 10
40.8036
 20
82.4312
 30
0.000000
  70
    32
  0
VERTEX
  8
0
  5
2C68
 10
40.8032
 20
82.4265
 30
0.000000
  70
    32
  0
VERTEX
  8
0
  5
2C69
 10
40.8028
 20
82.4217
 30
0.000000
  70
    32
  0
VERTEX
  8
0
  5
2C6A
 10
40.8024
 20
82.4171
 30
0.000000
  70
    32
  0
VERTEX
  8
0
  5
2C6B
 10
40.8020
 20
82.4124
 30
0.000000
  70
    32
  0
VERTEX
  8
0
  5
2C6C
 10
40.8016
 20
82.4079
 30
0.000000
  70
    32
  0
VERTEX
  8
0
  5
2C6D
 10
40.8012
 20
82.4034
 30
0.000000
  70
    32
  0
VERTEX
  8
0
  5
2C6E
 10
40.8008
 20
82.3989
 30
0.000000
  70
    32
  0
VERTEX
  8
0
  5
2C6F
 10
40.8004
 20
82.3945
 30
0.000000
  70
    32
  0
VERTEX
  8
0
  5
2C70
 10
40.8000
 20
82.3902
 30
0.000000
  70
    32
  0
VERTEX
  8
0
  5
2C71
 10
40.7996
 20
82.3859
 30
0.000000
  70
    32
  0
VERTEX
  8
0
  5
2C72
 10
40.7992
 20
82.3816
 30
0.000000
  70
    32
  0
VERTEX
  8
0
  5
2C73
 10
40.7988
 20
82.3774
 30
0.000000
  70
    32
  0
VERTEX
  8
0
  5
2C74
 10
40.7984
 20
82.3733
 30
0.000000
  70
    32
  0
VERTEX
  8
0
  5
2C75
 10
40.7980
 20
82.3692
 30
0.000000
  70
    32
  0
VERTEX
  8
0
  5
2C76
 10
40.7976
 20
82.3652
 30
0.000000
  70
    32
  0
VERTEX
  8
0
  5
2C77
 10
40.7972
 20
82.3612
 30
0.000000
  70
    32
  0
VERTEX
  8
0
  5
2C78
 10
40.7968
 20
82.3573
 30
0.000000
  70
    32
  0
VERTEX
  8
0
  5
2C79
 10
40.7964
 20
82.3534
 30
0.000000
  70
    32
  0
VERTEX
  8
0
  5
2C7A
 10
40.7960
 20
82.3496
 30
0.000000
  70
    32
  0
VERTEX
  8
0
  5
2C7B
 10
40.7956
 20
82.3458
 30
0.000000
  70
    32
  0
VERTEX
  8
0
  5
2C7C
 10
40.7952
 20
82.3421
 30
0.000000
  70
    32
  0
VERTEX
  8
0
  5
2C7D
 10
40.7948
 20
82.3385
 30
0.000000
  70
    32
  0
VERTEX
  8
0
  5
2C7E
 10
40.7944
 20
82.3349
 30
0.000000
  70
    32
  0
VERTEX
  8
0
  5
2C7F
 10
40.7940
 20
82.3314
 30
0.000000
  70
    32
  0
VERTEX
  8
0
  5
2C80
 10
40.7936
 20
82.3279
 30
0.000000
  70
    32
  0
VERTEX
  8
0
  5
2C81
 10
40.7931
 20
82.3245
 30
0.000000
  70
    32
  0
VERTEX
  8
0
  5
2C82
 10
40.7927
 20
82.3211
 30
0.000000
  70
    32
  0
VERTEX
  8
0
  5
2C83
 10
40.7923
 20
82.3178
 30
0.000000
  70
    32
  0
VERTEX
  8
0
  5
2C84
 10
40.7919
 20
82.3145
 30
0.000000
  70
    32
  0
VERTEX
  8
0
  5
2C85
 10
40.7915
 20
82.3113
 30
0.000000
  70
    32
  0
VERTEX
  8
0
  5
2C86
 10
40.7911
 20
82.3082
 30
0.000000
  70
    32
  0
VERTEX
  8
0
  5
2C87
 10
40.7906
 20
82.3051
 30
0.000000
  70
    32
  0
VERTEX
  8
0
  5
2C88
 10
40.7902
 20
82.3021
 30
0.000000
  70
    32
  0
VERTEX
  8
0
  5
2C89
 10
40.7898
 20
82.2991
 30
0.000000
  70
    32
  0
VERTEX
  8
0
  5
2C8A
 10
40.7894
 20
82.2962
 30
0.000000
  70
    32
  0
VERTEX
  8
0
  5
2C8B
 10
40.7889
 20
82.2934
 30
0.000000
  70
    32
  0
VERTEX
  8
0
  5
2C8C
 10
40.7885
 20
82.2906
 30
0.000000
  70
    32
  0
VERTEX
  8
0
  5
2C8D
 10
40.7881
 20
82.2878
 30
0.000000
  70
    32
  0
VERTEX
  8
0
  5
2C8E
 10
40.7877
 20
82.2851
 30
0.000000
  70
    32
  0
VERTEX
  8
0
  5
2C8F
 10
40.7872
 20
82.2825
 30
0.000000
  70
    32
  0
VERTEX
  8
0
  5
2C90
 10
40.7868
 20
82.2799
 30
0.000000
  70
    32
  0
VERTEX
  8
0
  5
2C91
 10
40.7864
 20
82.2774
 30
0.000000
  70
    32
  0
VERTEX
  8
0
  5
2C92
 10
40.7860
 20
82.2750
 30
0.000000
  70
    32
  0
VERTEX
  8
0
  5
2C93
 10
40.7855
 20
82.2726
 30
0.000000
  70
    32
  0
VERTEX
  8
0
  5
2C94
 10
40.7851
 20
82.2702
 30
0.000000
  70
    32
  0
VERTEX
  8
0
  5
2C95
 10
40.7847
 20
82.2680
 30
0.000000
  70
    32
  0
VERTEX
  8
0
  5
2C96
 10
40.7842
 20
82.2657
 30
0.000000
  70
    32
  0
VERTEX
  8
0
  5
2C97
 10
40.7838
 20
82.2636
 30
0.000000
  70
    32
  0
VERTEX
  8
0
  5
2C98
 10
40.7834
 20
82.2615
 30
0.000000
  70
    32
  0
VERTEX
  8
0
  5
2C99
 10
40.7829
 20
82.2594
 30
0.000000
  70
    32
  0
VERTEX
  8
0
  5
2C9A
 10
40.7825
 20
82.2574
 30
0.000000
  70
    32
  0
VERTEX
  8
0
  5
2C9B
 10
40.7821
 20
82.2555
 30
0.000000
  70
    32
  0
VERTEX
  8
0
  5
2C9C
 10
40.7816
 20
82.2536
 30
0.000000
  70
    32
  0
VERTEX
  8
0
  5
2C9D
 10
40.7812
 20
82.2518
 30
0.000000
  70
    32
  0
VERTEX
  8
0
  5
2C9E
 10
40.7808
 20
82.2501
 30
0.000000
  70
    32
  0
VERTEX
  8
0
  5
2C9F
 10
40.7803
 20
82.2484
 30
0.000000
  70
    32
  0
VERTEX
  8
0
  5
2CA0
 10
40.7799
 20
82.2467
 30
0.000000
  70
    32
  0
VERTEX
  8
0
  5
2CA1
 10
40.7795
 20
82.2452
 30
0.000000
  70
    32
  0
VERTEX
  8
0
  5
2CA2
 10
40.7790
 20
82.2436
 30
0.000000
  70
    32
  0
VERTEX
  8
0
  5
2CA3
 10
40.7786
 20
82.2422
 30
0.000000
  70
    32
  0
VERTEX
  8
0
  5
2CA4
 10
40.7781
 20
82.2408
 30
0.000000
  70
    32
  0
VERTEX
  8
0
  5
2CA5
 10
40.7777
 20
82.2394
 30
0.000000
  70
    32
  0
VERTEX
  8
0
  5
2CA6
 10
40.7773
 20
82.2382
 30
0.000000
  70
    32
  0
VERTEX
  8
0
  5
2CA7
 10
40.7768
 20
82.2369
 30
0.000000
  70
    32
  0
VERTEX
  8
0
  5
2CA8
 10
40.7764
 20
82.2358
 30
0.000000
  70
    32
  0
VERTEX
  8
0
  5
2CA9
 10
40.7760
 20
82.2347
 30
0.000000
  70
    32
  0
VERTEX
  8
0
  5
2CAA
 10
40.7755
 20
82.2336
 30
0.000000
  70
    32
  0
VERTEX
  8
0
  5
2CAB
 10
40.7751
 20
82.2326
 30
0.000000
  70
    32
  0
VERTEX
  8
0
  5
2CAC
 10
40.7746
 20
82.2317
 30
0.000000
  70
    32
  0
VERTEX
  8
0
  5
2CAD
 10
40.7742
 20
82.2309
 30
0.000000
  70
    32
  0
VERTEX
  8
0
  5
2CAE
 10
40.7737
 20
82.2300
 30
0.000000
  70
    32
  0
VERTEX
  8
0
  5
2CAF
 10
40.7733
 20
82.2293
 30
0.000000
  70
    32
  0
VERTEX
  8
0
  5
2CB0
 10
40.7729
 20
82.2286
 30
0.000000
  70
    32
  0
VERTEX
  8
0
  5
2CB1
 10
40.7724
 20
82.2280
 30
0.000000
  70
    32
  0
VERTEX
  8
0
  5
2CB2
 10
40.7720
 20
82.2274
 30
0.000000
  70
    32
  0
VERTEX
  8
0
  5
2CB3
 10
40.7715
 20
82.2269
 30
0.000000
  70
    32
  0
VERTEX
  8
0
  5
2CB4
 10
40.7711
 20
82.2265
 30
0.000000
  70
    32
  0
VERTEX
  8
0
  5
2CB5
 10
40.7707
 20
82.2261
 30
0.000000
  70
    32
  0
VERTEX
  8
0
  5
2CB6
 10
40.7702
 20
82.2257
 30
0.000000
  70
    32
  0
VERTEX
  8
0
  5
2CB7
 10
40.7698
 20
82.2255
 30
0.000000
  70
    32
  0
VERTEX
  8
0
  5
2CB8
 10
40.7693
 20
82.2253
 30
0.000000
  70
    32
  0
VERTEX
  8
0
  5
2CB9
 10
40.7689
 20
82.2251
 30
0.000000
  70
    32
  0
VERTEX
  8
0
  5
2CBA
 10
40.7684
 20
82.2250
 30
0.000000
  70
    32
  0
VERTEX
  8
0
  5
2CBB
 10
40.7680
 20
82.2250
 30
0.000000
  70
    32
  0
SEQEND
  8
0
  5
2CBC
  0
LINE
  5
27EC
  8
0
 10
35.953125
 20
98.969079508980002
 30
0.0
 11
35.556249999999977
 21
98.969079508980002
 31
0.0
  0
LINE
  5
27ED
  8
0
 10
35.556249999999977
 20
88.848920488480005
 30
0.0
 11
35.953125
 21
88.848920488480005
 31
0.0
  0
ARC
  5
27F0
  8
0
 10
87.178000000000026
 20
97.293550000000053
 30
0.0
 40
0.2539999999999949
 50
180.0
 51
270.0
  0
ARC
  5
27F1
  8
0
 10
87.178000000000026
 20
90.524450000000044
 30
0.0
 40
0.2539999999999949
 50
90.0
 51
180.0
  0
LINE
  5
27F2
  8
0
 10
87.178000000000026
 20
97.03955000000002
 30
0.0
 11
90.099000000000004
 21
97.03955000000002
 31
0.0
  0
LINE
  5
27F3
  8
0
 10
90.099000000000004
 20
90.778450000000007
 30
0.0
 11
87.178000000000026
 21
90.778450000000007
 31
0.0
  0
LINE
  5
27FB
  8
0
 10
82.225000000000051
 20
101.84650000000001
 30
0.0
 11
86.924000000000007
 21
101.84650000000001
 31
0.0
  0
POLYLINE
  5
27FC
  8
0
 10
84.30887568482747
 20
101.84650000000001
 30
0.0
 66
     1
 70
     8
  0
VERTEX
  8
0
  5
2CBD
 10
84.3089
 20
101.847
 30
0.000000
  70
    32
  0
VERTEX
  8
0
  5
2CBE
 10
84.3352
 20
101.749
 30
0.000000
  70
    32
  0
VERTEX
  8
0
  5
2CBF
 10
84.3611
 20
101.651
 30
0.000000
  70
    32
  0
VERTEX
  8
0
  5
2CC0
 10
84.3867
 20
101.551
 30
0.000000
  70
    32
  0
VERTEX
  8
0
  5
2CC1
 10
84.4120
 20
101.450
 30
0.000000
  70
    32
  0
VERTEX
  8
0
  5
2CC2
 10
84.4370
 20
101.348
 30
0.000000
  70
    32
  0
VERTEX
  8
0
  5
2CC3
 10
84.4616
 20
101.245
 30
0.000000
  70
    32
  0
VERTEX
  8
0
  5
2CC4
 10
84.4858
 20
101.141
 30
0.000000
  70
    32
  0
VERTEX
  8
0
  5
2CC5
 10
84.5097
 20
101.035
 30
0.000000
  70
    32
  0
VERTEX
  8
0
  5
2CC6
 10
84.5333
 20
100.929
 30
0.000000
  70
    32
  0
VERTEX
  8
0
  5
2CC7
 10
84.5565
 20
100.821
 30
0.000000
  70
    32
  0
VERTEX
  8
0
  5
2CC8
 10
84.5794
 20
100.712
 30
0.000000
  70
    32
  0
VERTEX
  8
0
  5
2CC9
 10
84.6018
 20
100.602
 30
0.000000
  70
    32
  0
VERTEX
  8
0
  5
2CCA
 10
84.6239
 20
100.492
 30
0.000000
  70
    32
  0
VERTEX
  8
0
  5
2CCB
 10
84.6457
 20
100.380
 30
0.000000
  70
    32
  0
VERTEX
  8
0
  5
2CCC
 10
84.6670
 20
100.267
 30
0.000000
  70
    32
  0
VERTEX
  8
0
  5
2CCD
 10
84.6880
 20
100.153
 30
0.000000
  70
    32
  0
VERTEX
  8
0
  5
2CCE
 10
84.7086
 20
100.039
 30
0.000000
  70
    32
  0
VERTEX
  8
0
  5
2CCF
 10
84.7289
 20
99.9229
 30
0.000000
  70
    32
  0
VERTEX
  8
0
  5
2CD0
 10
84.7487
 20
99.8062
 30
0.000000
  70
    32
  0
VERTEX
  8
0
  5
2CD1
 10
84.7682
 20
99.6887
 30
0.000000
  70
    32
  0
VERTEX
  8
0
  5
2CD2
 10
84.7872
 20
99.5703
 30
0.000000
  70
    32
  0
VERTEX
  8
0
  5
2CD3
 10
84.8059
 20
99.4510
 30
0.000000
  70
    32
  0
VERTEX
  8
0
  5
2CD4
 10
84.8241
 20
99.3308
 30
0.000000
  70
    32
  0
VERTEX
  8
0
  5
2CD5
 10
84.8420
 20
99.2098
 30
0.000000
  70
    32
  0
VERTEX
  8
0
  5
2CD6
 10
84.8594
 20
99.0880
 30
0.000000
  70
    32
  0
VERTEX
  8
0
  5
2CD7
 10
84.8765
 20
98.9654
 30
0.000000
  70
    32
  0
VERTEX
  8
0
  5
2CD8
 10
84.8931
 20
98.8420
 30
0.000000
  70
    32
  0
VERTEX
  8
0
  5
2CD9
 10
84.9094
 20
98.7178
 30
0.000000
  70
    32
  0
VERTEX
  8
0
  5
2CDA
 10
84.9252
 20
98.5929
 30
0.000000
  70
    32
  0
VERTEX
  8
0
  5
2CDB
 10
84.9406
 20
98.4673
 30
0.000000
  70
    32
  0
VERTEX
  8
0
  5
2CDC
 10
84.9555
 20
98.3409
 30
0.000000
  70
    32
  0
VERTEX
  8
0
  5
2CDD
 10
84.9701
 20
98.2139
 30
0.000000
  70
    32
  0
VERTEX
  8
0
  5
2CDE
 10
84.9842
 20
98.0862
 30
0.000000
  70
    32
  0
VERTEX
  8
0
  5
2CDF
 10
84.9979
 20
97.9579
 30
0.000000
  70
    32
  0
VERTEX
  8
0
  5
2CE0
 10
85.0112
 20
97.8289
 30
0.000000
  70
    32
  0
VERTEX
  8
0
  5
2CE1
 10
85.0240
 20
97.6994
 30
0.000000
  70
    32
  0
VERTEX
  8
0
  5
2CE2
 10
85.0364
 20
97.5692
 30
0.000000
  70
    32
  0
VERTEX
  8
0
  5
2CE3
 10
85.0484
 20
97.4385
 30
0.000000
  70
    32
  0
VERTEX
  8
0
  5
2CE4
 10
85.0599
 20
97.3072
 30
0.000000
  70
    32
  0
VERTEX
  8
0
  5
2CE5
 10
85.0710
 20
97.1755
 30
0.000000
  70
    32
  0
VERTEX
  8
0
  5
2CE6
 10
85.0817
 20
97.0432
 30
0.000000
  70
    32
  0
VERTEX
  8
0
  5
2CE7
 10
85.0919
 20
96.9104
 30
0.000000
  70
    32
  0
VERTEX
  8
0
  5
2CE8
 10
85.1017
 20
96.7772
 30
0.000000
  70
    32
  0
VERTEX
  8
0
  5
2CE9
 10
85.1110
 20
96.6435
 30
0.000000
  70
    32
  0
VERTEX
  8
0
  5
2CEA
 10
85.1199
 20
96.5094
 30
0.000000
  70
    32
  0
VERTEX
  8
0
  5
2CEB
 10
85.1284
 20
96.3749
 30
0.000000
  70
    32
  0
VERTEX
  8
0
  5
2CEC
 10
85.1363
 20
96.2400
 30
0.000000
  70
    32
  0
VERTEX
  8
0
  5
2CED
 10
85.1439
 20
96.1047
 30
0.000000
  70
    32
  0
VERTEX
  8
0
  5
2CEE
 10
85.1510
 20
95.9692
 30
0.000000
  70
    32
  0
VERTEX
  8
0
  5
2CEF
 10
85.1576
 20
95.8333
 30
0.000000
  70
    32
  0
VERTEX
  8
0
  5
2CF0
 10
85.1638
 20
95.6970
 30
0.000000
  70
    32
  0
VERTEX
  8
0
  5
2CF1
 10
85.1695
 20
95.5606
 30
0.000000
  70
    32
  0
VERTEX
  8
0
  5
2CF2
 10
85.1748
 20
95.4238
 30
0.000000
  70
    32
  0
VERTEX
  8
0
  5
2CF3
 10
85.1796
 20
95.2869
 30
0.000000
  70
    32
  0
VERTEX
  8
0
  5
2CF4
 10
85.1840
 20
95.1497
 30
0.000000
  70
    32
  0
VERTEX
  8
0
  5
2CF5
 10
85.1879
 20
95.0123
 30
0.000000
  70
    32
  0
VERTEX
  8
0
  5
2CF6
 10
85.1913
 20
94.8748
 30
0.000000
  70
    32
  0
VERTEX
  8
0
  5
2CF7
 10
85.1943
 20
94.7371
 30
0.000000
  70
    32
  0
VERTEX
  8
0
  5
2CF8
 10
85.1968
 20
94.5993
 30
0.000000
  70
    32
  0
VERTEX
  8
0
  5
2CF9
 10
85.1989
 20
94.4613
 30
0.000000
  70
    32
  0
VERTEX
  8
0
  5
2CFA
 10
85.2005
 20
94.3233
 30
0.000000
  70
    32
  0
VERTEX
  8
0
  5
2CFB
 10
85.2017
 20
94.1853
 30
0.000000
  70
    32
  0
VERTEX
  8
0
  5
2CFC
 10
85.2024
 20
94.0471
 30
0.000000
  70
    32
  0
VERTEX
  8
0
  5
2CFD
 10
85.2026
 20
93.9090
 30
0.000000
  70
    32
  0
VERTEX
  8
0
  5
2CFE
 10
85.2024
 20
93.7709
 30
0.000000
  70
    32
  0
VERTEX
  8
0
  5
2CFF
 10
85.2017
 20
93.6327
 30
0.000000
  70
    32
  0
VERTEX
  8
0
  5
2D00
 10
85.2005
 20
93.4947
 30
0.000000
  70
    32
  0
VERTEX
  8
0
  5
2D01
 10
85.1989
 20
93.3567
 30
0.000000
  70
    32
  0
VERTEX
  8
0
  5
2D02
 10
85.1968
 20
93.2187
 30
0.000000
  70
    32
  0
VERTEX
  8
0
  5
2D03
 10
85.1943
 20
93.0809
 30
0.000000
  70
    32
  0
VERTEX
  8
0
  5
2D04
 10
85.1913
 20
92.9432
 30
0.000000
  70
    32
  0
VERTEX
  8
0
  5
2D05
 10
85.1879
 20
92.8057
 30
0.000000
  70
    32
  0
VERTEX
  8
0
  5
2D06
 10
85.1840
 20
92.6683
 30
0.000000
  70
    32
  0
VERTEX
  8
0
  5
2D07
 10
85.1796
 20
92.5311
 30
0.000000
  70
    32
  0
VERTEX
  8
0
  5
2D08
 10
85.1748
 20
92.3942
 30
0.000000
  70
    32
  0
VERTEX
  8
0
  5
2D09
 10
85.1695
 20
92.2574
 30
0.000000
  70
    32
  0
VERTEX
  8
0
  5
2D0A
 10
85.1638
 20
92.1210
 30
0.000000
  70
    32
  0
VERTEX
  8
0
  5
2D0B
 10
85.1576
 20
91.9847
 30
0.000000
  70
    32
  0
VERTEX
  8
0
  5
2D0C
 10
85.1510
 20
91.8488
 30
0.000000
  70
    32
  0
VERTEX
  8
0
  5
2D0D
 10
85.1439
 20
91.7133
 30
0.000000
  70
    32
  0
VERTEX
  8
0
  5
2D0E
 10
85.1363
 20
91.5780
 30
0.000000
  70
    32
  0
VERTEX
  8
0
  5
2D0F
 10
85.1284
 20
91.4431
 30
0.000000
  70
    32
  0
VERTEX
  8
0
  5
2D10
 10
85.1199
 20
91.3086
 30
0.000000
  70
    32
  0
VERTEX
  8
0
  5
2D11
 10
85.1110
 20
91.1745
 30
0.000000
  70
    32
  0
VERTEX
  8
0
  5
2D12
 10
85.1017
 20
91.0408
 30
0.000000
  70
    32
  0
VERTEX
  8
0
  5
2D13
 10
85.0919
 20
90.9076
 30
0.000000
  70
    32
  0
VERTEX
  8
0
  5
2D14
 10
85.0817
 20
90.7748
 30
0.000000
  70
    32
  0
VERTEX
  8
0
  5
2D15
 10
85.0710
 20
90.6425
 30
0.000000
  70
    32
  0
VERTEX
  8
0
  5
2D16
 10
85.0599
 20
90.5108
 30
0.000000
  70
    32
  0
VERTEX
  8
0
  5
2D17
 10
85.0484
 20
90.3795
 30
0.000000
  70
    32
  0
VERTEX
  8
0
  5
2D18
 10
85.0364
 20
90.2488
 30
0.000000
  70
    32
  0
VERTEX
  8
0
  5
2D19
 10
85.0240
 20
90.1186
 30
0.000000
  70
    32
  0
VERTEX
  8
0
  5
2D1A
 10
85.0112
 20
89.9891
 30
0.000000
  70
    32
  0
VERTEX
  8
0
  5
2D1B
 10
84.9979
 20
89.8601
 30
0.000000
  70
    32
  0
VERTEX
  8
0
  5
2D1C
 10
84.9842
 20
89.7318
 30
0.000000
  70
    32
  0
VERTEX
  8
0
  5
2D1D
 10
84.9701
 20
89.6041
 30
0.000000
  70
    32
  0
VERTEX
  8
0
  5
2D1E
 10
84.9555
 20
89.4771
 30
0.000000
  70
    32
  0
VERTEX
  8
0
  5
2D1F
 10
84.9406
 20
89.3507
 30
0.000000
  70
    32
  0
VERTEX
  8
0
  5
2D20
 10
84.9252
 20
89.2251
 30
0.000000
  70
    32
  0
VERTEX
  8
0
  5
2D21
 10
84.9094
 20
89.1002
 30
0.000000
  70
    32
  0
VERTEX
  8
0
  5
2D22
 10
84.8931
 20
88.9760
 30
0.000000
  70
    32
  0
VERTEX
  8
0
  5
2D23
 10
84.8765
 20
88.8526
 30
0.000000
  70
    32
  0
VERTEX
  8
0
  5
2D24
 10
84.8594
 20
88.7300
 30
0.000000
  70
    32
  0
VERTEX
  8
0
  5
2D25
 10
84.8420
 20
88.6082
 30
0.000000
  70
    32
  0
VERTEX
  8
0
  5
2D26
 10
84.8241
 20
88.4872
 30
0.000000
  70
    32
  0
VERTEX
  8
0
  5
2D27
 10
84.8059
 20
88.3670
 30
0.000000
  70
    32
  0
VERTEX
  8
0
  5
2D28
 10
84.7872
 20
88.2477
 30
0.000000
  70
    32
  0
VERTEX
  8
0
  5
2D29
 10
84.7682
 20
88.1293
 30
0.000000
  70
    32
  0
VERTEX
  8
0
  5
2D2A
 10
84.7487
 20
88.0118
 30
0.000000
  70
    32
  0
VERTEX
  8
0
  5
2D2B
 10
84.7289
 20
87.8951
 30
0.000000
  70
    32
  0
VERTEX
  8
0
  5
2D2C
 10
84.7086
 20
87.7794
 30
0.000000
  70
    32
  0
VERTEX
  8
0
  5
2D2D
 10
84.6880
 20
87.6647
 30
0.000000
  70
    32
  0
VERTEX
  8
0
  5
2D2E
 10
84.6670
 20
87.5509
 30
0.000000
  70
    32
  0
VERTEX
  8
0
  5
2D2F
 10
84.6457
 20
87.4381
 30
0.000000
  70
    32
  0
VERTEX
  8
0
  5
2D30
 10
84.6239
 20
87.3263
 30
0.000000
  70
    32
  0
VERTEX
  8
0
  5
2D31
 10
84.6018
 20
87.2155
 30
0.000000
  70
    32
  0
VERTEX
  8
0
  5
2D32
 10
84.5794
 20
87.1058
 30
0.000000
  70
    32
  0
VERTEX
  8
0
  5
2D33
 10
84.5565
 20
86.9971
 30
0.000000
  70
    32
  0
VERTEX
  8
0
  5
2D34
 10
84.5333
 20
86.8894
 30
0.000000
  70
    32
  0
VERTEX
  8
0
  5
2D35
 10
84.5097
 20
86.7829
 30
0.000000
  70
    32
  0
VERTEX
  8
0
  5
2D36
 10
84.4858
 20
86.6774
 30
0.000000
  70
    32
  0
VERTEX
  8
0
  5
2D37
 10
84.4616
 20
86.5731
 30
0.000000
  70
    32
  0
VERTEX
  8
0
  5
2D38
 10
84.4370
 20
86.4699
 30
0.000000
  70
    32
  0
VERTEX
  8
0
  5
2D39
 10
84.4120
 20
86.3679
 30
0.000000
  70
    32
  0
VERTEX
  8
0
  5
2D3A
 10
84.3867
 20
86.2670
 30
0.000000
  70
    32
  0
VERTEX
  8
0
  5
2D3B
 10
84.3611
 20
86.1673
 30
0.000000
  70
    32
  0
VERTEX
  8
0
  5
2D3C
 10
84.3352
 20
86.0688
 30
0.000000
  70
    32
  0
VERTEX
  8
0
  5
2D3D
 10
84.3089
 20
85.9715
 30
0.000000
  70
    32
  0
SEQEND
  8
0
  5
2D3E
  0
LINE
  5
27FD
  8
0
 10
82.225000000000051
 20
85.971499999999992
 30
0.0
 11
86.924000000000007
 21
85.97150000000002
 31
0.0
  0
LINE
  5
27FE
  8
0
 10
86.924000000000007
 20
101.84650000000001
 30
0.0
 11
86.924000000000007
 21
85.97150000000002
 31
0.0
  0
LINE
  5
2800
  8
0
 10
82.225000000000051
 20
85.97150000000002
 30
0.0
 11
82.225000000000051
 21
101.84650000000001
 31
0.0
  0
LINE
  5
2A26
  8
0
 10
109.7967000000001
 20
38.509000000000007
 30
0.0
 11
107.5615
 21
38.509000000000007
 31
0.0
  0
LINE
  5
2A27
  8
0
 10
107.5615
 20
43.716000000000001
 30
0.0
 11
109.7967000000001
 21
43.716000000000001
 31
0.0
  0
ARC
  5
2A28
  8
0
 10
106.03343203252
 20
41.112499999999997
 30
0.0
 40
4.5760679687500332
 50
6.8539133725997861
 51
34.676218284699473
  0
ARC
  5
2A29
  8
0
 10
106.03343203252
 20
41.112499999999997
 30
0.0
 40
4.5760679687500296
 50
325.32378171530053
 51
353.14608662740022
  0
LINE
  5
2A31
  8
0
 10
90.099000000000004
 20
45.875
 30
0.0
 11
107.5615
 21
45.875
 31
0.0
  0
LINE
  5
2A32
  8
0
 10
109.7967000000001
 20
38.509000000000007
 30
0.0
 11
109.7967000000001
 21
40.56639999999998
 31
0.0
  0
LINE
  5
2A33
  8
0
 10
109.7967000000001
 20
41.658600000000007
 30
0.0
 11
109.7967000000001
 21
43.716000000000001
 31
0.0
  0
LINE
  5
2A34
  8
0
 10
109.2379
 20
40.56639999999998
 30
0.0
 11
109.2379
 21
41.658600000000007
 31
0.0
  0
LINE
  5
2A35
  8
0
 10
110.57679783782
 20
41.658600000000007
 30
0.0
 11
109.2379
 21
41.658600000000007
 31
0.0
  0
LINE
  5
2A36
  8
0
 10
109.2379
 20
40.56639999999998
 30
0.0
 11
110.57679783782
 21
40.56639999999998
 31
0.0
  0
LINE
  5
2A39
  8
0
 10
90.190257404480093
 20
35.556250000000013
 30
0.0
 11
107.5615
 21
35.556250000000013
 31
0.0
  0
LINE
  5
2A3A
  8
0
 10
107.5615
 20
45.875
 30
0.0
 11
107.5615
 21
35.556250000000013
 31
0.0
  0
LINE
  5
2A3B
  8
0
 10
107.5615
 20
40.623946694410712
 30
0.0
 11
90.098999999964207
 21
41.11250000156442
 31
0.0
  0
LINE
  5
2A3C
  8
0
 10
90.190257404480036
 20
36.095999999999997
 30
0.0
 11
90.190257404480036
 21
35.556250000000013
 31
0.0
  0
ARC
  5
2A3D
  8
2
 10
41.112499999999997
 20
93.90900000000002
 30
0.0
 40
4.7625000000000117
 50
274.20899670443771
 51
85.791001495683986
  0
ARC
  5
2A41
  8
2
 10
41.495807874480022
 20
99.057376624739987
 30
0.0
 40
0.4001483763117687
 50
192.74785556939921
 51
265.1595391776998
  0
ARC
  5
2A47
  8
2
 10
41.494587219060001
 20
88.762025292699974
 30
0.0
 40
0.3986499717251015
 50
94.682649946100113
 51
167.40995530659961
  0
POLYLINE
  5
2A48
  8
2
 66
     1
 10
0.0
 20
0.0
 30
0.0
 70
   128
  0
VERTEX
  5
2BB1
  8
2
 10
41.105522924800027
 20
88.848920491019967
 30
0.0
  0
VERTEX
  5
2BB2
  8
2
 10
41.100837216620022
 20
88.825618325279976
 30
0.0
  0
VERTEX
  5
2BB3
  8
2
 10
41.095767600140022
 20
88.778387218320034
 30
0.0
  0
SEQEND
  5
2BB4
  8
2
  0
POLYLINE
  5
2A49
  8
2
 66
     1
 10
0.0
 20
0.0
 30
0.0
 70
   128
  0
VERTEX
  5
2BB5
  8
2
 10
41.095767600140022
 20
99.039612781679949
 30
0.0
  0
VERTEX
  5
2BB6
  8
2
 10
41.097659346420009
 20
99.015168875780006
 30
0.0
  0
VERTEX
  5
2BB7
  8
2
 10
41.105522924800027
 20
98.969079511519993
 30
0.0
  0
SEQEND
  5
2BB8
  8
2
  0
LINE
  5
2A4A
  8
2
 10
41.095767600140022
 20
99.039612781679949
 30
0.0
 11
40.968181818127853
 21
101.84650000000001
 31
0.0
  0
LINE
  5
2A4B
  8
2
 10
40.968181818127867
 20
85.97150000000002
 30
0.0
 11
41.095767600140022
 21
88.778387218320034
 31
0.0
  0
LINE
  5
2A51
  8
0
 10
109.2379
 20
91.305500000000023
 30
0.0
 11
107.5615
 21
91.305500000000023
 31
0.0
  0
LINE
  5
2A52
  8
0
 10
107.5615
 20
96.512500000000017
 30
0.0
 11
109.2379
 21
96.512500000000017
 31
0.0
  0
LINE
  5
2A5A
  8
0
 10
109.2379
 20
91.305500000000023
 30
0.0
 11
109.2379
 21
91.363418134100044
 31
0.0
  0
LINE
  5
2A5B
  8
0
 10
109.2379
 20
91.363418134100044
 30
0.0
 11
109.7967000000001
 21
91.363418134100044
 31
0.0
  0
LINE
  5
2A5C
  8
0
 10
109.7967000000001
 20
91.363418134100044
 30
0.0
 11
109.7967000000001
 21
96.454581865899996
 31
0.0
  0
LINE
  5
2A5D
  8
0
 10
109.7967000000001
 20
96.454581865899996
 30
0.0
 11
109.2379
 21
96.454581865899996
 31
0.0
  0
LINE
  5
2A5E
  8
0
 10
109.2379
 20
96.454581865899996
 30
0.0
 11
109.2379
 21
96.512500000000017
 31
0.0
  0
ARC
  5
2A5F
  8
0
 10
106.03343203252
 20
93.90900000000002
 30
0.0
 40
4.5433658057237798
 50
325.9244574890995
 51
34.075542510900412
  0
ARC
  5
2A62
  8
0
 10
91.115000000000038
 20
89.567340979500017
 30
0.0
 40
1.0160000000005629
 50
180.0
 51
203.67643910880051
  0
ARC
  5
2A63
  8
0
 10
91.115000000000038
 20
98.250659020500024
 30
0.0
 40
1.016000000000385
 50
156.32356089119949
 51
180.0
  0
LINE
  5
2A64
  8
0
 10
90.099000000000004
 20
98.250659020500024
 30
0.0
 11
90.099000000000004
 21
89.567340979500017
 31
0.0
  0
LINE
  5
2A65
  8
0
 10
90.396579511519988
 20
88.848920488480047
 30
0.0
 11
90.467112781680015
 21
88.778387218320034
 31
0.0
  0
ARC
  5
2A66
  8
0
 10
91.115000000000038
 20
89.567340979500017
 30
0.0
 40
1.0160000000031619
 50
203.67643910880051
 51
224.9999999999994
  0
LINE
  5
2A67
  8
0
 10
90.467112781680015
 20
99.039612781680063
 30
0.0
 11
90.396579511519988
 21
98.969079508980059
 31
0.0
  0
ARC
  5
2A68
  8
0
 10
91.115000000000038
 20
98.250659020500024
 30
0.0
 40
1.0160000000022369
 50
135.0
 51
156.32356089119949
  0
ARC
  5
2A69
  8
0
 10
104.069
 20
102.2402
 30
0.0
 40
1.7780000000000069
 50
270.0
 51
90.0
  0
LINE
  5
2A6A
  8
0
 10
104.069
 20
100.4622
 30
0.0
 11
98.734999999999985
 21
100.4622
 31
0.0
  0
ARC
  5
2A6B
  8
0
 10
98.734999999999985
 20
102.2402
 30
0.0
 40
1.7780000000000069
 50
90.0
 51
270.0
  0
LINE
  5
2A6C
  8
0
 10
98.734999999999985
 20
104.01819999999999
 30
0.0
 11
104.069
 21
104.01819999999999
 31
0.0
  0
ARC
  5
2A6D
  8
0
 10
105.974
 20
104.0055
 30
0.0
 40
1.5875000000000219
 50
0.0
 51
90.0
  0
LINE
  5
2A6E
  8
0
 10
97.678064031580035
 20
105.593
 30
0.0
 11
105.974
 21
105.593
 31
0.0
  0
ARC
  5
2A6F
  8
0
 10
97.678064031580035
 20
104.0055
 30
0.0
 40
1.5875000000000219
 50
90.0
 51
135.0
  0
LINE
  5
2A70
  8
0
 10
90.467112781680015
 20
99.039612781680063
 30
0.0
 11
96.555532014520026
 21
105.1280320145201
 31
0.0
  0
ARC
  5
2A71
  8
0
 10
104.069
 20
85.577800000000053
 30
0.0
 40
1.7780000000000069
 50
270.0
 51
90.0
  0
LINE
  5
2A72
  8
0
 10
104.069
 20
83.799800000000033
 30
0.0
 11
98.734999999999985
 21
83.799800000000033
 31
0.0
  0
ARC
  5
2A73
  8
0
 10
98.734999999999985
 20
85.577800000000053
 30
0.0
 40
1.7780000000000069
 50
90.0
 51
270.0
  0
LINE
  5
2A74
  8
0
 10
98.734999999999985
 20
87.355800000000016
 30
0.0
 11
104.069
 21
87.355800000000016
 31
0.0
  0
ARC
  5
2A75
  8
0
 10
97.678064031580035
 20
83.812500000000028
 30
0.0
 40
1.587499999999999
 50
224.9999999999994
 51
270.0
  0
LINE
  5
2A76
  8
0
 10
105.974
 20
82.225000000000051
 30
0.0
 11
97.678064031580035
 21
82.225000000000051
 31
0.0
  0
ARC
  5
2A77
  8
0
 10
105.974
 20
83.812500000000028
 30
0.0
 40
1.587499999999999
 50
270.0
 51
0.0
  0
LINE
  5
2A78
  8
0
 10
96.555532014520026
 20
82.689967985480052
 30
0.0
 11
90.467112781680015
 21
88.778387218320034
 31
0.0
  0
LINE
  5
2A79
  8
0
 10
107.5615
 20
104.0055
 30
0.0
 11
107.5615
 21
83.812500000000028
 31
0.0
  0
LINE
  5
2A7A
  8
0
 10
107.5615
 20
98.969079511519993
 30
0.0
 11
90.396579514059994
 21
98.969079511519993
 31
0.0
  0
LINE
  5
2A7B
  8
0
 10
107.5615
 20
88.848920491019967
 30
0.0
 11
90.396579508980125
 21
88.848920491019967
 31
0.0
  0
LINE
  5
2A7C
  8
1
 10
106.84699999999999
 20
102.2402
 30
0.0
 11
95.956999999999965
 21
102.2402
 31
0.0
  0
LINE
  5
2A7D
  8
1
 10
113.07679783824381
 20
93.90900000000002
 30
0.0
 11
79.725000000000051
 21
93.909000000000049
 31
0.0
  0
LINE
  5
2A7E
  8
1
 10
106.84699999999999
 20
85.577800000000053
 30
0.0
 11
95.956999999999965
 21
85.577800000000053
 31
0.0
  0
LINE
  5
2A7F
  8
1
 10
104.069
 20
105.01819999999999
 30
0.0
 11
104.069
 21
99.462200000000053
 31
0.0
  0
LINE
  5
2A80
  8
1
 10
104.069
 20
88.355800000000045
 30
0.0
 11
104.069
 21
82.799800000000076
 31
0.0
  0
LINE
  5
2A81
  8
1
 10
98.734999999999985
 20
105.01819999999999
 30
0.0
 11
98.734999999999985
 21
99.462200000000053
 31
0.0
  0
LINE
  5
2A82
  8
1
 10
98.734999999999985
 20
88.355800000000045
 30
0.0
 11
98.734999999999985
 21
82.799800000000076
 31
0.0
  0
LINE
  5
2A83
  8
1
 10
41.951318888459127
 20
102.2402
 30
0.0
 11
34.556250000000013
 21
102.2402
 31
0.0
  0
LINE
  5
2A84
  8
1
 10
54.725000000000051
 20
93.90900000000002
 30
0.0
 11
27.5
 21
93.90900000000002
 31
0.0
  0
LINE
  5
2A85
  8
1
 10
41.951318888459149
 20
85.577800000000053
 30
0.0
 11
34.556249999999977
 21
85.577800000000025
 31
0.0
  0
LINE
  5
2A86
  8
1
 10
41.11250000000004
 20
84.971500000000034
 30
0.0
 11
41.112499999999983
 21
102.84650000000001
 31
0.0
  0
LINE
  5
2A87
  8
2
 10
40.869468182258373
 20
104.01819999999999
 30
0.0
 11
35.556250000000013
 21
104.01819999999999
 31
0.0
  0
LINE
  5
2A88
  8
2
 10
41.031104545085547
 20
100.4622
 30
0.0
 11
35.556250000000013
 21
100.4622
 31
0.0
  0
LINE
  5
2A89
  8
2
 10
41.031104545085547
 20
87.355800000000016
 30
0.0
 11
35.556250000000013
 21
87.355800000000016
 31
0.0
  0
LINE
  5
2A8A
  8
2
 10
40.869468182258373
 20
83.799800000000033
 30
0.0
 11
35.556249999999977
 21
83.799800000000033
 31
0.0
  0
LINE
  5
2A8B
  8
0
 10
97.020499999999984
 20
40.9188552361829
 30
0.0
 11
97.020499999999984
 21
35.556250000000013
 31
0.0
  0
LINE
  5
2A8C
  8
1
 10
113.07679783824381
 20
41.112499999999947
 30
0.0
 11
79.725000000000051
 21
41.112499999999947
 31
0.0
  0
LINE
  5
2A8D
  8
0
 10
90.099000002540109
 20
36.350000000000001
 30
0.0
 11
90.112792395580044
 21
36.350000000000001
 31
0.0
  0
ARC
  5
2A8E
  8
0
 10
89.844652827720054
 20
36.129410047479979
 30
0.0
 40
0.3472157177211761
 50
354.47830012399987
 51
39.443052161600171
  0
LINE
  5
2A8F
  8
0
 10
90.099000002540109
 20
36.350000000000001
 30
0.0
 11
90.099000002540109
 21
45.875
 31
0.0
  0
ENDSEC
  0
EOF
