  0
SECTION
  2
HEADER
  9
$ACADVER
  1
AC1009
  9
$INSBASE
 10
0.0
 20
0.0
 30
0.0
  9
$EXTMIN
 10
0.0
 20
-2.960436562073669
 30
0.0
  9
$EXTMAX
 10
130.9027104491355
 20
126.675
 30
0.0
  9
$LIMMIN
 10
0.0
 20
0.0
  9
$LIMMAX
 10
12.0
 20
9.0
  9
$ORTHOMODE
 70
     1
  9
$REGENMODE
 70
     1
  9
$FILLMODE
 70
     1
  9
$QTEXTMODE
 70
     0
  9
$MIRRTEXT
 70
     0
  9
$DRAGMODE
 70
     2
  9
$LTSCALE
 40
5.0
  9
$OSMODE
 70
    37
  9
$ATTMODE
 70
     1
  9
$TEXTSIZE
 40
0.2
  9
$TRACEWID
 40
0.05
  9
$TEXTSTYLE
  7
STANDARD
  9
$CLAYER
  8
0
  9
$CELTYPE
  6
BYLAYER
  9
$CECOLOR
 62
   256
  9
$DIMSCALE
 40
1.0
  9
$DIMASZ
 40
0.18
  9
$DIMEXO
 40
0.0625
  9
$DIMDLI
 40
0.38
  9
$DIMRND
 40
0.0
  9
$DIMDLE
 40
0.0
  9
$DIMEXE
 40
0.18
  9
$DIMTP
 40
0.0
  9
$DIMTM
 40
0.0
  9
$DIMTXT
 40
0.18
  9
$DIMCEN
 40
0.09
  9
$DIMTSZ
 40
0.0
  9
$DIMTOL
 70
     0
  9
$DIMLIM
 70
     0
  9
$DIMTIH
 70
     1
  9
$DIMTOH
 70
     1
  9
$DIMSE1
 70
     0
  9
$DIMSE2
 70
     0
  9
$DIMTAD
 70
     0
  9
$DIMZIN
 70
     0
  9
$DIMBLK
  1

  9
$DIMASO
 70
     1
  9
$DIMSHO
 70
     1
  9
$DIMPOST
  1

  9
$DIMAPOST
  1

  9
$DIMALT
 70
     0
  9
$DIMALTD
 70
     2
  9
$DIMALTF
 40
25.399999999999999
  9
$DIMLFAC
 40
1.0
  9
$DIMTOFL
 70
     0
  9
$DIMTVP
 40
0.0
  9
$DIMTIX
 70
     0
  9
$DIMSOXD
 70
     0
  9
$DIMSAH
 70
     0
  9
$DIMBLK1
  1

  9
$DIMBLK2
  1

  9
$DIMSTYLE
  2
STANDARD
  9
$DIMCLRD
 70
     0
  9
$DIMCLRE
 70
     0
  9
$DIMCLRT
 70
     0
  9
$DIMTFAC
 40
1.0
  9
$DIMGAP
 40
0.09
  9
$LUNITS
 70
     2
  9
$LUPREC
 70
     4
  9
$SKETCHINC
 40
0.1
  9
$FILLETRAD
 40
2.5
  9
$AUNITS
 70
     0
  9
$AUPREC
 70
     0
  9
$MENU
  1
.
  9
$ELEVATION
 40
0.0
  9
$PELEVATION
 40
0.0
  9
$THICKNESS
 40
0.0
  9
$LIMCHECK
 70
     0
  9
$BLIPMODE
 70
     0
  9
$CHAMFERA
 40
0.25
  9
$CHAMFERB
 40
0.25
  9
$SKPOLY
 70
     0
  9
$TDCREATE
 40
2453083.4120647679
  9
$TDUPDATE
 40
2456980.5970358569
  9
$TDINDWG
 40
0.4422521759
  9
$TDUSRTIMER
 40
0.4422520602
  9
$USRTIMER
 70
     1
  9
$ANGBASE
 50
0.0
  9
$ANGDIR
 70
     0
  9
$PDMODE
 70
     0
  9
$PDSIZE
 40
0.0
  9
$PLINEWID
 40
0.0
  9
$COORDS
 70
     1
  9
$SPLFRAME
 70
     0
  9
$SPLINETYPE
 70
     6
  9
$SPLINESEGS
 70
     8
  9
$ATTDIA
 70
     0
  9
$ATTREQ
 70
     1
  9
$HANDLING
 70
     1
  9
$HANDSEED
  5
2F97
  9
$SURFTAB1
 70
     6
  9
$SURFTAB2
 70
     6
  9
$SURFTYPE
 70
     6
  9
$SURFU
 70
     6
  9
$SURFV
 70
     6
  9
$UCSNAME
  2

  9
$UCSORG
 10
0.0
 20
0.0
 30
0.0
  9
$UCSXDIR
 10
1.0
 20
0.0
 30
0.0
  9
$UCSYDIR
 10
0.0
 20
1.0
 30
0.0
  9
$PUCSNAME
  2

  9
$PUCSORG
 10
0.0
 20
0.0
 30
0.0
  9
$PUCSXDIR
 10
1.0
 20
0.0
 30
0.0
  9
$PUCSYDIR
 10
0.0
 20
1.0
 30
0.0
  9
$USERI1
 70
     0
  9
$USERI2
 70
     1
  9
$USERI3
 70
     0
  9
$USERI4
 70
     0
  9
$USERI5
 70
     0
  9
$USERR1
 40
0.0
  9
$USERR2
 40
0.0
  9
$USERR3
 40
0.0
  9
$USERR4
 40
0.0
  9
$USERR5
 40
0.0
  9
$WORLDVIEW
 70
     1
  9
$SHADEDGE
 70
     3
  9
$SHADEDIF
 70
    70
  9
$TILEMODE
 70
     1
  9
$MAXACTVP
 70
    64
  9
$PLIMCHECK
 70
     0
  9
$PEXTMIN
 10
0.0
 20
0.0
 30
0.0
  9
$PEXTMAX
 10
0.0
 20
0.0
 30
0.0
  9
$PLIMMIN
 10
0.0
 20
0.0
  9
$PLIMMAX
 10
12.0
 20
9.0
  9
$UNITMODE
 70
     0
  9
$VISRETAIN
 70
     1
  9
$PLINEGEN
 70
     0
  9
$PSLTSCALE
 70
     1
  0
ENDSEC
  0
SECTION
  2
TABLES
  0
TABLE
  2
VPORT
 70
     1
  0
VPORT
  2
*ACTIVE
 70
     0
 10
0.0
 20
0.0
 11
1.0
 21
1.0
 12
165.8205841446453
 22
95.0
 13
0.0
 23
0.0
 14
0.5
 24
0.5
 15
0.5
 25
0.5
 16
0.0
 26
0.0
 36
1.0
 17
0.0
 27
0.0
 37
0.0
 40
190.0
 41
1.7454798331015291
 42
50.0
 43
0.0
 44
0.0
 50
0.0
 51
0.0
 71
     0
 72
  1000
 73
     1
 74
     2
 75
     0
 76
     0
 77
     0
 78
     0
  0
ENDTAB
  0
TABLE
  2
LTYPE
 70
     4
  0
LTYPE
  2
CONTINUOUS
 70
     0
  3
Solid Line
 72
    65
 73
     0
 40
0.0
  0
LTYPE
  2
CENTER
 70
     0
  3
____ _ ____ _ ____ _ ____ _ ____ _ ____ _ ____
 72
    65
 73
     4
 40
2.0
 49
1.25
 49
-0.25
 49
0.25
 49
-0.25
  0
LTYPE
  2
HIDDEN
 70
     0
  3
Hidden __ __ __ __ __ __ __ __ __ __ __ __ __ _
 72
    65
 73
     2
 40
0.375
 49
0.25
 49
-0.125
  0
LTYPE
  2
PHANTOM2
 70
     0
  3
___ _ _ ___ _ _ ___ _ _ ___ _ _
 72
    65
 73
     6
 40
1.25
 49
0.625
 49
-0.125
 49
0.125
 49
-0.125
 49
0.125
 49
-0.125
  0
ENDTAB
  0
TABLE
  2
LAYER
 70
     3
  0
LAYER
  2
0
 70
     0
 62
     7
  6
CONTINUOUS
  0
LAYER
  2
1
 70
     0
 62
     1
  6
CENTER
  0
LAYER
  2
2
 70
     0
 62
     2
  6
HIDDEN
  0
ENDTAB
  0
TABLE
  2
STYLE
 70
     2
  0
STYLE
  2
STANDARD
 70
     0
 40
0.0
 41
1.0
 50
0.0
 71
     0
 42
0.2
  3
simplex.shx
  4
bigfont.shx
  0
STYLE
  2
STANDARD1
 70
     0
 40
0.0
 41
1.0
 50
0.0
 71
     0
 42
3.0
  3
txt
  4

  0
ENDTAB
  0
TABLE
  2
VIEW
 70
     0
  0
ENDTAB
  0
TABLE
  2
UCS
 70
     0
  0
ENDTAB
  0
TABLE
  2
APPID
 70
     5
  0
APPID
  2
ACAD
 70
     0
  0
APPID
  2
DCO15
 70
     0
  0
APPID
  2
ACAD_MLEADERVER
 70
     0
  0
APPID
  2
ACAD_EXEMPT_FROM_CAD_STANDARDS
 70
     0
  0
APPID
  2
ACAD_NAV_VCDISPLAY
 70
     0
  0
ENDTAB
  0
TABLE
  2
DIMSTYLE
 70
     1
  0
DIMSTYLE
  2
STANDARD
 70
     0
  3

  4

  5

  6

  7

 40
1.0
 41
0.18
 42
0.0625
 43
0.38
 44
0.18
 45
0.0
 46
0.0
 47
0.0
 48
0.0
140
0.18
141
0.09
142
0.0
143
25.399999999999999
144
1.0
145
0.0
146
1.0
147
0.09
 71
     0
 72
     0
 73
     1
 74
     1
 75
     0
 76
     0
 77
     0
 78
     0
170
     0
171
     2
172
     0
173
     0
174
     0
175
     0
176
     0
177
     0
178
     0
  0
ENDTAB
  0
ENDSEC
  0
SECTION
  2
BLOCKS
  0
BLOCK
  8
0
  2
$MODEL_SPACE
 70
     0
 10
0.0
 20
0.0
 30
0.0
  3
$MODEL_SPACE
  1

  0
ENDBLK
  5
21
  8
0
  0
BLOCK
 67
     1
  8
0
  2
$PAPER_SPACE
 70
     0
 10
0.0
 20
0.0
 30
0.0
  3
$PAPER_SPACE
  1

  0
ENDBLK
  5
5B
 67
     1
  8
0
  0
ENDSEC
  0
SECTION
  2
ENTITIES
  0
TEXT
  5
2242
  8
0
 62
     3
 10
0.0
 20
0.0
 30
0.0
 40
10.0
  1
SST-M5
  7
STANDARD1
  0
LINE
  5
2309
  8
0
 10
127.52589999999999
 20
41.41729999999999
 30
0.0
 11
125.08750000000001
 21
41.41729999999999
 31
0.0
  0
LINE
  5
230A
  8
0
 10
125.08750000000001
 20
47.157699999999977
 30
0.0
 11
127.52589999999999
 21
47.157699999999977
 31
0.0
  0
ARC
  5
230B
  8
0
 10
123.47848055612
 20
44.287499999999987
 30
0.0
 40
4.9618194444444841
 50
7.0570839042000166
 51
35.342100723997817
  0
ARC
  5
230C
  8
0
 10
123.47848055612
 20
44.287499999999987
 30
0.0
 40
4.9618194444444841
 50
324.65789927600213
 51
352.94291609579989
  0
LINE
  5
2314
  8
0
 10
99.687500000000014
 20
52.224999999999987
 30
0.0
 11
125.08750000000001
 21
52.224999999999987
 31
0.0
  0
LINE
  5
2315
  8
0
 10
127.52589999999999
 20
41.41729999999999
 30
0.0
 11
127.52589999999999
 21
43.67789999999998
 31
0.0
  0
LINE
  5
2316
  8
0
 10
126.91630000000001
 20
43.67789999999998
 30
0.0
 11
126.91630000000001
 21
44.89709999999998
 31
0.0
  0
LINE
  5
2317
  8
0
 10
127.52589999999999
 20
44.89709999999998
 30
0.0
 11
127.52589999999999
 21
47.157699999999977
 31
0.0
  0
LINE
  5
2318
  8
0
 10
128.40271044855999
 20
44.89709999999998
 30
0.0
 11
126.91630000000011
 21
44.89709999999998
 31
0.0
  0
LINE
  5
2319
  8
0
 10
126.91630000000011
 20
43.677899999999987
 30
0.0
 11
128.40271044855999
 21
43.67789999999998
 31
0.0
  0
LINE
  5
231C
  8
0
 10
99.687499999999957
 20
36.350000000000001
 30
0.0
 11
125.08750000000001
 21
36.349999999999987
 31
0.0
  0
LINE
  5
231D
  8
0
 10
99.687500000000014
 20
43.492479999955812
 30
0.0
 11
125.08750000000011
 21
42.700000001428151
 31
0.0
  0
LINE
  5
231E
  8
0
 10
99.687499999999957
 20
36.34999999999998
 30
0.0
 11
99.687500000000014
 21
52.224999999999987
 31
0.0
  0
LINE
  5
231F
  8
0
 10
125.08750000000001
 20
52.224999999999987
 30
0.0
 11
125.08750000000011
 21
36.349999999999987
 31
0.0
  0
ARC
  5
2325
  8
2
 10
44.287500000000001
 20
107.6249999999999
 30
0.0
 40
7.9375000000000169
 50
286.2119455843993
 51
73.788054415600712
  0
LINE
  5
2329
  8
2
 10
44.287500000000001
 20
115.5624999999999
 30
0.0
 11
44.252715368019992
 21
115.5624999999999
 31
0.0
  0
ARC
  5
232A
  8
2
 10
44.255572789280031
 20
116.34381029412
 30
0.0
 40
0.7813155196687691
 50
225.58921271639949
 51
269.79045767189967
  0
ARC
  5
232B
  8
2
 10
44.287500000000001
 20
107.6249999999999
 30
0.0
 40
7.9375000000002496
 50
73.788054415600712
 51
90.0
  0
ARC
  5
232C
  8
2
 10
44.255946938900003
 20
98.905277896679976
 30
0.0
 40
0.7822287780508161
 50
90.236703106999528
 51
134.38362650470231
  0
LINE
  5
232D
  8
2
 10
44.287500000000001
 20
99.687499999999986
 30
0.0
 11
44.252715368019992
 21
99.687499999999986
 31
0.0
  0
ARC
  5
232E
  8
2
 10
44.287500000000001
 20
107.6249999999999
 30
0.0
 40
7.9374999999990736
 50
270.0
 51
286.2119455843993
  0
POLYLINE
  5
232F
  8
2
 10
43.468705598777248
 20
98.925499999996319
 30
0.0
 66
     1
 70
     8
  0
VERTEX
  8
2
  5
2D0D
 10
43.4687
 20
98.9255
 30
0.000000
  70
    32
  0
VERTEX
  8
2
  5
2D0E
 10
43.4689
 20
98.9302
 30
0.000000
  70
    32
  0
VERTEX
  8
2
  5
2D0F
 10
43.4691
 20
98.9349
 30
0.000000
  70
    32
  0
VERTEX
  8
2
  5
2D10
 10
43.4693
 20
98.9395
 30
0.000000
  70
    32
  0
VERTEX
  8
2
  5
2D11
 10
43.4695
 20
98.9442
 30
0.000000
  70
    32
  0
VERTEX
  8
2
  5
2D12
 10
43.4698
 20
98.9489
 30
0.000000
  70
    32
  0
VERTEX
  8
2
  5
2D13
 10
43.4701
 20
98.9535
 30
0.000000
  70
    32
  0
VERTEX
  8
2
  5
2D14
 10
43.4704
 20
98.9582
 30
0.000000
  70
    32
  0
VERTEX
  8
2
  5
2D15
 10
43.4708
 20
98.9629
 30
0.000000
  70
    32
  0
VERTEX
  8
2
  5
2D16
 10
43.4712
 20
98.9676
 30
0.000000
  70
    32
  0
VERTEX
  8
2
  5
2D17
 10
43.4716
 20
98.9722
 30
0.000000
  70
    32
  0
VERTEX
  8
2
  5
2D18
 10
43.4720
 20
98.9769
 30
0.000000
  70
    32
  0
VERTEX
  8
2
  5
2D19
 10
43.4725
 20
98.9816
 30
0.000000
  70
    32
  0
VERTEX
  8
2
  5
2D1A
 10
43.4730
 20
98.9862
 30
0.000000
  70
    32
  0
VERTEX
  8
2
  5
2D1B
 10
43.4736
 20
98.9909
 30
0.000000
  70
    32
  0
VERTEX
  8
2
  5
2D1C
 10
43.4741
 20
98.9955
 30
0.000000
  70
    32
  0
VERTEX
  8
2
  5
2D1D
 10
43.4747
 20
99.0002
 30
0.000000
  70
    32
  0
VERTEX
  8
2
  5
2D1E
 10
43.4753
 20
99.0048
 30
0.000000
  70
    32
  0
VERTEX
  8
2
  5
2D1F
 10
43.4760
 20
99.0095
 30
0.000000
  70
    32
  0
VERTEX
  8
2
  5
2D20
 10
43.4766
 20
99.0141
 30
0.000000
  70
    32
  0
VERTEX
  8
2
  5
2D21
 10
43.4773
 20
99.0188
 30
0.000000
  70
    32
  0
VERTEX
  8
2
  5
2D22
 10
43.4781
 20
99.0234
 30
0.000000
  70
    32
  0
VERTEX
  8
2
  5
2D23
 10
43.4788
 20
99.0281
 30
0.000000
  70
    32
  0
VERTEX
  8
2
  5
2D24
 10
43.4796
 20
99.0327
 30
0.000000
  70
    32
  0
VERTEX
  8
2
  5
2D25
 10
43.4804
 20
99.0373
 30
0.000000
  70
    32
  0
VERTEX
  8
2
  5
2D26
 10
43.4813
 20
99.0419
 30
0.000000
  70
    32
  0
VERTEX
  8
2
  5
2D27
 10
43.4822
 20
99.0465
 30
0.000000
  70
    32
  0
VERTEX
  8
2
  5
2D28
 10
43.4831
 20
99.0512
 30
0.000000
  70
    32
  0
VERTEX
  8
2
  5
2D29
 10
43.4840
 20
99.0558
 30
0.000000
  70
    32
  0
VERTEX
  8
2
  5
2D2A
 10
43.4850
 20
99.0604
 30
0.000000
  70
    32
  0
VERTEX
  8
2
  5
2D2B
 10
43.4859
 20
99.0650
 30
0.000000
  70
    32
  0
VERTEX
  8
2
  5
2D2C
 10
43.4870
 20
99.0696
 30
0.000000
  70
    32
  0
VERTEX
  8
2
  5
2D2D
 10
43.4880
 20
99.0742
 30
0.000000
  70
    32
  0
VERTEX
  8
2
  5
2D2E
 10
43.4891
 20
99.0787
 30
0.000000
  70
    32
  0
VERTEX
  8
2
  5
2D2F
 10
43.4902
 20
99.0833
 30
0.000000
  70
    32
  0
VERTEX
  8
2
  5
2D30
 10
43.4913
 20
99.0879
 30
0.000000
  70
    32
  0
VERTEX
  8
2
  5
2D31
 10
43.4924
 20
99.0925
 30
0.000000
  70
    32
  0
VERTEX
  8
2
  5
2D32
 10
43.4936
 20
99.0970
 30
0.000000
  70
    32
  0
VERTEX
  8
2
  5
2D33
 10
43.4948
 20
99.1016
 30
0.000000
  70
    32
  0
VERTEX
  8
2
  5
2D34
 10
43.4961
 20
99.1061
 30
0.000000
  70
    32
  0
VERTEX
  8
2
  5
2D35
 10
43.4973
 20
99.1107
 30
0.000000
  70
    32
  0
VERTEX
  8
2
  5
2D36
 10
43.4986
 20
99.1152
 30
0.000000
  70
    32
  0
VERTEX
  8
2
  5
2D37
 10
43.4999
 20
99.1197
 30
0.000000
  70
    32
  0
VERTEX
  8
2
  5
2D38
 10
43.5013
 20
99.1242
 30
0.000000
  70
    32
  0
VERTEX
  8
2
  5
2D39
 10
43.5027
 20
99.1287
 30
0.000000
  70
    32
  0
VERTEX
  8
2
  5
2D3A
 10
43.5041
 20
99.1332
 30
0.000000
  70
    32
  0
VERTEX
  8
2
  5
2D3B
 10
43.5055
 20
99.1377
 30
0.000000
  70
    32
  0
VERTEX
  8
2
  5
2D3C
 10
43.5070
 20
99.1422
 30
0.000000
  70
    32
  0
VERTEX
  8
2
  5
2D3D
 10
43.5084
 20
99.1467
 30
0.000000
  70
    32
  0
VERTEX
  8
2
  5
2D3E
 10
43.5099
 20
99.1512
 30
0.000000
  70
    32
  0
VERTEX
  8
2
  5
2D3F
 10
43.5115
 20
99.1556
 30
0.000000
  70
    32
  0
VERTEX
  8
2
  5
2D40
 10
43.5130
 20
99.1601
 30
0.000000
  70
    32
  0
VERTEX
  8
2
  5
2D41
 10
43.5146
 20
99.1645
 30
0.000000
  70
    32
  0
VERTEX
  8
2
  5
2D42
 10
43.5163
 20
99.1690
 30
0.000000
  70
    32
  0
VERTEX
  8
2
  5
2D43
 10
43.5179
 20
99.1734
 30
0.000000
  70
    32
  0
VERTEX
  8
2
  5
2D44
 10
43.5196
 20
99.1778
 30
0.000000
  70
    32
  0
VERTEX
  8
2
  5
2D45
 10
43.5213
 20
99.1822
 30
0.000000
  70
    32
  0
VERTEX
  8
2
  5
2D46
 10
43.5230
 20
99.1866
 30
0.000000
  70
    32
  0
VERTEX
  8
2
  5
2D47
 10
43.5248
 20
99.1910
 30
0.000000
  70
    32
  0
VERTEX
  8
2
  5
2D48
 10
43.5265
 20
99.1954
 30
0.000000
  70
    32
  0
VERTEX
  8
2
  5
2D49
 10
43.5283
 20
99.1997
 30
0.000000
  70
    32
  0
VERTEX
  8
2
  5
2D4A
 10
43.5302
 20
99.2041
 30
0.000000
  70
    32
  0
VERTEX
  8
2
  5
2D4B
 10
43.5320
 20
99.2084
 30
0.000000
  70
    32
  0
VERTEX
  8
2
  5
2D4C
 10
43.5339
 20
99.2128
 30
0.000000
  70
    32
  0
VERTEX
  8
2
  5
2D4D
 10
43.5358
 20
99.2171
 30
0.000000
  70
    32
  0
VERTEX
  8
2
  5
2D4E
 10
43.5378
 20
99.2214
 30
0.000000
  70
    32
  0
VERTEX
  8
2
  5
2D4F
 10
43.5397
 20
99.2257
 30
0.000000
  70
    32
  0
VERTEX
  8
2
  5
2D50
 10
43.5417
 20
99.2300
 30
0.000000
  70
    32
  0
VERTEX
  8
2
  5
2D51
 10
43.5437
 20
99.2343
 30
0.000000
  70
    32
  0
VERTEX
  8
2
  5
2D52
 10
43.5458
 20
99.2386
 30
0.000000
  70
    32
  0
VERTEX
  8
2
  5
2D53
 10
43.5479
 20
99.2428
 30
0.000000
  70
    32
  0
VERTEX
  8
2
  5
2D54
 10
43.5499
 20
99.2471
 30
0.000000
  70
    32
  0
VERTEX
  8
2
  5
2D55
 10
43.5521
 20
99.2513
 30
0.000000
  70
    32
  0
VERTEX
  8
2
  5
2D56
 10
43.5542
 20
99.2555
 30
0.000000
  70
    32
  0
VERTEX
  8
2
  5
2D57
 10
43.5564
 20
99.2597
 30
0.000000
  70
    32
  0
VERTEX
  8
2
  5
2D58
 10
43.5586
 20
99.2639
 30
0.000000
  70
    32
  0
VERTEX
  8
2
  5
2D59
 10
43.5608
 20
99.2681
 30
0.000000
  70
    32
  0
VERTEX
  8
2
  5
2D5A
 10
43.5630
 20
99.2723
 30
0.000000
  70
    32
  0
VERTEX
  8
2
  5
2D5B
 10
43.5653
 20
99.2764
 30
0.000000
  70
    32
  0
VERTEX
  8
2
  5
2D5C
 10
43.5676
 20
99.2806
 30
0.000000
  70
    32
  0
VERTEX
  8
2
  5
2D5D
 10
43.5699
 20
99.2847
 30
0.000000
  70
    32
  0
VERTEX
  8
2
  5
2D5E
 10
43.5723
 20
99.2888
 30
0.000000
  70
    32
  0
VERTEX
  8
2
  5
2D5F
 10
43.5746
 20
99.2929
 30
0.000000
  70
    32
  0
VERTEX
  8
2
  5
2D60
 10
43.5770
 20
99.2970
 30
0.000000
  70
    32
  0
VERTEX
  8
2
  5
2D61
 10
43.5795
 20
99.3011
 30
0.000000
  70
    32
  0
VERTEX
  8
2
  5
2D62
 10
43.5819
 20
99.3051
 30
0.000000
  70
    32
  0
VERTEX
  8
2
  5
2D63
 10
43.5844
 20
99.3092
 30
0.000000
  70
    32
  0
VERTEX
  8
2
  5
2D64
 10
43.5869
 20
99.3132
 30
0.000000
  70
    32
  0
VERTEX
  8
2
  5
2D65
 10
43.5894
 20
99.3172
 30
0.000000
  70
    32
  0
VERTEX
  8
2
  5
2D66
 10
43.5919
 20
99.3212
 30
0.000000
  70
    32
  0
VERTEX
  8
2
  5
2D67
 10
43.5945
 20
99.3252
 30
0.000000
  70
    32
  0
VERTEX
  8
2
  5
2D68
 10
43.5971
 20
99.3292
 30
0.000000
  70
    32
  0
VERTEX
  8
2
  5
2D69
 10
43.5997
 20
99.3332
 30
0.000000
  70
    32
  0
VERTEX
  8
2
  5
2D6A
 10
43.6023
 20
99.3371
 30
0.000000
  70
    32
  0
VERTEX
  8
2
  5
2D6B
 10
43.6050
 20
99.3410
 30
0.000000
  70
    32
  0
VERTEX
  8
2
  5
2D6C
 10
43.6077
 20
99.3449
 30
0.000000
  70
    32
  0
VERTEX
  8
2
  5
2D6D
 10
43.6104
 20
99.3488
 30
0.000000
  70
    32
  0
VERTEX
  8
2
  5
2D6E
 10
43.6131
 20
99.3527
 30
0.000000
  70
    32
  0
VERTEX
  8
2
  5
2D6F
 10
43.6159
 20
99.3566
 30
0.000000
  70
    32
  0
VERTEX
  8
2
  5
2D70
 10
43.6187
 20
99.3604
 30
0.000000
  70
    32
  0
VERTEX
  8
2
  5
2D71
 10
43.6215
 20
99.3643
 30
0.000000
  70
    32
  0
VERTEX
  8
2
  5
2D72
 10
43.6243
 20
99.3681
 30
0.000000
  70
    32
  0
VERTEX
  8
2
  5
2D73
 10
43.6271
 20
99.3719
 30
0.000000
  70
    32
  0
VERTEX
  8
2
  5
2D74
 10
43.6300
 20
99.3757
 30
0.000000
  70
    32
  0
VERTEX
  8
2
  5
2D75
 10
43.6329
 20
99.3794
 30
0.000000
  70
    32
  0
VERTEX
  8
2
  5
2D76
 10
43.6358
 20
99.3832
 30
0.000000
  70
    32
  0
VERTEX
  8
2
  5
2D77
 10
43.6387
 20
99.3869
 30
0.000000
  70
    32
  0
VERTEX
  8
2
  5
2D78
 10
43.6417
 20
99.3906
 30
0.000000
  70
    32
  0
VERTEX
  8
2
  5
2D79
 10
43.6447
 20
99.3943
 30
0.000000
  70
    32
  0
VERTEX
  8
2
  5
2D7A
 10
43.6477
 20
99.3980
 30
0.000000
  70
    32
  0
VERTEX
  8
2
  5
2D7B
 10
43.6507
 20
99.4016
 30
0.000000
  70
    32
  0
VERTEX
  8
2
  5
2D7C
 10
43.6538
 20
99.4053
 30
0.000000
  70
    32
  0
VERTEX
  8
2
  5
2D7D
 10
43.6568
 20
99.4089
 30
0.000000
  70
    32
  0
VERTEX
  8
2
  5
2D7E
 10
43.6599
 20
99.4125
 30
0.000000
  70
    32
  0
VERTEX
  8
2
  5
2D7F
 10
43.6630
 20
99.4161
 30
0.000000
  70
    32
  0
VERTEX
  8
2
  5
2D80
 10
43.6662
 20
99.4197
 30
0.000000
  70
    32
  0
VERTEX
  8
2
  5
2D81
 10
43.6693
 20
99.4232
 30
0.000000
  70
    32
  0
VERTEX
  8
2
  5
2D82
 10
43.6725
 20
99.4267
 30
0.000000
  70
    32
  0
VERTEX
  8
2
  5
2D83
 10
43.6757
 20
99.4303
 30
0.000000
  70
    32
  0
VERTEX
  8
2
  5
2D84
 10
43.6789
 20
99.4338
 30
0.000000
  70
    32
  0
VERTEX
  8
2
  5
2D85
 10
43.6822
 20
99.4372
 30
0.000000
  70
    32
  0
VERTEX
  8
2
  5
2D86
 10
43.6854
 20
99.4407
 30
0.000000
  70
    32
  0
VERTEX
  8
2
  5
2D87
 10
43.6887
 20
99.4441
 30
0.000000
  70
    32
  0
VERTEX
  8
2
  5
2D88
 10
43.6920
 20
99.4475
 30
0.000000
  70
    32
  0
VERTEX
  8
2
  5
2D89
 10
43.6953
 20
99.4509
 30
0.000000
  70
    32
  0
VERTEX
  8
2
  5
2D8A
 10
43.6987
 20
99.4543
 30
0.000000
  70
    32
  0
VERTEX
  8
2
  5
2D8B
 10
43.7020
 20
99.4577
 30
0.000000
  70
    32
  0
VERTEX
  8
2
  5
2D8C
 10
43.7054
 20
99.4610
 30
0.000000
  70
    32
  0
VERTEX
  8
2
  5
2D8D
 10
43.7088
 20
99.4643
 30
0.000000
  70
    32
  0
SEQEND
  8
2
  5
2D8E
  0
POLYLINE
  5
2330
  8
2
 10
43.708809872974705
 20
115.785684632741
 30
0.0
 66
     1
 70
     8
  0
VERTEX
  8
2
  5
2D8F
 10
43.7088
 20
115.786
 30
0.000000
  70
    32
  0
VERTEX
  8
2
  5
2D90
 10
43.7054
 20
115.789
 30
0.000000
  70
    32
  0
VERTEX
  8
2
  5
2D91
 10
43.7020
 20
115.792
 30
0.000000
  70
    32
  0
VERTEX
  8
2
  5
2D92
 10
43.6987
 20
115.796
 30
0.000000
  70
    32
  0
VERTEX
  8
2
  5
2D93
 10
43.6953
 20
115.799
 30
0.000000
  70
    32
  0
VERTEX
  8
2
  5
2D94
 10
43.6920
 20
115.802
 30
0.000000
  70
    32
  0
VERTEX
  8
2
  5
2D95
 10
43.6887
 20
115.806
 30
0.000000
  70
    32
  0
VERTEX
  8
2
  5
2D96
 10
43.6854
 20
115.809
 30
0.000000
  70
    32
  0
VERTEX
  8
2
  5
2D97
 10
43.6822
 20
115.813
 30
0.000000
  70
    32
  0
VERTEX
  8
2
  5
2D98
 10
43.6789
 20
115.816
 30
0.000000
  70
    32
  0
VERTEX
  8
2
  5
2D99
 10
43.6757
 20
115.820
 30
0.000000
  70
    32
  0
VERTEX
  8
2
  5
2D9A
 10
43.6725
 20
115.823
 30
0.000000
  70
    32
  0
VERTEX
  8
2
  5
2D9B
 10
43.6693
 20
115.827
 30
0.000000
  70
    32
  0
VERTEX
  8
2
  5
2D9C
 10
43.6662
 20
115.830
 30
0.000000
  70
    32
  0
VERTEX
  8
2
  5
2D9D
 10
43.6630
 20
115.834
 30
0.000000
  70
    32
  0
VERTEX
  8
2
  5
2D9E
 10
43.6599
 20
115.837
 30
0.000000
  70
    32
  0
VERTEX
  8
2
  5
2D9F
 10
43.6568
 20
115.841
 30
0.000000
  70
    32
  0
VERTEX
  8
2
  5
2DA0
 10
43.6538
 20
115.845
 30
0.000000
  70
    32
  0
VERTEX
  8
2
  5
2DA1
 10
43.6507
 20
115.848
 30
0.000000
  70
    32
  0
VERTEX
  8
2
  5
2DA2
 10
43.6477
 20
115.852
 30
0.000000
  70
    32
  0
VERTEX
  8
2
  5
2DA3
 10
43.6447
 20
115.856
 30
0.000000
  70
    32
  0
VERTEX
  8
2
  5
2DA4
 10
43.6417
 20
115.859
 30
0.000000
  70
    32
  0
VERTEX
  8
2
  5
2DA5
 10
43.6387
 20
115.863
 30
0.000000
  70
    32
  0
VERTEX
  8
2
  5
2DA6
 10
43.6358
 20
115.867
 30
0.000000
  70
    32
  0
VERTEX
  8
2
  5
2DA7
 10
43.6329
 20
115.871
 30
0.000000
  70
    32
  0
VERTEX
  8
2
  5
2DA8
 10
43.6300
 20
115.874
 30
0.000000
  70
    32
  0
VERTEX
  8
2
  5
2DA9
 10
43.6271
 20
115.878
 30
0.000000
  70
    32
  0
VERTEX
  8
2
  5
2DAA
 10
43.6243
 20
115.882
 30
0.000000
  70
    32
  0
VERTEX
  8
2
  5
2DAB
 10
43.6215
 20
115.886
 30
0.000000
  70
    32
  0
VERTEX
  8
2
  5
2DAC
 10
43.6187
 20
115.890
 30
0.000000
  70
    32
  0
VERTEX
  8
2
  5
2DAD
 10
43.6159
 20
115.893
 30
0.000000
  70
    32
  0
VERTEX
  8
2
  5
2DAE
 10
43.6131
 20
115.897
 30
0.000000
  70
    32
  0
VERTEX
  8
2
  5
2DAF
 10
43.6104
 20
115.901
 30
0.000000
  70
    32
  0
VERTEX
  8
2
  5
2DB0
 10
43.6077
 20
115.905
 30
0.000000
  70
    32
  0
VERTEX
  8
2
  5
2DB1
 10
43.6050
 20
115.909
 30
0.000000
  70
    32
  0
VERTEX
  8
2
  5
2DB2
 10
43.6023
 20
115.913
 30
0.000000
  70
    32
  0
VERTEX
  8
2
  5
2DB3
 10
43.5997
 20
115.917
 30
0.000000
  70
    32
  0
VERTEX
  8
2
  5
2DB4
 10
43.5971
 20
115.921
 30
0.000000
  70
    32
  0
VERTEX
  8
2
  5
2DB5
 10
43.5945
 20
115.925
 30
0.000000
  70
    32
  0
VERTEX
  8
2
  5
2DB6
 10
43.5919
 20
115.929
 30
0.000000
  70
    32
  0
VERTEX
  8
2
  5
2DB7
 10
43.5894
 20
115.933
 30
0.000000
  70
    32
  0
VERTEX
  8
2
  5
2DB8
 10
43.5869
 20
115.937
 30
0.000000
  70
    32
  0
VERTEX
  8
2
  5
2DB9
 10
43.5844
 20
115.941
 30
0.000000
  70
    32
  0
VERTEX
  8
2
  5
2DBA
 10
43.5819
 20
115.945
 30
0.000000
  70
    32
  0
VERTEX
  8
2
  5
2DBB
 10
43.5795
 20
115.949
 30
0.000000
  70
    32
  0
VERTEX
  8
2
  5
2DBC
 10
43.5770
 20
115.953
 30
0.000000
  70
    32
  0
VERTEX
  8
2
  5
2DBD
 10
43.5746
 20
115.957
 30
0.000000
  70
    32
  0
VERTEX
  8
2
  5
2DBE
 10
43.5723
 20
115.961
 30
0.000000
  70
    32
  0
VERTEX
  8
2
  5
2DBF
 10
43.5699
 20
115.965
 30
0.000000
  70
    32
  0
VERTEX
  8
2
  5
2DC0
 10
43.5676
 20
115.969
 30
0.000000
  70
    32
  0
VERTEX
  8
2
  5
2DC1
 10
43.5653
 20
115.974
 30
0.000000
  70
    32
  0
VERTEX
  8
2
  5
2DC2
 10
43.5630
 20
115.978
 30
0.000000
  70
    32
  0
VERTEX
  8
2
  5
2DC3
 10
43.5608
 20
115.982
 30
0.000000
  70
    32
  0
VERTEX
  8
2
  5
2DC4
 10
43.5586
 20
115.986
 30
0.000000
  70
    32
  0
VERTEX
  8
2
  5
2DC5
 10
43.5564
 20
115.990
 30
0.000000
  70
    32
  0
VERTEX
  8
2
  5
2DC6
 10
43.5542
 20
115.994
 30
0.000000
  70
    32
  0
VERTEX
  8
2
  5
2DC7
 10
43.5521
 20
115.999
 30
0.000000
  70
    32
  0
VERTEX
  8
2
  5
2DC8
 10
43.5499
 20
116.003
 30
0.000000
  70
    32
  0
VERTEX
  8
2
  5
2DC9
 10
43.5479
 20
116.007
 30
0.000000
  70
    32
  0
VERTEX
  8
2
  5
2DCA
 10
43.5458
 20
116.011
 30
0.000000
  70
    32
  0
VERTEX
  8
2
  5
2DCB
 10
43.5437
 20
116.016
 30
0.000000
  70
    32
  0
VERTEX
  8
2
  5
2DCC
 10
43.5417
 20
116.020
 30
0.000000
  70
    32
  0
VERTEX
  8
2
  5
2DCD
 10
43.5397
 20
116.024
 30
0.000000
  70
    32
  0
VERTEX
  8
2
  5
2DCE
 10
43.5378
 20
116.029
 30
0.000000
  70
    32
  0
VERTEX
  8
2
  5
2DCF
 10
43.5358
 20
116.033
 30
0.000000
  70
    32
  0
VERTEX
  8
2
  5
2DD0
 10
43.5339
 20
116.037
 30
0.000000
  70
    32
  0
VERTEX
  8
2
  5
2DD1
 10
43.5320
 20
116.042
 30
0.000000
  70
    32
  0
VERTEX
  8
2
  5
2DD2
 10
43.5302
 20
116.046
 30
0.000000
  70
    32
  0
VERTEX
  8
2
  5
2DD3
 10
43.5283
 20
116.050
 30
0.000000
  70
    32
  0
VERTEX
  8
2
  5
2DD4
 10
43.5265
 20
116.055
 30
0.000000
  70
    32
  0
VERTEX
  8
2
  5
2DD5
 10
43.5248
 20
116.059
 30
0.000000
  70
    32
  0
VERTEX
  8
2
  5
2DD6
 10
43.5230
 20
116.063
 30
0.000000
  70
    32
  0
VERTEX
  8
2
  5
2DD7
 10
43.5213
 20
116.068
 30
0.000000
  70
    32
  0
VERTEX
  8
2
  5
2DD8
 10
43.5196
 20
116.072
 30
0.000000
  70
    32
  0
VERTEX
  8
2
  5
2DD9
 10
43.5179
 20
116.077
 30
0.000000
  70
    32
  0
VERTEX
  8
2
  5
2DDA
 10
43.5163
 20
116.081
 30
0.000000
  70
    32
  0
VERTEX
  8
2
  5
2DDB
 10
43.5146
 20
116.085
 30
0.000000
  70
    32
  0
VERTEX
  8
2
  5
2DDC
 10
43.5130
 20
116.090
 30
0.000000
  70
    32
  0
VERTEX
  8
2
  5
2DDD
 10
43.5115
 20
116.094
 30
0.000000
  70
    32
  0
VERTEX
  8
2
  5
2DDE
 10
43.5099
 20
116.099
 30
0.000000
  70
    32
  0
VERTEX
  8
2
  5
2DDF
 10
43.5084
 20
116.103
 30
0.000000
  70
    32
  0
VERTEX
  8
2
  5
2DE0
 10
43.5070
 20
116.108
 30
0.000000
  70
    32
  0
VERTEX
  8
2
  5
2DE1
 10
43.5055
 20
116.112
 30
0.000000
  70
    32
  0
VERTEX
  8
2
  5
2DE2
 10
43.5041
 20
116.117
 30
0.000000
  70
    32
  0
VERTEX
  8
2
  5
2DE3
 10
43.5027
 20
116.121
 30
0.000000
  70
    32
  0
VERTEX
  8
2
  5
2DE4
 10
43.5013
 20
116.126
 30
0.000000
  70
    32
  0
VERTEX
  8
2
  5
2DE5
 10
43.4999
 20
116.130
 30
0.000000
  70
    32
  0
VERTEX
  8
2
  5
2DE6
 10
43.4986
 20
116.135
 30
0.000000
  70
    32
  0
VERTEX
  8
2
  5
2DE7
 10
43.4973
 20
116.139
 30
0.000000
  70
    32
  0
VERTEX
  8
2
  5
2DE8
 10
43.4961
 20
116.144
 30
0.000000
  70
    32
  0
VERTEX
  8
2
  5
2DE9
 10
43.4948
 20
116.148
 30
0.000000
  70
    32
  0
VERTEX
  8
2
  5
2DEA
 10
43.4936
 20
116.153
 30
0.000000
  70
    32
  0
VERTEX
  8
2
  5
2DEB
 10
43.4924
 20
116.158
 30
0.000000
  70
    32
  0
VERTEX
  8
2
  5
2DEC
 10
43.4913
 20
116.162
 30
0.000000
  70
    32
  0
VERTEX
  8
2
  5
2DED
 10
43.4902
 20
116.167
 30
0.000000
  70
    32
  0
VERTEX
  8
2
  5
2DEE
 10
43.4891
 20
116.171
 30
0.000000
  70
    32
  0
VERTEX
  8
2
  5
2DEF
 10
43.4880
 20
116.176
 30
0.000000
  70
    32
  0
VERTEX
  8
2
  5
2DF0
 10
43.4870
 20
116.180
 30
0.000000
  70
    32
  0
VERTEX
  8
2
  5
2DF1
 10
43.4859
 20
116.185
 30
0.000000
  70
    32
  0
VERTEX
  8
2
  5
2DF2
 10
43.4850
 20
116.190
 30
0.000000
  70
    32
  0
VERTEX
  8
2
  5
2DF3
 10
43.4840
 20
116.194
 30
0.000000
  70
    32
  0
VERTEX
  8
2
  5
2DF4
 10
43.4831
 20
116.199
 30
0.000000
  70
    32
  0
VERTEX
  8
2
  5
2DF5
 10
43.4822
 20
116.203
 30
0.000000
  70
    32
  0
VERTEX
  8
2
  5
2DF6
 10
43.4813
 20
116.208
 30
0.000000
  70
    32
  0
VERTEX
  8
2
  5
2DF7
 10
43.4804
 20
116.213
 30
0.000000
  70
    32
  0
VERTEX
  8
2
  5
2DF8
 10
43.4796
 20
116.217
 30
0.000000
  70
    32
  0
VERTEX
  8
2
  5
2DF9
 10
43.4788
 20
116.222
 30
0.000000
  70
    32
  0
VERTEX
  8
2
  5
2DFA
 10
43.4781
 20
116.227
 30
0.000000
  70
    32
  0
VERTEX
  8
2
  5
2DFB
 10
43.4773
 20
116.231
 30
0.000000
  70
    32
  0
VERTEX
  8
2
  5
2DFC
 10
43.4766
 20
116.236
 30
0.000000
  70
    32
  0
VERTEX
  8
2
  5
2DFD
 10
43.4760
 20
116.241
 30
0.000000
  70
    32
  0
VERTEX
  8
2
  5
2DFE
 10
43.4753
 20
116.245
 30
0.000000
  70
    32
  0
VERTEX
  8
2
  5
2DFF
 10
43.4747
 20
116.250
 30
0.000000
  70
    32
  0
VERTEX
  8
2
  5
2E00
 10
43.4741
 20
116.254
 30
0.000000
  70
    32
  0
VERTEX
  8
2
  5
2E01
 10
43.4736
 20
116.259
 30
0.000000
  70
    32
  0
VERTEX
  8
2
  5
2E02
 10
43.4730
 20
116.264
 30
0.000000
  70
    32
  0
VERTEX
  8
2
  5
2E03
 10
43.4725
 20
116.268
 30
0.000000
  70
    32
  0
VERTEX
  8
2
  5
2E04
 10
43.4720
 20
116.273
 30
0.000000
  70
    32
  0
VERTEX
  8
2
  5
2E05
 10
43.4716
 20
116.278
 30
0.000000
  70
    32
  0
VERTEX
  8
2
  5
2E06
 10
43.4712
 20
116.282
 30
0.000000
  70
    32
  0
VERTEX
  8
2
  5
2E07
 10
43.4708
 20
116.287
 30
0.000000
  70
    32
  0
VERTEX
  8
2
  5
2E08
 10
43.4704
 20
116.292
 30
0.000000
  70
    32
  0
VERTEX
  8
2
  5
2E09
 10
43.4701
 20
116.296
 30
0.000000
  70
    32
  0
VERTEX
  8
2
  5
2E0A
 10
43.4698
 20
116.301
 30
0.000000
  70
    32
  0
VERTEX
  8
2
  5
2E0B
 10
43.4695
 20
116.306
 30
0.000000
  70
    32
  0
VERTEX
  8
2
  5
2E0C
 10
43.4693
 20
116.310
 30
0.000000
  70
    32
  0
VERTEX
  8
2
  5
2E0D
 10
43.4691
 20
116.315
 30
0.000000
  70
    32
  0
VERTEX
  8
2
  5
2E0E
 10
43.4689
 20
116.320
 30
0.000000
  70
    32
  0
VERTEX
  8
2
  5
2E0F
 10
43.4687
 20
116.325
 30
0.000000
  70
    32
  0
SEQEND
  8
2
  5
2E10
  0
LINE
  5
2331
  8
2
 10
43.393420000139841
 20
118.7375
 30
0.0
 11
43.468705600000007
 21
116.3244999999999
 31
0.0
  0
LINE
  5
2332
  8
2
 10
43.468705600000007
 20
98.925500000000028
 30
0.0
 11
43.393420000139841
 21
96.512500000000003
 31
0.0
  0
LINE
  5
2337
  8
0
 10
126.91630000000001
 20
104.7548
 30
0.0
 11
125.08750000000001
 21
104.7548
 31
0.0
  0
LINE
  5
2338
  8
0
 10
125.08750000000001
 20
110.4952
 30
0.0
 11
126.91630000000001
 21
110.4952
 31
0.0
  0
ARC
  5
2340
  8
0
 10
123.47848055612
 20
107.625
 30
0.0
 40
4.9242298930154904
 50
325.27942700739823
 51
34.720572992601618
  0
LINE
  5
2341
  8
0
 10
127.52589999999999
 20
104.82028328026
 30
0.0
 11
127.52589999999999
 21
110.42971671974
 31
0.0
  0
LINE
  5
2342
  8
0
 10
126.91630000000001
 20
104.7548
 30
0.0
 11
126.91630000000001
 21
104.82028328026
 31
0.0
  0
LINE
  5
2343
  8
0
 10
126.91630000000001
 20
104.82028328026
 30
0.0
 11
127.52589999999999
 21
104.82028328026
 31
0.0
  0
LINE
  5
2344
  8
0
 10
127.52589999999999
 20
110.42971671974
 30
0.0
 11
126.91630000000001
 21
110.42971671974
 31
0.0
  0
LINE
  5
2345
  8
0
 10
126.91630000000001
 20
110.42971671974
 30
0.0
 11
126.91630000000001
 21
110.4952
 31
0.0
  0
LINE
  5
2348
  8
0
 10
99.755943053360014
 20
115.5624999999999
 30
0.0
 11
125.08750000000001
 21
115.5624999999999
 31
0.0
  0
ARC
  5
2349
  8
0
 10
100.4495
 20
115.2468692647399
 30
0.0
 40
0.761999999887798
 50
155.5301994775005
 51
180.0000000018
  0
LINE
  5
234A
  8
0
 10
99.687500000000014
 20
100.00313073526
 30
0.0
 11
99.687500000000014
 21
115.2468692647399
 31
0.0
  0
ARC
  5
234B
  8
0
 10
100.4495
 20
100.00313073526
 30
0.0
 40
0.7620000000000965
 50
180.0
 51
204.46980052069981
  0
LINE
  5
234C
  8
0
 10
125.08750000000001
 20
99.6875
 30
0.0
 11
99.755943053360014
 21
99.6875
 31
0.0
  0
LINE
  5
234D
  8
0
 10
100.4495
 20
116.3244999999999
 30
0.0
 11
99.910684633640031
 21
115.7856846336399
 31
0.0
  0
ARC
  5
234E
  8
0
 10
100.4495
 20
115.2468692647399
 30
0.0
 40
0.7619999999990221
 50
135.0000000000004
 51
155.53019947930011
  0
LINE
  5
234F
  8
0
 10
99.910684633640031
 20
99.464315366359955
 30
0.0
 11
100.4495
 21
98.925499999999985
 31
0.0
  0
ARC
  5
2350
  8
0
 10
100.4495
 20
100.00313073526
 30
0.0
 40
0.761999999999182
 50
204.46980052069981
 51
224.9999999999996
  0
ARC
  5
2351
  8
0
 10
123.5
 20
125.08750000000001
 30
0.0
 40
1.5875000000000099
 50
0.0
 51
90.0
  0
LINE
  5
2352
  8
0
 10
123.5
 20
126.675
 30
0.0
 11
111.45756403158001
 21
126.675
 31
0.0
  0
ARC
  5
2353
  8
0
 10
111.45756403158001
 20
125.08750000000001
 30
0.0
 40
1.587499999999999
 50
90.0
 51
135.0000000000004
  0
LINE
  5
2354
  8
0
 10
112.26049999999999
 20
124.4524999999999
 30
0.0
 11
120.8965
 21
124.4524999999999
 31
0.0
  0
ARC
  5
2355
  8
0
 10
120.8965
 20
121.91249999999999
 30
0.0
 40
2.540000000000012
 50
270.0
 51
90.0
  0
LINE
  5
2356
  8
0
 10
120.8965
 20
119.3724999999999
 30
0.0
 11
112.26049999999999
 21
119.3724999999999
 31
0.0
  0
ARC
  5
2357
  8
0
 10
112.26049999999999
 20
121.91249999999999
 30
0.0
 40
2.540000000000012
 50
90.0
 51
270.0
  0
LINE
  5
2358
  8
0
 10
110.33503201452
 20
126.2100320145199
 30
0.0
 11
100.4495
 21
116.3244999999999
 31
0.0
  0
ARC
  5
2359
  8
0
 10
111.45756403158001
 20
90.162499999999994
 30
0.0
 40
1.587499999999997
 50
224.9999999999996
 51
270.0
  0
LINE
  5
235A
  8
0
 10
111.45756403158001
 20
88.574999999999989
 30
0.0
 11
123.5
 21
88.574999999999989
 31
0.0
  0
ARC
  5
235B
  8
0
 10
123.5
 20
90.162499999999994
 30
0.0
 40
1.587499999999999
 50
270.0
 51
0.0
  0
LINE
  5
235C
  8
0
 10
112.26049999999999
 20
95.877499999999969
 30
0.0
 11
120.8965
 21
95.877499999999969
 31
0.0
  0
ARC
  5
235D
  8
0
 10
120.8965
 20
93.337499999999977
 30
0.0
 40
2.540000000000012
 50
270.0
 51
90.0
  0
LINE
  5
235E
  8
0
 10
120.8965
 20
90.797499999999985
 30
0.0
 11
112.26049999999999
 21
90.797499999999985
 31
0.0
  0
ARC
  5
235F
  8
0
 10
112.26049999999999
 20
93.337499999999977
 30
0.0
 40
2.540000000000012
 50
90.0
 51
270.0
  0
LINE
  5
2360
  8
0
 10
100.4495
 20
98.925499999999985
 30
0.0
 11
110.33503201452
 21
89.039967985479976
 31
0.0
  0
LINE
  5
2361
  8
0
 10
125.08750000000001
 20
125.08750000000001
 30
0.0
 11
125.08750000000001
 21
90.162499999999994
 31
0.0
  0
LINE
  5
2364
  8
0
 10
110.7999999999998
 20
36.350000000000001
 30
0.0
 11
110.7999999999998
 21
43.145769999791092
 31
0.0
  0
LINE
  5
2365
  8
1
 10
130.9027104491355
 20
107.6249999999999
 30
0.0
 11
86.074999999999989
 21
107.625
 31
0.0
  0
LINE
  5
2366
  8
1
 10
61.075000000000003
 20
107.625
 30
0.0
 11
27.500000000000021
 21
107.625
 31
0.0
  0
LINE
  5
2367
  8
1
 10
86.074999999999946
 20
44.28749999999998
 30
0.0
 11
130.9027104491355
 21
44.28749999999998
 31
0.0
  0
LINE
  5
2368
  8
2
 10
36.350000000000009
 20
124.4525
 30
0.0
 11
43.215112000471137
 21
124.4525
 31
0.0
  0
LINE
  5
2369
  8
2
 10
36.350000000000009
 20
119.3725
 30
0.0
 11
43.373608000176702
 21
119.3725
 31
0.0
  0
LINE
  5
236A
  8
2
 10
36.350000000000009
 20
95.877499999999984
 30
0.0
 11
43.373608000176702
 21
95.877499999999984
 31
0.0
  0
LINE
  5
236B
  8
2
 10
36.350000000000009
 20
90.797500000000014
 30
0.0
 11
43.215112000471137
 21
90.797500000000014
 31
0.0
  0
LINE
  5
236C
  8
1
 10
35.350000000000009
 20
121.91249999999999
 30
0.0
 11
44.29484660193161
 21
121.91249999999999
 31
0.0
  0
LINE
  5
236D
  8
1
 10
108.7204999999999
 20
121.91249999999999
 30
0.0
 11
124.4365
 21
121.91249999999999
 31
0.0
  0
LINE
  5
236E
  8
1
 10
35.350000000000009
 20
93.337500000000006
 30
0.0
 11
44.294846601931553
 21
93.337500000000034
 31
0.0
  0
LINE
  5
236F
  8
1
 10
108.7204999999999
 20
93.337499999999977
 30
0.0
 11
124.4365
 21
93.337499999999977
 31
0.0
  0
LINE
  5
2370
  8
1
 10
120.8965
 20
125.4525
 30
0.0
 11
120.8965
 21
118.3724999999999
 31
0.0
  0
LINE
  5
2371
  8
1
 10
120.8965
 20
96.877500000000012
 30
0.0
 11
120.8965
 21
89.797499999999985
 31
0.0
  0
LINE
  5
2372
  8
1
 10
112.26049999999999
 20
125.4525
 30
0.0
 11
112.26049999999999
 21
118.3724999999999
 31
0.0
  0
LINE
  5
2373
  8
1
 10
112.26049999999999
 20
96.877500000000012
 30
0.0
 11
112.26049999999999
 21
89.797499999999985
 31
0.0
  0
LINE
  5
2374
  8
1
 10
44.287500000000001
 20
119.7375
 30
0.0
 11
44.28750000000003
 21
95.512500000000017
 31
0.0
  0
LINE
  5
27DA
  8
0
 10
92.403324085779957
 20
58.574999999999989
 30
0.0
 11
94.924999999999969
 21
58.574999999999989
 31
0.0
  0
ARC
  5
27DB
  8
0
 10
95.178999999999931
 20
49.25954999999999
 30
0.0
 40
0.2539999999999949
 50
180.0
 51
270.0
  0
ARC
  5
27DC
  8
0
 10
95.178999999999931
 20
39.31544999999997
 30
0.0
 40
0.2539999999999949
 50
90.0
 51
180.0
  0
LINE
  5
27DD
  8
0
 10
94.924999999999969
 20
30.0
 30
0.0
 11
88.574999999999946
 21
30.0
 31
0.0
  0
LINE
  5
27DE
  8
0
 10
95.178999999999931
 20
49.005549999999999
 30
0.0
 11
99.687499999999957
 21
49.005549999999999
 31
0.0
  0
LINE
  5
27DF
  8
0
 10
99.687499999999957
 20
39.569449999999989
 30
0.0
 11
95.178999999999931
 21
39.569449999999989
 31
0.0
  0
LINE
  5
27F9
  8
0
 10
88.574999999999946
 20
44.287499999999987
 30
0.0
 11
88.574999999999946
 21
30.0
 31
0.0
  0
LINE
  5
27FA
  8
0
 10
94.924999999999969
 20
36.794499999999999
 30
0.0
 11
88.574999999999946
 21
36.794499999999999
 31
0.0
  0
LINE
  5
27FC
  8
0
 10
94.924999999999969
 20
53.267756121240012
 30
0.0
 11
90.981252375699924
 21
53.267756121240012
 31
0.0
  0
LINE
  5
27FD
  8
0
 10
90.981252375699924
 20
53.267756121240012
 30
0.0
 11
88.574999999999946
 21
44.287499999999987
 31
0.0
  0
LINE
  5
27FE
  8
0
 10
94.924999999999969
 20
58.574999999999989
 30
0.0
 11
94.924999999999969
 21
30.0
 31
0.0
  0
LINE
  5
27FF
  8
0
 10
90.981252375699924
 20
53.267756121240012
 30
0.0
 11
92.403324085779957
 21
58.574999999999989
 31
0.0
  0
ARC
  5
28EA
  8
0
 10
44.287500000000001
 20
107.625
 30
0.0
 40
14.2875
 50
308.942441268999
 51
51.057558731001002
  0
LINE
  5
28EB
  8
0
 10
36.794500000000014
 20
118.7375
 30
0.0
 11
53.267756121240019
 21
118.7375
 31
0.0
  0
LINE
  5
28EC
  8
0
 10
44.287500000000001
 20
118.7375
 30
0.0
 11
44.287500000000001
 21
96.512500000000017
 31
0.0
  0
LINE
  5
28ED
  8
0
 10
53.267756121240019
 20
96.512500000000017
 30
0.0
 11
36.794500000000014
 21
96.512500000000003
 31
0.0
  0
ARC
  5
28EE
  8
0
 10
36.540500000000002
 20
112.64149999999989
 30
0.0
 40
0.2540000000000051
 50
270.0
 51
0.0
  0
LINE
  5
28EF
  8
0
 10
30.817115818139978
 20
112.3875
 30
0.0
 11
36.540500000000002
 21
112.3875
 31
0.0
  0
ARC
  5
28F0
  8
0
 10
44.287500000000001
 20
107.625
 30
0.0
 40
14.2875
 50
160.5287793655005
 51
199.47122063449939
  0
LINE
  5
28F1
  8
0
 10
36.540500000000002
 20
102.8625
 30
0.0
 11
30.817115818139978
 21
102.8625
 31
0.0
  0
ARC
  5
28F2
  8
0
 10
36.540500000000002
 20
102.60849999999991
 30
0.0
 40
0.2540000000000178
 50
0.0
 51
90.0
  0
LINE
  5
28F3
  8
0
 10
36.794500000000014
 20
96.512500000000017
 30
0.0
 11
36.794500000000014
 21
102.60849999999991
 31
0.0
  0
LINE
  5
28F6
  8
0
 10
36.794500000000014
 20
112.64149999999989
 30
0.0
 11
36.794500000000014
 21
118.7375
 31
0.0
  0
LINE
  5
28F7
  8
0
 10
36.74751000000002
 20
101.27500000000001
 30
0.0
 11
36.794500000000014
 21
101.27779613106
 31
0.0
  0
LINE
  5
28F8
  8
0
 10
36.74751000000002
 20
101.27500000000001
 30
0.0
 11
36.350000000000009
 21
101.27500000000001
 31
0.0
  0
LINE
  5
28FA
  8
0
 10
36.350000000000009
 20
113.97499999999999
 30
0.0
 11
36.74751000000002
 21
113.97499999999999
 31
0.0
  0
LINE
  5
28FB
  8
0
 10
36.794500000000014
 20
113.97220386894
 30
0.0
 11
36.74751000000002
 21
113.97499999999999
 31
0.0
  0
LINE
  5
28FF
  8
0
 10
43.160277001720019
 20
126.21003201452
 30
0.0
 11
43.393419999999971
 21
118.7375
 31
0.0
  0
LINE
  5
2903
  8
0
 10
43.393419999999971
 20
96.512500000000017
 30
0.0
 11
43.160277001720019
 21
89.039967985479976
 31
0.0
  0
LINE
  5
2905
  8
0
 10
43.12525400344002
 20
126.675
 30
0.0
 11
36.350000000000009
 21
126.675
 31
0.0
  0
POLYLINE
  5
2906
  8
0
 10
43.12525400344002
 20
126.67500000000001
 30
0.0
 66
     1
 70
     8
  0
VERTEX
  8
0
  5
2E11
 10
43.1253
 20
126.675
 30
0.000000
  70
    32
  0
VERTEX
  8
0
  5
2E12
 10
43.1256
 20
126.675
 30
0.000000
  70
    32
  0
VERTEX
  8
0
  5
2E13
 10
43.1259
 20
126.675
 30
0.000000
  70
    32
  0
VERTEX
  8
0
  5
2E14
 10
43.1262
 20
126.675
 30
0.000000
  70
    32
  0
VERTEX
  8
0
  5
2E15
 10
43.1265
 20
126.675
 30
0.000000
  70
    32
  0
VERTEX
  8
0
  5
2E16
 10
43.1268
 20
126.674
 30
0.000000
  70
    32
  0
VERTEX
  8
0
  5
2E17
 10
43.1271
 20
126.674
 30
0.000000
  70
    32
  0
VERTEX
  8
0
  5
2E18
 10
43.1274
 20
126.674
 30
0.000000
  70
    32
  0
VERTEX
  8
0
  5
2E19
 10
43.1277
 20
126.673
 30
0.000000
  70
    32
  0
VERTEX
  8
0
  5
2E1A
 10
43.1280
 20
126.673
 30
0.000000
  70
    32
  0
VERTEX
  8
0
  5
2E1B
 10
43.1283
 20
126.672
 30
0.000000
  70
    32
  0
VERTEX
  8
0
  5
2E1C
 10
43.1286
 20
126.671
 30
0.000000
  70
    32
  0
VERTEX
  8
0
  5
2E1D
 10
43.1289
 20
126.671
 30
0.000000
  70
    32
  0
VERTEX
  8
0
  5
2E1E
 10
43.1292
 20
126.670
 30
0.000000
  70
    32
  0
VERTEX
  8
0
  5
2E1F
 10
43.1295
 20
126.669
 30
0.000000
  70
    32
  0
VERTEX
  8
0
  5
2E20
 10
43.1298
 20
126.668
 30
0.000000
  70
    32
  0
VERTEX
  8
0
  5
2E21
 10
43.1301
 20
126.667
 30
0.000000
  70
    32
  0
VERTEX
  8
0
  5
2E22
 10
43.1304
 20
126.666
 30
0.000000
  70
    32
  0
VERTEX
  8
0
  5
2E23
 10
43.1307
 20
126.665
 30
0.000000
  70
    32
  0
VERTEX
  8
0
  5
2E24
 10
43.1310
 20
126.664
 30
0.000000
  70
    32
  0
VERTEX
  8
0
  5
2E25
 10
43.1313
 20
126.663
 30
0.000000
  70
    32
  0
VERTEX
  8
0
  5
2E26
 10
43.1316
 20
126.662
 30
0.000000
  70
    32
  0
VERTEX
  8
0
  5
2E27
 10
43.1319
 20
126.661
 30
0.000000
  70
    32
  0
VERTEX
  8
0
  5
2E28
 10
43.1322
 20
126.659
 30
0.000000
  70
    32
  0
VERTEX
  8
0
  5
2E29
 10
43.1325
 20
126.658
 30
0.000000
  70
    32
  0
VERTEX
  8
0
  5
2E2A
 10
43.1328
 20
126.656
 30
0.000000
  70
    32
  0
VERTEX
  8
0
  5
2E2B
 10
43.1331
 20
126.655
 30
0.000000
  70
    32
  0
VERTEX
  8
0
  5
2E2C
 10
43.1334
 20
126.653
 30
0.000000
  70
    32
  0
VERTEX
  8
0
  5
2E2D
 10
43.1337
 20
126.652
 30
0.000000
  70
    32
  0
VERTEX
  8
0
  5
2E2E
 10
43.1340
 20
126.650
 30
0.000000
  70
    32
  0
VERTEX
  8
0
  5
2E2F
 10
43.1343
 20
126.648
 30
0.000000
  70
    32
  0
VERTEX
  8
0
  5
2E30
 10
43.1346
 20
126.646
 30
0.000000
  70
    32
  0
VERTEX
  8
0
  5
2E31
 10
43.1349
 20
126.644
 30
0.000000
  70
    32
  0
VERTEX
  8
0
  5
2E32
 10
43.1352
 20
126.643
 30
0.000000
  70
    32
  0
VERTEX
  8
0
  5
2E33
 10
43.1355
 20
126.641
 30
0.000000
  70
    32
  0
VERTEX
  8
0
  5
2E34
 10
43.1358
 20
126.639
 30
0.000000
  70
    32
  0
VERTEX
  8
0
  5
2E35
 10
43.1361
 20
126.636
 30
0.000000
  70
    32
  0
VERTEX
  8
0
  5
2E36
 10
43.1364
 20
126.634
 30
0.000000
  70
    32
  0
VERTEX
  8
0
  5
2E37
 10
43.1367
 20
126.632
 30
0.000000
  70
    32
  0
VERTEX
  8
0
  5
2E38
 10
43.1370
 20
126.630
 30
0.000000
  70
    32
  0
VERTEX
  8
0
  5
2E39
 10
43.1373
 20
126.627
 30
0.000000
  70
    32
  0
VERTEX
  8
0
  5
2E3A
 10
43.1376
 20
126.625
 30
0.000000
  70
    32
  0
VERTEX
  8
0
  5
2E3B
 10
43.1379
 20
126.623
 30
0.000000
  70
    32
  0
VERTEX
  8
0
  5
2E3C
 10
43.1382
 20
126.620
 30
0.000000
  70
    32
  0
VERTEX
  8
0
  5
2E3D
 10
43.1385
 20
126.617
 30
0.000000
  70
    32
  0
VERTEX
  8
0
  5
2E3E
 10
43.1388
 20
126.615
 30
0.000000
  70
    32
  0
VERTEX
  8
0
  5
2E3F
 10
43.1390
 20
126.612
 30
0.000000
  70
    32
  0
VERTEX
  8
0
  5
2E40
 10
43.1393
 20
126.609
 30
0.000000
  70
    32
  0
VERTEX
  8
0
  5
2E41
 10
43.1396
 20
126.607
 30
0.000000
  70
    32
  0
VERTEX
  8
0
  5
2E42
 10
43.1399
 20
126.604
 30
0.000000
  70
    32
  0
VERTEX
  8
0
  5
2E43
 10
43.1402
 20
126.601
 30
0.000000
  70
    32
  0
VERTEX
  8
0
  5
2E44
 10
43.1405
 20
126.598
 30
0.000000
  70
    32
  0
VERTEX
  8
0
  5
2E45
 10
43.1408
 20
126.595
 30
0.000000
  70
    32
  0
VERTEX
  8
0
  5
2E46
 10
43.1411
 20
126.592
 30
0.000000
  70
    32
  0
VERTEX
  8
0
  5
2E47
 10
43.1414
 20
126.589
 30
0.000000
  70
    32
  0
VERTEX
  8
0
  5
2E48
 10
43.1417
 20
126.585
 30
0.000000
  70
    32
  0
VERTEX
  8
0
  5
2E49
 10
43.1419
 20
126.582
 30
0.000000
  70
    32
  0
VERTEX
  8
0
  5
2E4A
 10
43.1422
 20
126.579
 30
0.000000
  70
    32
  0
VERTEX
  8
0
  5
2E4B
 10
43.1425
 20
126.576
 30
0.000000
  70
    32
  0
VERTEX
  8
0
  5
2E4C
 10
43.1428
 20
126.572
 30
0.000000
  70
    32
  0
VERTEX
  8
0
  5
2E4D
 10
43.1431
 20
126.569
 30
0.000000
  70
    32
  0
VERTEX
  8
0
  5
2E4E
 10
43.1434
 20
126.565
 30
0.000000
  70
    32
  0
VERTEX
  8
0
  5
2E4F
 10
43.1436
 20
126.562
 30
0.000000
  70
    32
  0
VERTEX
  8
0
  5
2E50
 10
43.1439
 20
126.558
 30
0.000000
  70
    32
  0
VERTEX
  8
0
  5
2E51
 10
43.1442
 20
126.554
 30
0.000000
  70
    32
  0
VERTEX
  8
0
  5
2E52
 10
43.1445
 20
126.550
 30
0.000000
  70
    32
  0
VERTEX
  8
0
  5
2E53
 10
43.1448
 20
126.547
 30
0.000000
  70
    32
  0
VERTEX
  8
0
  5
2E54
 10
43.1450
 20
126.543
 30
0.000000
  70
    32
  0
VERTEX
  8
0
  5
2E55
 10
43.1453
 20
126.539
 30
0.000000
  70
    32
  0
VERTEX
  8
0
  5
2E56
 10
43.1456
 20
126.535
 30
0.000000
  70
    32
  0
VERTEX
  8
0
  5
2E57
 10
43.1459
 20
126.531
 30
0.000000
  70
    32
  0
VERTEX
  8
0
  5
2E58
 10
43.1462
 20
126.527
 30
0.000000
  70
    32
  0
VERTEX
  8
0
  5
2E59
 10
43.1464
 20
126.523
 30
0.000000
  70
    32
  0
VERTEX
  8
0
  5
2E5A
 10
43.1467
 20
126.518
 30
0.000000
  70
    32
  0
VERTEX
  8
0
  5
2E5B
 10
43.1470
 20
126.514
 30
0.000000
  70
    32
  0
VERTEX
  8
0
  5
2E5C
 10
43.1473
 20
126.510
 30
0.000000
  70
    32
  0
VERTEX
  8
0
  5
2E5D
 10
43.1475
 20
126.505
 30
0.000000
  70
    32
  0
VERTEX
  8
0
  5
2E5E
 10
43.1478
 20
126.501
 30
0.000000
  70
    32
  0
VERTEX
  8
0
  5
2E5F
 10
43.1481
 20
126.497
 30
0.000000
  70
    32
  0
VERTEX
  8
0
  5
2E60
 10
43.1483
 20
126.492
 30
0.000000
  70
    32
  0
VERTEX
  8
0
  5
2E61
 10
43.1486
 20
126.488
 30
0.000000
  70
    32
  0
VERTEX
  8
0
  5
2E62
 10
43.1489
 20
126.483
 30
0.000000
  70
    32
  0
VERTEX
  8
0
  5
2E63
 10
43.1491
 20
126.478
 30
0.000000
  70
    32
  0
VERTEX
  8
0
  5
2E64
 10
43.1494
 20
126.474
 30
0.000000
  70
    32
  0
VERTEX
  8
0
  5
2E65
 10
43.1497
 20
126.469
 30
0.000000
  70
    32
  0
VERTEX
  8
0
  5
2E66
 10
43.1499
 20
126.464
 30
0.000000
  70
    32
  0
VERTEX
  8
0
  5
2E67
 10
43.1502
 20
126.459
 30
0.000000
  70
    32
  0
VERTEX
  8
0
  5
2E68
 10
43.1505
 20
126.454
 30
0.000000
  70
    32
  0
VERTEX
  8
0
  5
2E69
 10
43.1507
 20
126.449
 30
0.000000
  70
    32
  0
VERTEX
  8
0
  5
2E6A
 10
43.1510
 20
126.444
 30
0.000000
  70
    32
  0
VERTEX
  8
0
  5
2E6B
 10
43.1512
 20
126.439
 30
0.000000
  70
    32
  0
VERTEX
  8
0
  5
2E6C
 10
43.1515
 20
126.434
 30
0.000000
  70
    32
  0
VERTEX
  8
0
  5
2E6D
 10
43.1518
 20
126.429
 30
0.000000
  70
    32
  0
VERTEX
  8
0
  5
2E6E
 10
43.1520
 20
126.423
 30
0.000000
  70
    32
  0
VERTEX
  8
0
  5
2E6F
 10
43.1523
 20
126.418
 30
0.000000
  70
    32
  0
VERTEX
  8
0
  5
2E70
 10
43.1525
 20
126.413
 30
0.000000
  70
    32
  0
VERTEX
  8
0
  5
2E71
 10
43.1528
 20
126.407
 30
0.000000
  70
    32
  0
VERTEX
  8
0
  5
2E72
 10
43.1530
 20
126.402
 30
0.000000
  70
    32
  0
VERTEX
  8
0
  5
2E73
 10
43.1533
 20
126.397
 30
0.000000
  70
    32
  0
VERTEX
  8
0
  5
2E74
 10
43.1535
 20
126.391
 30
0.000000
  70
    32
  0
VERTEX
  8
0
  5
2E75
 10
43.1538
 20
126.385
 30
0.000000
  70
    32
  0
VERTEX
  8
0
  5
2E76
 10
43.1540
 20
126.380
 30
0.000000
  70
    32
  0
VERTEX
  8
0
  5
2E77
 10
43.1543
 20
126.374
 30
0.000000
  70
    32
  0
VERTEX
  8
0
  5
2E78
 10
43.1545
 20
126.368
 30
0.000000
  70
    32
  0
VERTEX
  8
0
  5
2E79
 10
43.1548
 20
126.363
 30
0.000000
  70
    32
  0
VERTEX
  8
0
  5
2E7A
 10
43.1550
 20
126.357
 30
0.000000
  70
    32
  0
VERTEX
  8
0
  5
2E7B
 10
43.1552
 20
126.351
 30
0.000000
  70
    32
  0
VERTEX
  8
0
  5
2E7C
 10
43.1555
 20
126.345
 30
0.000000
  70
    32
  0
VERTEX
  8
0
  5
2E7D
 10
43.1557
 20
126.339
 30
0.000000
  70
    32
  0
VERTEX
  8
0
  5
2E7E
 10
43.1560
 20
126.333
 30
0.000000
  70
    32
  0
VERTEX
  8
0
  5
2E7F
 10
43.1562
 20
126.327
 30
0.000000
  70
    32
  0
VERTEX
  8
0
  5
2E80
 10
43.1564
 20
126.321
 30
0.000000
  70
    32
  0
VERTEX
  8
0
  5
2E81
 10
43.1567
 20
126.315
 30
0.000000
  70
    32
  0
VERTEX
  8
0
  5
2E82
 10
43.1569
 20
126.308
 30
0.000000
  70
    32
  0
VERTEX
  8
0
  5
2E83
 10
43.1571
 20
126.302
 30
0.000000
  70
    32
  0
VERTEX
  8
0
  5
2E84
 10
43.1574
 20
126.296
 30
0.000000
  70
    32
  0
VERTEX
  8
0
  5
2E85
 10
43.1576
 20
126.290
 30
0.000000
  70
    32
  0
VERTEX
  8
0
  5
2E86
 10
43.1578
 20
126.283
 30
0.000000
  70
    32
  0
VERTEX
  8
0
  5
2E87
 10
43.1581
 20
126.277
 30
0.000000
  70
    32
  0
VERTEX
  8
0
  5
2E88
 10
43.1583
 20
126.270
 30
0.000000
  70
    32
  0
VERTEX
  8
0
  5
2E89
 10
43.1585
 20
126.264
 30
0.000000
  70
    32
  0
VERTEX
  8
0
  5
2E8A
 10
43.1587
 20
126.257
 30
0.000000
  70
    32
  0
VERTEX
  8
0
  5
2E8B
 10
43.1590
 20
126.251
 30
0.000000
  70
    32
  0
VERTEX
  8
0
  5
2E8C
 10
43.1592
 20
126.244
 30
0.000000
  70
    32
  0
VERTEX
  8
0
  5
2E8D
 10
43.1594
 20
126.237
 30
0.000000
  70
    32
  0
VERTEX
  8
0
  5
2E8E
 10
43.1596
 20
126.231
 30
0.000000
  70
    32
  0
VERTEX
  8
0
  5
2E8F
 10
43.1598
 20
126.224
 30
0.000000
  70
    32
  0
VERTEX
  8
0
  5
2E90
 10
43.1601
 20
126.217
 30
0.000000
  70
    32
  0
VERTEX
  8
0
  5
2E91
 10
43.1603
 20
126.210
 30
0.000000
  70
    32
  0
SEQEND
  8
0
  5
2E92
  0
LINE
  5
2907
  8
0
 10
36.350000000000009
 20
113.97499999999999
 30
0.0
 11
36.350000000000009
 21
126.675
 31
0.0
  0
LINE
  5
2908
  8
0
 10
43.12525400344002
 20
88.575000000000017
 30
0.0
 11
36.350000000000009
 21
88.575000000000017
 31
0.0
  0
POLYLINE
  5
2909
  8
0
 10
43.160277002312156
 20
89.039967984866308
 30
0.0
 66
     1
 70
     8
  0
VERTEX
  8
0
  5
2E93
 10
43.1603
 20
89.0400
 30
0.000000
  70
    32
  0
VERTEX
  8
0
  5
2E94
 10
43.1601
 20
89.0331
 30
0.000000
  70
    32
  0
VERTEX
  8
0
  5
2E95
 10
43.1598
 20
89.0263
 30
0.000000
  70
    32
  0
VERTEX
  8
0
  5
2E96
 10
43.1596
 20
89.0195
 30
0.000000
  70
    32
  0
VERTEX
  8
0
  5
2E97
 10
43.1594
 20
89.0128
 30
0.000000
  70
    32
  0
VERTEX
  8
0
  5
2E98
 10
43.1592
 20
89.0061
 30
0.000000
  70
    32
  0
VERTEX
  8
0
  5
2E99
 10
43.1590
 20
88.9994
 30
0.000000
  70
    32
  0
VERTEX
  8
0
  5
2E9A
 10
43.1587
 20
88.9928
 30
0.000000
  70
    32
  0
VERTEX
  8
0
  5
2E9B
 10
43.1585
 20
88.9862
 30
0.000000
  70
    32
  0
VERTEX
  8
0
  5
2E9C
 10
43.1583
 20
88.9797
 30
0.000000
  70
    32
  0
VERTEX
  8
0
  5
2E9D
 10
43.1581
 20
88.9732
 30
0.000000
  70
    32
  0
VERTEX
  8
0
  5
2E9E
 10
43.1578
 20
88.9668
 30
0.000000
  70
    32
  0
VERTEX
  8
0
  5
2E9F
 10
43.1576
 20
88.9604
 30
0.000000
  70
    32
  0
VERTEX
  8
0
  5
2EA0
 10
43.1574
 20
88.9541
 30
0.000000
  70
    32
  0
VERTEX
  8
0
  5
2EA1
 10
43.1571
 20
88.9478
 30
0.000000
  70
    32
  0
VERTEX
  8
0
  5
2EA2
 10
43.1569
 20
88.9415
 30
0.000000
  70
    32
  0
VERTEX
  8
0
  5
2EA3
 10
43.1567
 20
88.9353
 30
0.000000
  70
    32
  0
VERTEX
  8
0
  5
2EA4
 10
43.1564
 20
88.9292
 30
0.000000
  70
    32
  0
VERTEX
  8
0
  5
2EA5
 10
43.1562
 20
88.9231
 30
0.000000
  70
    32
  0
VERTEX
  8
0
  5
2EA6
 10
43.1560
 20
88.9170
 30
0.000000
  70
    32
  0
VERTEX
  8
0
  5
2EA7
 10
43.1557
 20
88.9110
 30
0.000000
  70
    32
  0
VERTEX
  8
0
  5
2EA8
 10
43.1555
 20
88.9050
 30
0.000000
  70
    32
  0
VERTEX
  8
0
  5
2EA9
 10
43.1552
 20
88.8991
 30
0.000000
  70
    32
  0
VERTEX
  8
0
  5
2EAA
 10
43.1550
 20
88.8932
 30
0.000000
  70
    32
  0
VERTEX
  8
0
  5
2EAB
 10
43.1548
 20
88.8874
 30
0.000000
  70
    32
  0
VERTEX
  8
0
  5
2EAC
 10
43.1545
 20
88.8816
 30
0.000000
  70
    32
  0
VERTEX
  8
0
  5
2EAD
 10
43.1543
 20
88.8759
 30
0.000000
  70
    32
  0
VERTEX
  8
0
  5
2EAE
 10
43.1540
 20
88.8702
 30
0.000000
  70
    32
  0
VERTEX
  8
0
  5
2EAF
 10
43.1538
 20
88.8646
 30
0.000000
  70
    32
  0
VERTEX
  8
0
  5
2EB0
 10
43.1535
 20
88.8590
 30
0.000000
  70
    32
  0
VERTEX
  8
0
  5
2EB1
 10
43.1533
 20
88.8535
 30
0.000000
  70
    32
  0
VERTEX
  8
0
  5
2EB2
 10
43.1530
 20
88.8480
 30
0.000000
  70
    32
  0
VERTEX
  8
0
  5
2EB3
 10
43.1528
 20
88.8425
 30
0.000000
  70
    32
  0
VERTEX
  8
0
  5
2EB4
 10
43.1525
 20
88.8372
 30
0.000000
  70
    32
  0
VERTEX
  8
0
  5
2EB5
 10
43.1523
 20
88.8318
 30
0.000000
  70
    32
  0
VERTEX
  8
0
  5
2EB6
 10
43.1520
 20
88.8265
 30
0.000000
  70
    32
  0
VERTEX
  8
0
  5
2EB7
 10
43.1518
 20
88.8213
 30
0.000000
  70
    32
  0
VERTEX
  8
0
  5
2EB8
 10
43.1515
 20
88.8161
 30
0.000000
  70
    32
  0
VERTEX
  8
0
  5
2EB9
 10
43.1512
 20
88.8110
 30
0.000000
  70
    32
  0
VERTEX
  8
0
  5
2EBA
 10
43.1510
 20
88.8059
 30
0.000000
  70
    32
  0
VERTEX
  8
0
  5
2EBB
 10
43.1507
 20
88.8009
 30
0.000000
  70
    32
  0
VERTEX
  8
0
  5
2EBC
 10
43.1505
 20
88.7959
 30
0.000000
  70
    32
  0
VERTEX
  8
0
  5
2EBD
 10
43.1502
 20
88.7909
 30
0.000000
  70
    32
  0
VERTEX
  8
0
  5
2EBE
 10
43.1499
 20
88.7861
 30
0.000000
  70
    32
  0
VERTEX
  8
0
  5
2EBF
 10
43.1497
 20
88.7812
 30
0.000000
  70
    32
  0
VERTEX
  8
0
  5
2EC0
 10
43.1494
 20
88.7765
 30
0.000000
  70
    32
  0
VERTEX
  8
0
  5
2EC1
 10
43.1491
 20
88.7717
 30
0.000000
  70
    32
  0
VERTEX
  8
0
  5
2EC2
 10
43.1489
 20
88.7671
 30
0.000000
  70
    32
  0
VERTEX
  8
0
  5
2EC3
 10
43.1486
 20
88.7624
 30
0.000000
  70
    32
  0
VERTEX
  8
0
  5
2EC4
 10
43.1483
 20
88.7579
 30
0.000000
  70
    32
  0
VERTEX
  8
0
  5
2EC5
 10
43.1481
 20
88.7534
 30
0.000000
  70
    32
  0
VERTEX
  8
0
  5
2EC6
 10
43.1478
 20
88.7489
 30
0.000000
  70
    32
  0
VERTEX
  8
0
  5
2EC7
 10
43.1475
 20
88.7445
 30
0.000000
  70
    32
  0
VERTEX
  8
0
  5
2EC8
 10
43.1473
 20
88.7402
 30
0.000000
  70
    32
  0
VERTEX
  8
0
  5
2EC9
 10
43.1470
 20
88.7359
 30
0.000000
  70
    32
  0
VERTEX
  8
0
  5
2ECA
 10
43.1467
 20
88.7316
 30
0.000000
  70
    32
  0
VERTEX
  8
0
  5
2ECB
 10
43.1464
 20
88.7274
 30
0.000000
  70
    32
  0
VERTEX
  8
0
  5
2ECC
 10
43.1462
 20
88.7233
 30
0.000000
  70
    32
  0
VERTEX
  8
0
  5
2ECD
 10
43.1459
 20
88.7192
 30
0.000000
  70
    32
  0
VERTEX
  8
0
  5
2ECE
 10
43.1456
 20
88.7152
 30
0.000000
  70
    32
  0
VERTEX
  8
0
  5
2ECF
 10
43.1453
 20
88.7112
 30
0.000000
  70
    32
  0
VERTEX
  8
0
  5
2ED0
 10
43.1450
 20
88.7073
 30
0.000000
  70
    32
  0
VERTEX
  8
0
  5
2ED1
 10
43.1448
 20
88.7034
 30
0.000000
  70
    32
  0
VERTEX
  8
0
  5
2ED2
 10
43.1445
 20
88.6996
 30
0.000000
  70
    32
  0
VERTEX
  8
0
  5
2ED3
 10
43.1442
 20
88.6958
 30
0.000000
  70
    32
  0
VERTEX
  8
0
  5
2ED4
 10
43.1439
 20
88.6921
 30
0.000000
  70
    32
  0
VERTEX
  8
0
  5
2ED5
 10
43.1436
 20
88.6885
 30
0.000000
  70
    32
  0
VERTEX
  8
0
  5
2ED6
 10
43.1434
 20
88.6849
 30
0.000000
  70
    32
  0
VERTEX
  8
0
  5
2ED7
 10
43.1431
 20
88.6814
 30
0.000000
  70
    32
  0
VERTEX
  8
0
  5
2ED8
 10
43.1428
 20
88.6779
 30
0.000000
  70
    32
  0
VERTEX
  8
0
  5
2ED9
 10
43.1425
 20
88.6745
 30
0.000000
  70
    32
  0
VERTEX
  8
0
  5
2EDA
 10
43.1422
 20
88.6711
 30
0.000000
  70
    32
  0
VERTEX
  8
0
  5
2EDB
 10
43.1419
 20
88.6678
 30
0.000000
  70
    32
  0
VERTEX
  8
0
  5
2EDC
 10
43.1417
 20
88.6645
 30
0.000000
  70
    32
  0
VERTEX
  8
0
  5
2EDD
 10
43.1414
 20
88.6613
 30
0.000000
  70
    32
  0
VERTEX
  8
0
  5
2EDE
 10
43.1411
 20
88.6582
 30
0.000000
  70
    32
  0
VERTEX
  8
0
  5
2EDF
 10
43.1408
 20
88.6551
 30
0.000000
  70
    32
  0
VERTEX
  8
0
  5
2EE0
 10
43.1405
 20
88.6521
 30
0.000000
  70
    32
  0
VERTEX
  8
0
  5
2EE1
 10
43.1402
 20
88.6491
 30
0.000000
  70
    32
  0
VERTEX
  8
0
  5
2EE2
 10
43.1399
 20
88.6462
 30
0.000000
  70
    32
  0
VERTEX
  8
0
  5
2EE3
 10
43.1396
 20
88.6434
 30
0.000000
  70
    32
  0
VERTEX
  8
0
  5
2EE4
 10
43.1393
 20
88.6406
 30
0.000000
  70
    32
  0
VERTEX
  8
0
  5
2EE5
 10
43.1390
 20
88.6378
 30
0.000000
  70
    32
  0
VERTEX
  8
0
  5
2EE6
 10
43.1388
 20
88.6351
 30
0.000000
  70
    32
  0
VERTEX
  8
0
  5
2EE7
 10
43.1385
 20
88.6325
 30
0.000000
  70
    32
  0
VERTEX
  8
0
  5
2EE8
 10
43.1382
 20
88.6299
 30
0.000000
  70
    32
  0
VERTEX
  8
0
  5
2EE9
 10
43.1379
 20
88.6274
 30
0.000000
  70
    32
  0
VERTEX
  8
0
  5
2EEA
 10
43.1376
 20
88.6250
 30
0.000000
  70
    32
  0
VERTEX
  8
0
  5
2EEB
 10
43.1373
 20
88.6226
 30
0.000000
  70
    32
  0
VERTEX
  8
0
  5
2EEC
 10
43.1370
 20
88.6202
 30
0.000000
  70
    32
  0
VERTEX
  8
0
  5
2EED
 10
43.1367
 20
88.6180
 30
0.000000
  70
    32
  0
VERTEX
  8
0
  5
2EEE
 10
43.1364
 20
88.6157
 30
0.000000
  70
    32
  0
VERTEX
  8
0
  5
2EEF
 10
43.1361
 20
88.6136
 30
0.000000
  70
    32
  0
VERTEX
  8
0
  5
2EF0
 10
43.1358
 20
88.6115
 30
0.000000
  70
    32
  0
VERTEX
  8
0
  5
2EF1
 10
43.1355
 20
88.6094
 30
0.000000
  70
    32
  0
VERTEX
  8
0
  5
2EF2
 10
43.1352
 20
88.6074
 30
0.000000
  70
    32
  0
VERTEX
  8
0
  5
2EF3
 10
43.1349
 20
88.6055
 30
0.000000
  70
    32
  0
VERTEX
  8
0
  5
2EF4
 10
43.1346
 20
88.6036
 30
0.000000
  70
    32
  0
VERTEX
  8
0
  5
2EF5
 10
43.1343
 20
88.6018
 30
0.000000
  70
    32
  0
VERTEX
  8
0
  5
2EF6
 10
43.1340
 20
88.6001
 30
0.000000
  70
    32
  0
VERTEX
  8
0
  5
2EF7
 10
43.1337
 20
88.5984
 30
0.000000
  70
    32
  0
VERTEX
  8
0
  5
2EF8
 10
43.1334
 20
88.5967
 30
0.000000
  70
    32
  0
VERTEX
  8
0
  5
2EF9
 10
43.1331
 20
88.5952
 30
0.000000
  70
    32
  0
VERTEX
  8
0
  5
2EFA
 10
43.1328
 20
88.5936
 30
0.000000
  70
    32
  0
VERTEX
  8
0
  5
2EFB
 10
43.1325
 20
88.5922
 30
0.000000
  70
    32
  0
VERTEX
  8
0
  5
2EFC
 10
43.1322
 20
88.5908
 30
0.000000
  70
    32
  0
VERTEX
  8
0
  5
2EFD
 10
43.1319
 20
88.5894
 30
0.000000
  70
    32
  0
VERTEX
  8
0
  5
2EFE
 10
43.1316
 20
88.5882
 30
0.000000
  70
    32
  0
VERTEX
  8
0
  5
2EFF
 10
43.1313
 20
88.5869
 30
0.000000
  70
    32
  0
VERTEX
  8
0
  5
2F00
 10
43.1310
 20
88.5858
 30
0.000000
  70
    32
  0
VERTEX
  8
0
  5
2F01
 10
43.1307
 20
88.5847
 30
0.000000
  70
    32
  0
VERTEX
  8
0
  5
2F02
 10
43.1304
 20
88.5836
 30
0.000000
  70
    32
  0
VERTEX
  8
0
  5
2F03
 10
43.1301
 20
88.5826
 30
0.000000
  70
    32
  0
VERTEX
  8
0
  5
2F04
 10
43.1298
 20
88.5817
 30
0.000000
  70
    32
  0
VERTEX
  8
0
  5
2F05
 10
43.1295
 20
88.5809
 30
0.000000
  70
    32
  0
VERTEX
  8
0
  5
2F06
 10
43.1292
 20
88.5800
 30
0.000000
  70
    32
  0
VERTEX
  8
0
  5
2F07
 10
43.1289
 20
88.5793
 30
0.000000
  70
    32
  0
VERTEX
  8
0
  5
2F08
 10
43.1286
 20
88.5786
 30
0.000000
  70
    32
  0
VERTEX
  8
0
  5
2F09
 10
43.1283
 20
88.5780
 30
0.000000
  70
    32
  0
VERTEX
  8
0
  5
2F0A
 10
43.1280
 20
88.5774
 30
0.000000
  70
    32
  0
VERTEX
  8
0
  5
2F0B
 10
43.1277
 20
88.5769
 30
0.000000
  70
    32
  0
VERTEX
  8
0
  5
2F0C
 10
43.1274
 20
88.5765
 30
0.000000
  70
    32
  0
VERTEX
  8
0
  5
2F0D
 10
43.1271
 20
88.5761
 30
0.000000
  70
    32
  0
VERTEX
  8
0
  5
2F0E
 10
43.1268
 20
88.5757
 30
0.000000
  70
    32
  0
VERTEX
  8
0
  5
2F0F
 10
43.1265
 20
88.5755
 30
0.000000
  70
    32
  0
VERTEX
  8
0
  5
2F10
 10
43.1262
 20
88.5753
 30
0.000000
  70
    32
  0
VERTEX
  8
0
  5
2F11
 10
43.1259
 20
88.5751
 30
0.000000
  70
    32
  0
VERTEX
  8
0
  5
2F12
 10
43.1256
 20
88.5750
 30
0.000000
  70
    32
  0
VERTEX
  8
0
  5
2F13
 10
43.1253
 20
88.5750
 30
0.000000
  70
    32
  0
SEQEND
  8
0
  5
2F14
  0
LINE
  5
290A
  8
0
 10
36.350000000000009
 20
101.27500000000001
 30
0.0
 11
36.350000000000009
 21
88.575000000000017
 31
0.0
  0
ARC
  5
2911
  8
0
 10
95.178999999999988
 20
112.5970499987299
 30
0.0
 40
0.2539999999999949
 50
180.0
 51
270.0
  0
ARC
  5
2912
  8
0
 10
95.178999999999988
 20
102.65294999872999
 30
0.0
 40
0.2539999999999949
 50
90.0
 51
180.0
  0
LINE
  5
2913
  8
0
 10
95.178999999999988
 20
112.34304999873
 30
0.0
 11
99.687500000000014
 21
112.34304999873
 31
0.0
  0
LINE
  5
2914
  8
0
 10
99.687500000000014
 20
102.90694999873
 30
0.0
 11
95.178999999999988
 21
102.90694999873
 31
0.0
  0
POLYLINE
  5
291B
  8
0
 10
90.981252375185647
 20
118.7374999987299
 30
0.0
 66
     1
 70
     8
  0
VERTEX
  8
0
  5
2F15
 10
90.9813
 20
118.737
 30
0.000000
  70
    32
  0
VERTEX
  8
0
  5
2F16
 10
91.0225
 20
118.611
 30
0.000000
  70
    32
  0
VERTEX
  8
0
  5
2F17
 10
91.0632
 20
118.483
 30
0.000000
  70
    32
  0
VERTEX
  8
0
  5
2F18
 10
91.1035
 20
118.353
 30
0.000000
  70
    32
  0
VERTEX
  8
0
  5
2F19
 10
91.1433
 20
118.220
 30
0.000000
  70
    32
  0
VERTEX
  8
0
  5
2F1A
 10
91.1826
 20
118.086
 30
0.000000
  70
    32
  0
VERTEX
  8
0
  5
2F1B
 10
91.2213
 20
117.949
 30
0.000000
  70
    32
  0
VERTEX
  8
0
  5
2F1C
 10
91.2596
 20
117.811
 30
0.000000
  70
    32
  0
VERTEX
  8
0
  5
2F1D
 10
91.2973
 20
117.670
 30
0.000000
  70
    32
  0
VERTEX
  8
0
  5
2F1E
 10
91.3345
 20
117.528
 30
0.000000
  70
    32
  0
VERTEX
  8
0
  5
2F1F
 10
91.3712
 20
117.384
 30
0.000000
  70
    32
  0
VERTEX
  8
0
  5
2F20
 10
91.4074
 20
117.237
 30
0.000000
  70
    32
  0
VERTEX
  8
0
  5
2F21
 10
91.4429
 20
117.089
 30
0.000000
  70
    32
  0
VERTEX
  8
0
  5
2F22
 10
91.4780
 20
116.939
 30
0.000000
  70
    32
  0
VERTEX
  8
0
  5
2F23
 10
91.5124
 20
116.788
 30
0.000000
  70
    32
  0
VERTEX
  8
0
  5
2F24
 10
91.5463
 20
116.634
 30
0.000000
  70
    32
  0
VERTEX
  8
0
  5
2F25
 10
91.5797
 20
116.479
 30
0.000000
  70
    32
  0
VERTEX
  8
0
  5
2F26
 10
91.6124
 20
116.322
 30
0.000000
  70
    32
  0
VERTEX
  8
0
  5
2F27
 10
91.6446
 20
116.163
 30
0.000000
  70
    32
  0
VERTEX
  8
0
  5
2F28
 10
91.6761
 20
116.003
 30
0.000000
  70
    32
  0
VERTEX
  8
0
  5
2F29
 10
91.7071
 20
115.841
 30
0.000000
  70
    32
  0
VERTEX
  8
0
  5
2F2A
 10
91.7374
 20
115.677
 30
0.000000
  70
    32
  0
VERTEX
  8
0
  5
2F2B
 10
91.7671
 20
115.512
 30
0.000000
  70
    32
  0
VERTEX
  8
0
  5
2F2C
 10
91.7963
 20
115.346
 30
0.000000
  70
    32
  0
VERTEX
  8
0
  5
2F2D
 10
91.8248
 20
115.177
 30
0.000000
  70
    32
  0
VERTEX
  8
0
  5
2F2E
 10
91.8526
 20
115.008
 30
0.000000
  70
    32
  0
VERTEX
  8
0
  5
2F2F
 10
91.8798
 20
114.837
 30
0.000000
  70
    32
  0
VERTEX
  8
0
  5
2F30
 10
91.9064
 20
114.664
 30
0.000000
  70
    32
  0
VERTEX
  8
0
  5
2F31
 10
91.9324
 20
114.491
 30
0.000000
  70
    32
  0
VERTEX
  8
0
  5
2F32
 10
91.9576
 20
114.315
 30
0.000000
  70
    32
  0
VERTEX
  8
0
  5
2F33
 10
91.9823
 20
114.139
 30
0.000000
  70
    32
  0
VERTEX
  8
0
  5
2F34
 10
92.0063
 20
113.961
 30
0.000000
  70
    32
  0
VERTEX
  8
0
  5
2F35
 10
92.0296
 20
113.782
 30
0.000000
  70
    32
  0
VERTEX
  8
0
  5
2F36
 10
92.0522
 20
113.602
 30
0.000000
  70
    32
  0
VERTEX
  8
0
  5
2F37
 10
92.0742
 20
113.421
 30
0.000000
  70
    32
  0
VERTEX
  8
0
  5
2F38
 10
92.0954
 20
113.239
 30
0.000000
  70
    32
  0
VERTEX
  8
0
  5
2F39
 10
92.1160
 20
113.055
 30
0.000000
  70
    32
  0
VERTEX
  8
0
  5
2F3A
 10
92.1360
 20
112.871
 30
0.000000
  70
    32
  0
VERTEX
  8
0
  5
2F3B
 10
92.1552
 20
112.685
 30
0.000000
  70
    32
  0
VERTEX
  8
0
  5
2F3C
 10
92.1737
 20
112.499
 30
0.000000
  70
    32
  0
VERTEX
  8
0
  5
2F3D
 10
92.1916
 20
112.311
 30
0.000000
  70
    32
  0
VERTEX
  8
0
  5
2F3E
 10
92.2087
 20
112.123
 30
0.000000
  70
    32
  0
VERTEX
  8
0
  5
2F3F
 10
92.2251
 20
111.933
 30
0.000000
  70
    32
  0
VERTEX
  8
0
  5
2F40
 10
92.2408
 20
111.743
 30
0.000000
  70
    32
  0
VERTEX
  8
0
  5
2F41
 10
92.2558
 20
111.552
 30
0.000000
  70
    32
  0
VERTEX
  8
0
  5
2F42
 10
92.2701
 20
111.361
 30
0.000000
  70
    32
  0
VERTEX
  8
0
  5
2F43
 10
92.2837
 20
111.168
 30
0.000000
  70
    32
  0
VERTEX
  8
0
  5
2F44
 10
92.2966
 20
110.975
 30
0.000000
  70
    32
  0
VERTEX
  8
0
  5
2F45
 10
92.3087
 20
110.782
 30
0.000000
  70
    32
  0
VERTEX
  8
0
  5
2F46
 10
92.3201
 20
110.587
 30
0.000000
  70
    32
  0
VERTEX
  8
0
  5
2F47
 10
92.3308
 20
110.393
 30
0.000000
  70
    32
  0
VERTEX
  8
0
  5
2F48
 10
92.3408
 20
110.197
 30
0.000000
  70
    32
  0
VERTEX
  8
0
  5
2F49
 10
92.3500
 20
110.001
 30
0.000000
  70
    32
  0
VERTEX
  8
0
  5
2F4A
 10
92.3585
 20
109.805
 30
0.000000
  70
    32
  0
VERTEX
  8
0
  5
2F4B
 10
92.3663
 20
109.608
 30
0.000000
  70
    32
  0
VERTEX
  8
0
  5
2F4C
 10
92.3733
 20
109.411
 30
0.000000
  70
    32
  0
VERTEX
  8
0
  5
2F4D
 10
92.3796
 20
109.213
 30
0.000000
  70
    32
  0
VERTEX
  8
0
  5
2F4E
 10
92.3852
 20
109.015
 30
0.000000
  70
    32
  0
VERTEX
  8
0
  5
2F4F
 10
92.3900
 20
108.817
 30
0.000000
  70
    32
  0
VERTEX
  8
0
  5
2F50
 10
92.3941
 20
108.619
 30
0.000000
  70
    32
  0
VERTEX
  8
0
  5
2F51
 10
92.3974
 20
108.420
 30
0.000000
  70
    32
  0
VERTEX
  8
0
  5
2F52
 10
92.4000
 20
108.222
 30
0.000000
  70
    32
  0
VERTEX
  8
0
  5
2F53
 10
92.4018
 20
108.023
 30
0.000000
  70
    32
  0
VERTEX
  8
0
  5
2F54
 10
92.4030
 20
107.824
 30
0.000000
  70
    32
  0
VERTEX
  8
0
  5
2F55
 10
92.4033
 20
107.625
 30
0.000000
  70
    32
  0
VERTEX
  8
0
  5
2F56
 10
92.4030
 20
107.426
 30
0.000000
  70
    32
  0
VERTEX
  8
0
  5
2F57
 10
92.4018
 20
107.227
 30
0.000000
  70
    32
  0
VERTEX
  8
0
  5
2F58
 10
92.4000
 20
107.028
 30
0.000000
  70
    32
  0
VERTEX
  8
0
  5
2F59
 10
92.3974
 20
106.830
 30
0.000000
  70
    32
  0
VERTEX
  8
0
  5
2F5A
 10
92.3941
 20
106.631
 30
0.000000
  70
    32
  0
VERTEX
  8
0
  5
2F5B
 10
92.3900
 20
106.433
 30
0.000000
  70
    32
  0
VERTEX
  8
0
  5
2F5C
 10
92.3852
 20
106.235
 30
0.000000
  70
    32
  0
VERTEX
  8
0
  5
2F5D
 10
92.3796
 20
106.037
 30
0.000000
  70
    32
  0
VERTEX
  8
0
  5
2F5E
 10
92.3733
 20
105.839
 30
0.000000
  70
    32
  0
VERTEX
  8
0
  5
2F5F
 10
92.3663
 20
105.642
 30
0.000000
  70
    32
  0
VERTEX
  8
0
  5
2F60
 10
92.3585
 20
105.445
 30
0.000000
  70
    32
  0
VERTEX
  8
0
  5
2F61
 10
92.3500
 20
105.249
 30
0.000000
  70
    32
  0
VERTEX
  8
0
  5
2F62
 10
92.3408
 20
105.053
 30
0.000000
  70
    32
  0
VERTEX
  8
0
  5
2F63
 10
92.3308
 20
104.857
 30
0.000000
  70
    32
  0
VERTEX
  8
0
  5
2F64
 10
92.3201
 20
104.663
 30
0.000000
  70
    32
  0
VERTEX
  8
0
  5
2F65
 10
92.3087
 20
104.468
 30
0.000000
  70
    32
  0
VERTEX
  8
0
  5
2F66
 10
92.2966
 20
104.275
 30
0.000000
  70
    32
  0
VERTEX
  8
0
  5
2F67
 10
92.2837
 20
104.082
 30
0.000000
  70
    32
  0
VERTEX
  8
0
  5
2F68
 10
92.2701
 20
103.889
 30
0.000000
  70
    32
  0
VERTEX
  8
0
  5
2F69
 10
92.2558
 20
103.698
 30
0.000000
  70
    32
  0
VERTEX
  8
0
  5
2F6A
 10
92.2408
 20
103.507
 30
0.000000
  70
    32
  0
VERTEX
  8
0
  5
2F6B
 10
92.2251
 20
103.317
 30
0.000000
  70
    32
  0
VERTEX
  8
0
  5
2F6C
 10
92.2087
 20
103.127
 30
0.000000
  70
    32
  0
VERTEX
  8
0
  5
2F6D
 10
92.1916
 20
102.939
 30
0.000000
  70
    32
  0
VERTEX
  8
0
  5
2F6E
 10
92.1737
 20
102.751
 30
0.000000
  70
    32
  0
VERTEX
  8
0
  5
2F6F
 10
92.1552
 20
102.565
 30
0.000000
  70
    32
  0
VERTEX
  8
0
  5
2F70
 10
92.1360
 20
102.379
 30
0.000000
  70
    32
  0
VERTEX
  8
0
  5
2F71
 10
92.1160
 20
102.195
 30
0.000000
  70
    32
  0
VERTEX
  8
0
  5
2F72
 10
92.0954
 20
102.011
 30
0.000000
  70
    32
  0
VERTEX
  8
0
  5
2F73
 10
92.0742
 20
101.829
 30
0.000000
  70
    32
  0
VERTEX
  8
0
  5
2F74
 10
92.0522
 20
101.648
 30
0.000000
  70
    32
  0
VERTEX
  8
0
  5
2F75
 10
92.0296
 20
101.468
 30
0.000000
  70
    32
  0
VERTEX
  8
0
  5
2F76
 10
92.0063
 20
101.289
 30
0.000000
  70
    32
  0
VERTEX
  8
0
  5
2F77
 10
91.9823
 20
101.111
 30
0.000000
  70
    32
  0
VERTEX
  8
0
  5
2F78
 10
91.9576
 20
100.935
 30
0.000000
  70
    32
  0
VERTEX
  8
0
  5
2F79
 10
91.9324
 20
100.759
 30
0.000000
  70
    32
  0
VERTEX
  8
0
  5
2F7A
 10
91.9064
 20
100.586
 30
0.000000
  70
    32
  0
VERTEX
  8
0
  5
2F7B
 10
91.8798
 20
100.413
 30
0.000000
  70
    32
  0
VERTEX
  8
0
  5
2F7C
 10
91.8526
 20
100.242
 30
0.000000
  70
    32
  0
VERTEX
  8
0
  5
2F7D
 10
91.8248
 20
100.073
 30
0.000000
  70
    32
  0
VERTEX
  8
0
  5
2F7E
 10
91.7963
 20
99.9045
 30
0.000000
  70
    32
  0
VERTEX
  8
0
  5
2F7F
 10
91.7671
 20
99.7378
 30
0.000000
  70
    32
  0
VERTEX
  8
0
  5
2F80
 10
91.7374
 20
99.5727
 30
0.000000
  70
    32
  0
VERTEX
  8
0
  5
2F81
 10
91.7071
 20
99.4092
 30
0.000000
  70
    32
  0
VERTEX
  8
0
  5
2F82
 10
91.6761
 20
99.2472
 30
0.000000
  70
    32
  0
VERTEX
  8
0
  5
2F83
 10
91.6446
 20
99.0869
 30
0.000000
  70
    32
  0
VERTEX
  8
0
  5
2F84
 10
91.6124
 20
98.9282
 30
0.000000
  70
    32
  0
VERTEX
  8
0
  5
2F85
 10
91.5797
 20
98.7712
 30
0.000000
  70
    32
  0
VERTEX
  8
0
  5
2F86
 10
91.5463
 20
98.6160
 30
0.000000
  70
    32
  0
VERTEX
  8
0
  5
2F87
 10
91.5124
 20
98.4624
 30
0.000000
  70
    32
  0
VERTEX
  8
0
  5
2F88
 10
91.4780
 20
98.3107
 30
0.000000
  70
    32
  0
VERTEX
  8
0
  5
2F89
 10
91.4429
 20
98.1608
 30
0.000000
  70
    32
  0
VERTEX
  8
0
  5
2F8A
 10
91.4074
 20
98.0126
 30
0.000000
  70
    32
  0
VERTEX
  8
0
  5
2F8B
 10
91.3712
 20
97.8664
 30
0.000000
  70
    32
  0
VERTEX
  8
0
  5
2F8C
 10
91.3345
 20
97.7220
 30
0.000000
  70
    32
  0
VERTEX
  8
0
  5
2F8D
 10
91.2973
 20
97.5796
 30
0.000000
  70
    32
  0
VERTEX
  8
0
  5
2F8E
 10
91.2596
 20
97.4391
 30
0.000000
  70
    32
  0
VERTEX
  8
0
  5
2F8F
 10
91.2213
 20
97.3006
 30
0.000000
  70
    32
  0
VERTEX
  8
0
  5
2F90
 10
91.1826
 20
97.1641
 30
0.000000
  70
    32
  0
VERTEX
  8
0
  5
2F91
 10
91.1433
 20
97.0296
 30
0.000000
  70
    32
  0
VERTEX
  8
0
  5
2F92
 10
91.1035
 20
96.8972
 30
0.000000
  70
    32
  0
VERTEX
  8
0
  5
2F93
 10
91.0632
 20
96.7669
 30
0.000000
  70
    32
  0
VERTEX
  8
0
  5
2F94
 10
91.0225
 20
96.6386
 30
0.000000
  70
    32
  0
VERTEX
  8
0
  5
2F95
 10
90.9813
 20
96.5125
 30
0.000000
  70
    32
  0
SEQEND
  8
0
  5
2F96
  0
LINE
  5
291D
  8
0
 10
88.574999999999989
 20
118.73749999873
 30
0.0
 11
88.574999999999989
 21
96.512499998729993
 31
0.0
  0
LINE
  5
291F
  8
0
 10
94.925000000000026
 20
96.512499998729993
 30
0.0
 11
88.575000000000074
 21
96.512499998730021
 31
0.0
  0
LINE
  5
2920
  8
0
 10
94.925000000000026
 20
118.73749999873
 30
0.0
 11
94.925000000000026
 21
96.512499998729993
 31
0.0
  0
LINE
  5
2921
  8
0
 10
88.575000000000074
 20
118.73749999873
 30
0.0
 11
94.925000000000026
 21
118.73749999873
 31
0.0
  0
ENDSEC
  0
EOF
