  0
SECTION
  2
HEADER
  9
$ACADVER
  1
AC1009
  9
$INSBASE
 10
0.0
 20
0.0
 30
0.0
  9
$EXTMIN
 10
0.0
 20
-2.960436562073669
 30
0.0
  9
$EXTMAX
 10
298.38930614999907
 20
148.54868997907289
 30
17.0
  9
$LIMMIN
 10
0.0
 20
0.0
  9
$LIMMAX
 10
390.0
 20
270.0
  9
$ORTHOMODE
 70
     1
  9
$REGENMODE
 70
     1
  9
$FILLMODE
 70
     1
  9
$QTEXTMODE
 70
     0
  9
$MIRRTEXT
 70
     1
  9
$DRAGMODE
 70
     2
  9
$LTSCALE
 40
5.0
  9
$OSMODE
 70
    55
  9
$ATTMODE
 70
     1
  9
$TEXTSIZE
 40
2.5
  9
$TRACEWID
 40
1.0
  9
$TEXTSTYLE
  7
STANDARD
  9
$CLAYER
  8
4
  9
$CELTYPE
  6
BYLAYER
  9
$CECOLOR
 62
   256
  9
$DIMSCALE
 40
1.1999999999999991
  9
$DIMASZ
 40
3.0
  9
$DIMEXO
 40
1.0
  9
$DIMDLI
 40
6.0
  9
$DIMRND
 40
0.0
  9
$DIMDLE
 40
0.0
  9
$DIMEXE
 40
1.0
  9
$DIMTP
 40
495.0
  9
$DIMTM
 40
0.0
  9
$DIMTXT
 40
3.2000000000000002
  9
$DIMCEN
 40
0.0
  9
$DIMTSZ
 40
0.0
  9
$DIMTOL
 70
     0
  9
$DIMLIM
 70
     0
  9
$DIMTIH
 70
     0
  9
$DIMTOH
 70
     0
  9
$DIMSE1
 70
     0
  9
$DIMSE2
 70
     0
  9
$DIMTAD
 70
     1
  9
$DIMZIN
 70
     8
  9
$DIMBLK
  1

  9
$DIMASO
 70
     0
  9
$DIMSHO
 70
     1
  9
$DIMPOST
  1

  9
$DIMAPOST
  1

  9
$DIMALT
 70
     0
  9
$DIMALTD
 70
     2
  9
$DIMALTF
 40
25.399999999999999
  9
$DIMLFAC
 40
1.0
  9
$DIMTOFL
 70
     1
  9
$DIMTVP
 40
0.0
  9
$DIMTIX
 70
     1
  9
$DIMSOXD
 70
     0
  9
$DIMSAH
 70
     0
  9
$DIMBLK1
  1

  9
$DIMBLK2
  1

  9
$DIMSTYLE
  2
ITM
  9
$DIMCLRD
 70
   256
  9
$DIMCLRE
 70
   256
  9
$DIMCLRT
 70
   256
  9
$DIMTFAC
 40
1.0
  9
$DIMGAP
 40
1.0
  9
$LUNITS
 70
     2
  9
$LUPREC
 70
     2
  9
$SKETCHINC
 40
1.0
  9
$FILLETRAD
 40
0.4
  9
$AUNITS
 70
     0
  9
$AUPREC
 70
     0
  9
$MENU
  1
.
  9
$ELEVATION
 40
0.0
  9
$PELEVATION
 40
0.0
  9
$THICKNESS
 40
0.0
  9
$LIMCHECK
 70
     0
  9
$BLIPMODE
 70
     0
  9
$CHAMFERA
 40
1.1999999999999991
  9
$CHAMFERB
 40
1.1999999999999991
  9
$SKPOLY
 70
     0
  9
$TDCREATE
 40
2453354.0921258219
  9
$TDUPDATE
 40
2456598.562566563
  9
$TDINDWG
 40
513.3634333796
  9
$TDUSRTIMER
 40
513.36315540509997
  9
$USRTIMER
 70
     1
  9
$ANGBASE
 50
0.0
  9
$ANGDIR
 70
     0
  9
$PDMODE
 70
     0
  9
$PDSIZE
 40
0.0
  9
$PLINEWID
 40
0.0
  9
$COORDS
 70
     1
  9
$SPLFRAME
 70
     0
  9
$SPLINETYPE
 70
     6
  9
$SPLINESEGS
 70
     8
  9
$ATTDIA
 70
     0
  9
$ATTREQ
 70
     1
  9
$HANDLING
 70
     1
  9
$HANDSEED
  5
324
  9
$SURFTAB1
 70
     6
  9
$SURFTAB2
 70
     6
  9
$SURFTYPE
 70
     6
  9
$SURFU
 70
     6
  9
$SURFV
 70
     6
  9
$UCSNAME
  2

  9
$UCSORG
 10
0.0
 20
0.0
 30
0.0
  9
$UCSXDIR
 10
1.0
 20
0.0
 30
0.0
  9
$UCSYDIR
 10
0.0
 20
1.0
 30
0.0
  9
$PUCSNAME
  2

  9
$PUCSORG
 10
0.0
 20
0.0
 30
0.0
  9
$PUCSXDIR
 10
1.0
 20
0.0
 30
0.0
  9
$PUCSYDIR
 10
0.0
 20
1.0
 30
0.0
  9
$USERI1
 70
     4
  9
$USERI2
 70
     1
  9
$USERI3
 70
     1
  9
$USERI4
 70
     0
  9
$USERI5
 70
     0
  9
$USERR1
 40
1.0
  9
$USERR2
 40
3.0
  9
$USERR3
 40
3.2000000000000002
  9
$USERR4
 40
3.0
  9
$USERR5
 40
10.0
  9
$WORLDVIEW
 70
     1
  9
$SHADEDGE
 70
     3
  9
$SHADEDIF
 70
    70
  9
$TILEMODE
 70
     1
  9
$MAXACTVP
 70
    16
  9
$PLIMCHECK
 70
     0
  9
$PEXTMIN
 10
0.0
 20
0.0
 30
0.0
  9
$PEXTMAX
 10
0.0
 20
0.0
 30
0.0
  9
$PLIMMIN
 10
0.0
 20
0.0
  9
$PLIMMAX
 10
12.0
 20
9.0
  9
$UNITMODE
 70
     0
  9
$VISRETAIN
 70
     0
  9
$PLINEGEN
 70
     0
  9
$PSLTSCALE
 70
     1
  0
ENDSEC
  0
SECTION
  2
TABLES
  0
TABLE
  2
VPORT
 70
     1
  0
VPORT
  2
*ACTIVE
 70
     0
 10
0.0
 20
0.0
 11
1.0
 21
1.0
 12
194.9940495262785
 22
197.0509055860143
 13
0.0
 23
0.0
 14
5.0
 24
5.0
 15
10.0
 25
10.0
 16
0.0
 26
0.0
 36
1.0
 17
0.0
 27
0.0
 37
0.0
 40
403.57315882993248
 41
1.7807262569832401
 42
50.0
 43
0.0
 44
0.0
 50
0.0
 51
0.0
 71
    16
 72
   500
 73
     1
 74
     1
 75
     0
 76
     0
 77
     0
 78
     1
  0
ENDTAB
  0
TABLE
  2
LTYPE
 70
     4
  0
LTYPE
  2
CONTINUOUS
 70
     0
  3
Solid line
 72
    65
 73
     0
 40
0.0
  0
LTYPE
  2
CENTER
 70
     0
  3
____ _ ____ _ ____ _ ____ _ ____ _ ____ _ ____
 72
    65
 73
     4
 40
2.0
 49
1.25
 49
-0.25
 49
0.25
 49
-0.25
  0
LTYPE
  2
HIDDEN
 70
     0
  3
_ _ _ _ _ _ _ _ _ _ _ _ _ _ _ _ _ _ _ _ _ _ _
 72
    65
 73
     2
 40
0.375
 49
0.25
 49
-0.125
  0
LTYPE
  2
PHANTOM2
 70
     0
  3
___ _ _ ___ _ _ ___ _ _ ___ _ _
 72
    65
 73
     6
 40
1.25
 49
0.625
 49
-0.125
 49
0.125
 49
-0.125
 49
0.125
 49
-0.125
  0
ENDTAB
  0
TABLE
  2
LAYER
 70
     6
  0
LAYER
  2
0
 70
     0
 62
     7
  6
CONTINUOUS
  0
LAYER
  2
1
 70
     0
 62
     1
  6
CENTER
  0
LAYER
  2
WAKU
 70
     0
 62
     5
  6
CONTINUOUS
  0
LAYER
  2
4
 70
     0
 62
     4
  6
CONTINUOUS
  0
LAYER
  2
3
 70
     0
 62
     3
  6
CONTINUOUS
  0
LAYER
  2
2
 70
     0
 62
     2
  6
HIDDEN
  0
ENDTAB
  0
TABLE
  2
STYLE
 70
     3
  0
STYLE
  2
STANDARD
 70
     0
 40
0.0
 41
1.0
 50
0.0
 71
     0
 42
2.5
  3
ROMANS
  4
EXTFONT
  0
STYLE
  2
K
 70
     0
 40
0.0
 41
0.75
 50
0.0
 71
     0
 42
3.2000000000000002
  3
ROMANS.shx
  4
EXTFONT.shx
  0
STYLE
  2
STANDARD1
 70
     0
 40
0.0
 41
1.0
 50
0.0
 71
     0
 42
3.0
  3
txt
  4

  0
ENDTAB
  0
TABLE
  2
VIEW
 70
     0
  0
ENDTAB
  0
TABLE
  2
UCS
 70
     0
  0
ENDTAB
  0
TABLE
  2
APPID
 70
     3
  0
APPID
  2
ACAD
 70
     0
  0
APPID
  2
ACAD_MLEADERVER
 70
     0
  0
APPID
  2
ACAD_NAV_VCDISPLAY
 70
     0
  0
ENDTAB
  0
TABLE
  2
DIMSTYLE
 70
     2
  0
DIMSTYLE
  2
ITM
 70
     0
  3

  4

  5

  6

  7

 40
0.0
 41
2.5
 42
1.0
 43
6.0
 44
1.0
 45
0.0
 46
0.0
 47
495.0
 48
0.0
140
3.0
141
0.0
142
0.0
143
25.399999999999999
144
1.0
145
0.0
146
1.0
147
1.0
 71
     0
 72
     0
 73
     0
 74
     0
 75
     0
 76
     0
 77
     3
 78
     8
170
     0
171
     2
172
     1
173
     0
174
     0
175
     0
176
     0
177
     0
178
     0
  0
DIMSTYLE
  2
STANDARD
 70
     0
  3

  4

  5

  6

  7

 40
1.0
 41
0.18
 42
0.0625
 43
0.38
 44
0.18
 45
0.0
 46
0.0
 47
0.0
 48
0.0
140
0.18
141
0.09
142
0.0
143
25.399999999999999
144
1.0
145
0.0
146
1.0
147
0.09
 71
     0
 72
     0
 73
     1
 74
     1
 75
     0
 76
     0
 77
     0
 78
     0
170
     0
171
     2
172
     0
173
     0
174
     0
175
     0
176
     0
177
     0
178
     0
  0
ENDTAB
  0
ENDSEC
  0
SECTION
  2
BLOCKS
  0
BLOCK
  8
0
  2
$MODEL_SPACE
 70
     0
 10
0.0
 20
0.0
 30
0.0
  3
$MODEL_SPACE
  1

  0
ENDBLK
  5
12
  8
0
  0
BLOCK
 67
     1
  8
0
  2
$PAPER_SPACE
 70
     0
 10
0.0
 20
0.0
 30
0.0
  3
$PAPER_SPACE
  1

  0
ENDBLK
  5
19
 67
     1
  8
0
  0
BLOCK
  8
0
  2
ARROW1
 70
     0
 10
0.0
 20
0.0
 30
0.0
  3
ARROW1
  1

  0
SOLID
  5
4B
  8
WAKU
  6
CONTINUOUS
 62
     4
 10
-1.0
 20
0.1666666666666714
 30
0.0
 11
-1.0
 21
-0.1666666666666714
 31
0.0
 12
0.0
 22
0.0
 32
0.0
 13
0.0
 23
0.0
 33
0.0
  0
ENDBLK
  5
4D
  8
0
  0
ENDSEC
  0
SECTION
  2
ENTITIES
  0
CIRCLE
  5
74
  8
0
 10
43.141503802363552
 20
119.4809321510669
 30
0.0
 40
22.500001208459889
  0
CIRCLE
  5
75
  8
0
 10
43.141503802363552
 20
119.4809321510669
 30
0.0
 40
11.5
  0
CIRCLE
  5
76
  8
0
 10
43.141503802363552
 20
119.4809321510669
 30
0.0
 40
9.5000000000000018
  0
CIRCLE
  5
77
  8
0
 10
43.141503802363552
 20
119.4809321510669
 30
0.0
 40
6.0
  0
CIRCLE
  5
78
  8
3
 10
43.141503802363552
 20
119.4809321510669
 30
0.0
 40
4.0799999999999841
  0
CIRCLE
  5
7A
  8
0
 10
43.141503802363552
 20
119.4809321510669
 30
0.0
 40
5.0000000000000009
  0
LINE
  5
7B
  8
0
 10
45.641503802363552
 20
118.0375564780928
 30
0.0
 11
45.641503802363552
 21
120.92430782404089
 31
0.0
  0
LINE
  5
7C
  8
0
 10
43.141503802363552
 20
116.5941808051187
 30
0.0
 11
45.641503802363552
 21
118.0375564780928
 31
0.0
  0
LINE
  5
7D
  8
0
 10
40.641503802363552
 20
118.0375564780928
 30
0.0
 11
43.141503802363552
 21
116.5941808051187
 31
0.0
  0
LINE
  5
7E
  8
0
 10
40.641503802363552
 20
120.92430782404089
 30
0.0
 11
40.641503802363552
 21
118.0375564780928
 31
0.0
  0
LINE
  5
7F
  8
0
 10
43.141503802363552
 20
122.36768349701499
 30
0.0
 11
40.641503802363552
 21
120.92430782404089
 31
0.0
  0
LINE
  5
80
  8
0
 10
45.641503802363552
 20
120.92430782404089
 30
0.0
 11
43.141503802363552
 21
122.36768349701499
 31
0.0
  0
LINE
  5
81
  8
1
 10
14.0737459743575
 20
119.4809321510669
 30
0.0
 11
72.20926163036961
 21
119.4809321510669
 31
0.0
  0
LINE
  5
84
  8
1
 10
43.141503802363552
 20
90.413174323060844
 30
0.0
 11
43.141503802363552
 21
148.54868997907289
 31
0.0
  0
POINT
  5
85
  8
1
 10
43.141503802363552
 20
119.4809321510669
 30
17.0
  0
LINE
  5
86
  8
1
 10
96.017596207150746
 20
119.4809321510669
 30
0.0
 11
200.389092908311
 21
119.4809321510669
 31
0.0
  0
LINE
  5
87
  8
3
 10
105.24907060126471
 20
123.56093215106679
 30
0.0
 11
120.44907060126469
 21
123.56093215106679
 31
0.0
  0
LINE
  5
88
  8
3
 10
105.24907060126471
 20
115.4009321510669
 30
0.0
 11
120.44907060126469
 21
115.4009321510669
 31
0.0
  0
LINE
  5
89
  8
2
 10
109.49907060126471
 20
122.36768349701499
 30
0.0
 11
109.49907060126471
 21
116.5941808051187
 31
0.0
  0
LINE
  5
8C
  8
2
 10
105.24907060126471
 20
116.5941808051187
 30
0.0
 11
105.24907060126471
 21
122.36768349701499
 31
0.0
  0
LINE
  5
8D
  8
2
 10
109.49907060126471
 20
122.36768349701499
 30
0.0
 11
105.24907060126471
 21
122.36768349701499
 31
0.0
  0
LINE
  5
8E
  8
2
 10
109.49907060126471
 20
120.92430782404089
 30
0.0
 11
105.24907060126471
 21
120.92430782404089
 31
0.0
  0
LINE
  5
8F
  8
2
 10
109.49907060126471
 20
116.5941808051187
 30
0.0
 11
105.24907060126471
 21
116.5941808051187
 31
0.0
  0
LINE
  5
90
  8
2
 10
109.49907060126471
 20
118.0375564780928
 30
0.0
 11
105.24907060126471
 21
118.0375564780928
 31
0.0
  0
LINE
  5
91
  8
0
 10
105.24907060126471
 20
123.56093215106679
 30
0.0
 11
105.24907060126471
 21
115.4009321510669
 31
0.0
  0
LINE
  5
92
  8
0
 10
106.16907060126471
 20
114.4809321510669
 30
0.0
 11
106.16907060126471
 21
124.4809321510669
 31
0.0
  0
LINE
  5
93
  8
0
 10
119.52907060126471
 20
114.4809321510669
 30
0.0
 11
119.52907060126471
 21
124.4809321510669
 31
0.0
  0
LINE
  5
94
  8
0
 10
120.44907060126469
 20
115.4009321510669
 30
0.0
 11
120.44907060126469
 21
123.56093215106679
 31
0.0
  0
LINE
  5
95
  8
0
 10
120.6490706012647
 20
115.6809321510669
 30
0.0
 11
120.6490706012647
 21
123.28093215106691
 31
0.0
  0
LINE
  5
96
  8
0
 10
121.5990706012647
 20
115.6809321510669
 30
0.0
 11
121.5990706012647
 21
123.28093215106691
 31
0.0
  0
LINE
  5
97
  8
0
 10
122.0490706012647
 20
113.4809321510669
 30
0.0
 11
122.0490706012647
 21
125.4809321510669
 31
0.0
  0
LINE
  5
98
  8
0
 10
122.24907060126471
 20
109.9809321510669
 30
0.0
 11
122.24907060126471
 21
128.9809321510669
 31
0.0
  0
LINE
  5
99
  8
0
 10
123.97750277874751
 20
107.9809321510669
 30
0.0
 11
123.97750277874751
 21
130.9809321510669
 31
0.0
  0
LINE
  5
9A
  8
0
 10
151.20691549999509
 20
104.7280649226357
 30
0.0
 11
151.20691549999509
 21
134.23379937949801
 31
0.0
  0
LINE
  5
9B
  8
0
 10
158.7295704247837
 20
101.773671806217
 30
0.0
 11
158.7295704247837
 21
137.1881924959167
 31
0.0
  0
LINE
  5
9C
  8
0
 10
179.40696831458189
 20
97.701211615335183
 30
0.0
 11
179.40696831458189
 21
141.26065268679861
 31
0.0
  0
LINE
  5
9D
  8
0
 10
185.25501887747541
 20
103.5043199092554
 30
0.0
 11
185.25501887747541
 21
135.45754439287839
 31
0.0
  0
LINE
  5
9E
  8
2
 10
109.49907060126471
 20
116.9809321510669
 30
0.0
 11
110.9424462742388
 21
119.4809321510669
 31
0.0
  0
LINE
  5
9F
  8
2
 10
110.9424462742388
 20
119.4809321510669
 30
0.0
 11
109.49907060126471
 21
121.9809321510669
 31
0.0
  0
LINE
  5
A0
  8
0
 10
106.16907060126471
 20
124.4809321510669
 30
0.0
 11
105.24907060126471
 21
123.56093215106679
 31
0.0
  0
LINE
  5
A1
  8
0
 10
105.24907060126471
 20
115.4009321510669
 30
0.0
 11
106.16907060126471
 21
114.4809321510669
 31
0.0
  0
LINE
  5
A2
  8
0
 10
119.52907060126471
 20
124.4809321510669
 30
0.0
 11
106.16907060126471
 21
124.4809321510669
 31
0.0
  0
LINE
  5
A3
  8
0
 10
106.16907060126471
 20
114.4809321510669
 30
0.0
 11
119.52907060126471
 21
114.4809321510669
 31
0.0
  0
LINE
  5
A4
  8
0
 10
120.44907060126469
 20
123.56093215106679
 30
0.0
 11
119.52907060126471
 21
124.4809321510669
 31
0.0
  0
LINE
  5
A5
  8
0
 10
119.52907060126471
 20
114.4809321510669
 30
0.0
 11
120.44907060126469
 21
115.4009321510669
 31
0.0
  0
ARC
  5
A6
  8
0
 10
120.6490706012647
 20
115.4809321510669
 30
0.0
 40
0.1999999999999962
 50
90.0
 51
180.0
  0
ARC
  5
A7
  8
0
 10
120.6490706012647
 20
123.4809321510669
 30
0.0
 40
0.1999999999999957
 50
180.0
 51
270.0
  0
LINE
  5
A8
  8
0
 10
121.5990706012647
 20
123.28093215106691
 30
0.0
 11
120.6490706012647
 21
123.28093215106691
 31
0.0
  0
LINE
  5
A9
  8
0
 10
120.6490706012647
 20
115.6809321510669
 30
0.0
 11
121.5990706012647
 21
115.6809321510669
 31
0.0
  0
ARC
  5
AA
  8
0
 10
121.5990706012647
 20
115.2309321510669
 30
0.0
 40
0.4500000000000028
 50
0.0
 51
90.0
  0
ARC
  5
AB
  8
0
 10
121.5990706012648
 20
123.7309321510669
 30
0.0
 40
0.449999999999995
 50
270.0
 51
0.0
  0
LINE
  5
AC
  8
0
 10
122.24907060126471
 20
125.4809321510669
 30
0.0
 11
122.0490706012647
 21
125.4809321510669
 31
0.0
  0
LINE
  5
AD
  8
0
 10
122.0490706012647
 20
113.4809321510669
 30
0.0
 11
122.24907060126471
 21
113.4809321510669
 31
0.0
  0
LINE
  5
AE
  8
0
 10
123.97750277874751
 20
130.9809321510669
 30
0.0
 11
122.24907060126471
 21
128.9809321510669
 31
0.0
  0
LINE
  5
AF
  8
0
 10
122.24907060126471
 20
109.9809321510669
 30
0.0
 11
123.97750277874751
 21
107.9809321510669
 31
0.0
  0
LINE
  5
B0
  8
0
 10
151.20691549999509
 20
134.23379937949801
 30
0.0
 11
123.97750277874751
 21
130.9809321510669
 31
0.0
  0
LINE
  5
B1
  8
0
 10
123.97750277874751
 20
107.9809321510669
 30
0.0
 11
151.20691549999509
 21
104.7280649226357
 31
0.0
  0
ARC
  5
B2
  8
0
 10
149.30902553768249
 20
88.841025749430415
 30
0.0
 40
16.000000000000242
 50
53.92923151304506
 51
83.187642775595037
  0
ARC
  5
B3
  8
0
 10
149.30902553768249
 20
150.12083855270339
 30
0.0
 40
16.00000000000022
 50
276.81235722440499
 51
306.07076848695488
  0
ARC
  5
B4
  8
0
 10
173.4491786517371
 20
121.98095057231509
 30
0.0
 40
25.000019629708149
 50
233.92924488707919
 51
283.78689919626601
  0
ARC
  5
B5
  8
0
 10
173.4491786517371
 20
116.9809137298186
 30
0.0
 40
25.000019629708142
 50
76.213100803733965
 51
126.07075511292081
  0
ARC
  5
B6
  8
0
 10
177.5004571820657
 20
105.47071234608561
 30
0.0
 40
7.9999953939699022
 50
283.78705431795117
 51
345.77093135633697
  0
ARC
  5
B7
  8
0
 10
177.5004571820657
 20
133.4911519560481
 30
0.0
 40
7.9999953939699253
 50
14.229068643663
 51
76.212945682048769
  0
ARC
  5
B8
  8
0
 10
122.24824286855279
 20
119.4809836067173
 30
0.0
 40
65.000827732732319
 50
345.77137467530008
 51
0.0000546534465977
  0
ARC
  5
B9
  8
0
 10
122.24824286855259
 20
119.4808806954164
 30
0.0
 40
65.000827732732503
 50
0.0000453545916955
 51
14.228625324696729
  0
POINT
  5
BA
  8
1
 10
269.32154832199308
 20
119.4809321510669
 30
17.0
  0
LINE
  5
BB
  8
1
 10
269.32154832199308
 20
90.413174323060844
 30
0.0
 11
269.32154832199308
 21
148.54868997907289
 31
0.0
  0
LINE
  5
BC
  8
1
 10
240.253790493987
 20
119.4809321510669
 30
0.0
 11
298.38930614999907
 21
119.4809321510669
 31
0.0
  0
CIRCLE
  5
BD
  8
0
 10
269.32154832199308
 20
119.4809321510669
 30
0.0
 40
15.97661224181148
  0
CIRCLE
  5
BE
  8
0
 10
269.32154832199308
 20
119.4809321510669
 30
0.0
 40
22.500001208459889
  0
ARC
  5
BF
  8
0
 10
122.24824286855259
 20
46.969955380344452
 30
0.0
 40
65.000827732732503
 50
0.0000453545916955
 51
14.228625324696729
  0
ARC
  5
C0
  8
0
 10
122.24824286855279
 20
46.97005829164533
 30
0.0
 40
65.000827732732319
 50
345.77137467530008
 51
0.0000546534465977
  0
ARC
  5
C1
  8
0
 10
177.5004571820657
 20
60.980226640976177
 30
0.0
 40
7.9999953939699253
 50
14.229068643663
 51
76.212945682048769
  0
ARC
  5
C2
  8
0
 10
177.5004571820657
 20
32.959787031013597
 30
0.0
 40
7.9999953939699022
 50
283.78705431795117
 51
345.77093135633697
  0
ARC
  5
C3
  8
0
 10
173.4491786517371
 20
44.469988414746688
 30
0.0
 40
25.000019629708142
 50
76.213100803733965
 51
126.07075511292081
  0
ARC
  5
C4
  8
0
 10
173.4491786517371
 20
49.470025257243151
 30
0.0
 40
25.000019629708149
 50
233.92924488707919
 51
283.78689919626601
  0
ARC
  5
C5
  8
0
 10
149.30902553768249
 20
77.609913237631417
 30
0.0
 40
16.00000000000022
 50
276.81235722440499
 51
306.07076848695488
  0
ARC
  5
C6
  8
0
 10
149.30902553768249
 20
16.330100434358432
 30
0.0
 40
16.000000000000242
 50
53.92923151304506
 51
83.187642775595037
  0
LINE
  5
C7
  8
0
 10
123.97750277874751
 20
35.470006835994923
 30
0.0
 11
151.20691549999509
 21
32.217139607563809
 31
0.0
  0
LINE
  5
C8
  8
0
 10
151.20691549999509
 20
61.72287406442603
 30
0.0
 11
123.97750277874751
 21
58.470006835994923
 31
0.0
  0
LINE
  5
C9
  8
0
 10
122.24907060126471
 20
37.470006835994923
 30
0.0
 11
123.97750277874751
 21
35.470006835994923
 31
0.0
  0
LINE
  5
CA
  8
0
 10
123.97750277874751
 20
58.470006835994923
 30
0.0
 11
122.24907060126471
 21
56.470006835994923
 31
0.0
  0
LINE
  5
CB
  8
0
 10
122.0490706012647
 20
40.970006835994923
 30
0.0
 11
122.24907060126471
 21
40.970006835994923
 31
0.0
  0
LINE
  5
CC
  8
0
 10
122.24907060126471
 20
52.970006835994923
 30
0.0
 11
122.0490706012647
 21
52.970006835994923
 31
0.0
  0
ARC
  5
CD
  8
0
 10
121.5990706012648
 20
51.220006835994923
 30
0.0
 40
0.449999999999995
 50
270.0
 51
0.0
  0
ARC
  5
CE
  8
0
 10
121.5990706012647
 20
42.720006835994923
 30
0.0
 40
0.4500000000000028
 50
0.0
 51
90.0
  0
LINE
  5
CF
  8
0
 10
120.6490706012647
 20
43.170006835994897
 30
0.0
 11
121.5990706012647
 21
43.170006835994897
 31
0.0
  0
LINE
  5
D0
  8
0
 10
121.5990706012647
 20
50.770006835994927
 30
0.0
 11
120.6490706012647
 21
50.770006835994927
 31
0.0
  0
ARC
  5
D1
  8
0
 10
120.6490706012647
 20
50.970006835994923
 30
0.0
 40
0.1999999999999957
 50
180.0
 51
270.0
  0
ARC
  5
D2
  8
0
 10
120.6490706012647
 20
42.970006835994923
 30
0.0
 40
0.1999999999999962
 50
90.0
 51
180.0
  0
LINE
  5
D3
  8
0
 10
119.52907060126471
 20
41.970006835994923
 30
0.0
 11
120.44907060126469
 21
42.890006835994939
 31
0.0
  0
LINE
  5
D4
  8
0
 10
120.44907060126469
 20
51.050006835994907
 30
0.0
 11
119.52907060126471
 21
51.970006835994923
 31
0.0
  0
LINE
  5
D5
  8
0
 10
106.16907060126471
 20
41.970006835994923
 30
0.0
 11
119.52907060126471
 21
41.970006835994923
 31
0.0
  0
LINE
  5
D6
  8
0
 10
119.52907060126471
 20
51.970006835994923
 30
0.0
 11
106.16907060126471
 21
51.970006835994923
 31
0.0
  0
LINE
  5
D7
  8
0
 10
105.24907060126471
 20
42.890006835994939
 30
0.0
 11
106.16907060126471
 21
41.970006835994923
 31
0.0
  0
LINE
  5
D8
  8
0
 10
106.16907060126471
 20
51.970006835994923
 30
0.0
 11
105.24907060126471
 21
51.050006835994907
 31
0.0
  0
LINE
  5
D9
  8
0
 10
185.25501887747541
 20
30.993394594183432
 30
0.0
 11
185.25501887747541
 21
62.946619077806417
 31
0.0
  0
LINE
  5
DA
  8
0
 10
179.40696831458189
 20
25.19028630026321
 30
0.0
 11
179.40696831458189
 21
68.749727371726635
 31
0.0
  0
LINE
  5
DB
  8
0
 10
158.7295704247837
 20
29.262746491145091
 30
0.0
 11
158.7295704247837
 21
64.677267180844751
 31
0.0
  0
LINE
  5
DC
  8
0
 10
151.20691549999509
 20
32.217139607563809
 30
0.0
 11
151.20691549999509
 21
61.72287406442603
 31
0.0
  0
LINE
  5
DD
  8
0
 10
123.97750277874751
 20
35.470006835994923
 30
0.0
 11
123.97750277874751
 21
58.470006835994923
 31
0.0
  0
LINE
  5
DE
  8
0
 10
122.24907060126471
 20
37.470006835994923
 30
0.0
 11
122.24907060126471
 21
56.470006835994923
 31
0.0
  0
LINE
  5
DF
  8
0
 10
122.0490706012647
 20
40.970006835994923
 30
0.0
 11
122.0490706012647
 21
52.970006835994923
 31
0.0
  0
LINE
  5
E0
  8
0
 10
121.5990706012647
 20
43.170006835994897
 30
0.0
 11
121.5990706012647
 21
50.770006835994927
 31
0.0
  0
LINE
  5
E1
  8
0
 10
120.6490706012647
 20
43.170006835994897
 30
0.0
 11
120.6490706012647
 21
50.770006835994927
 31
0.0
  0
LINE
  5
E2
  8
0
 10
120.44907060126469
 20
42.890006835994939
 30
0.0
 11
120.44907060126469
 21
51.050006835994907
 31
0.0
  0
LINE
  5
E3
  8
0
 10
119.52907060126471
 20
41.970006835994923
 30
0.0
 11
119.52907060126471
 21
51.970006835994923
 31
0.0
  0
LINE
  5
E4
  8
0
 10
106.16907060126471
 20
41.970006835994923
 30
0.0
 11
106.16907060126471
 21
51.970006835994923
 31
0.0
  0
LINE
  5
E5
  8
0
 10
105.24907060126471
 20
51.050006835994907
 30
0.0
 11
105.24907060126471
 21
42.890006835994939
 31
0.0
  0
LINE
  5
E6
  8
3
 10
105.24907060126471
 20
42.890006835994939
 30
0.0
 11
120.44907060126469
 21
42.890006835994939
 31
0.0
  0
LINE
  5
E7
  8
3
 10
105.24907060126471
 20
51.050006835994907
 30
0.0
 11
120.44907060126469
 21
51.050006835994907
 31
0.0
  0
LINE
  5
E8
  8
1
 10
96.017596207150746
 20
46.970006835994923
 30
0.0
 11
200.389092908311
 21
46.970006835994923
 31
0.0
  0
LINE
  5
E9
  8
2
 10
110.9424462742388
 20
46.970006835994923
 30
0.0
 11
109.49907060126471
 21
49.470006835994923
 31
0.0
  0
LINE
  5
EA
  8
2
 10
109.49907060126471
 20
44.470006835994923
 30
0.0
 11
110.9424462742388
 21
46.970006835994923
 31
0.0
  0
LINE
  5
EB
  8
2
 10
109.49907060126471
 20
49.470006835994923
 30
0.0
 11
105.24907060126471
 21
49.470006835994923
 31
0.0
  0
LINE
  5
EC
  8
2
 10
109.49907060126471
 20
46.970006835994923
 30
0.0
 11
105.24907060126471
 21
46.970006835994923
 31
0.0
  0
LINE
  5
ED
  8
2
 10
109.49907060126471
 20
44.470006835994923
 30
0.0
 11
105.24907060126471
 21
44.470006835994923
 31
0.0
  0
LINE
  5
EE
  8
2
 10
105.24907060126471
 20
49.470006835994923
 30
0.0
 11
105.24907060126471
 21
44.470006835994923
 31
0.0
  0
LINE
  5
EF
  8
2
 10
109.49907060126471
 20
49.470006835994923
 30
0.0
 11
109.49907060126471
 21
44.470006835994923
 31
0.0
  0
CIRCLE
  5
F0
  8
0
 10
269.32154832199308
 20
119.4809321510669
 30
0.0
 40
0.6352135421758192
  0
POLYLINE
  5
F1
  8
0
 10
187.2459635347065
 20
120.11642309761662
 30
0.0
 66
     1
 70
     8
  0
VERTEX
  8
0
  5
220
 10
187.246
 20
120.116
 30
0.000000
  70
    32
  0
VERTEX
  8
0
  5
221
 10
187.244
 20
120.109
 30
0.000000
  70
    32
  0
VERTEX
  8
0
  5
222
 10
187.241
 20
120.102
 30
0.000000
  70
    32
  0
VERTEX
  8
0
  5
223
 10
187.239
 20
120.095
 30
0.000000
  70
    32
  0
VERTEX
  8
0
  5
224
 10
187.237
 20
120.087
 30
0.000000
  70
    32
  0
VERTEX
  8
0
  5
225
 10
187.235
 20
120.080
 30
0.000000
  70
    32
  0
VERTEX
  8
0
  5
226
 10
187.232
 20
120.072
 30
0.000000
  70
    32
  0
VERTEX
  8
0
  5
227
 10
187.230
 20
120.064
 30
0.000000
  70
    32
  0
VERTEX
  8
0
  5
228
 10
187.228
 20
120.056
 30
0.000000
  70
    32
  0
VERTEX
  8
0
  5
229
 10
187.226
 20
120.048
 30
0.000000
  70
    32
  0
VERTEX
  8
0
  5
22A
 10
187.224
 20
120.040
 30
0.000000
  70
    32
  0
VERTEX
  8
0
  5
22B
 10
187.222
 20
120.032
 30
0.000000
  70
    32
  0
VERTEX
  8
0
  5
22C
 10
187.220
 20
120.024
 30
0.000000
  70
    32
  0
VERTEX
  8
0
  5
22D
 10
187.218
 20
120.015
 30
0.000000
  70
    32
  0
VERTEX
  8
0
  5
22E
 10
187.216
 20
120.006
 30
0.000000
  70
    32
  0
VERTEX
  8
0
  5
22F
 10
187.214
 20
119.998
 30
0.000000
  70
    32
  0
VERTEX
  8
0
  5
230
 10
187.212
 20
119.989
 30
0.000000
  70
    32
  0
VERTEX
  8
0
  5
231
 10
187.210
 20
119.980
 30
0.000000
  70
    32
  0
VERTEX
  8
0
  5
232
 10
187.208
 20
119.971
 30
0.000000
  70
    32
  0
VERTEX
  8
0
  5
233
 10
187.206
 20
119.962
 30
0.000000
  70
    32
  0
VERTEX
  8
0
  5
234
 10
187.205
 20
119.953
 30
0.000000
  70
    32
  0
VERTEX
  8
0
  5
235
 10
187.203
 20
119.943
 30
0.000000
  70
    32
  0
VERTEX
  8
0
  5
236
 10
187.201
 20
119.934
 30
0.000000
  70
    32
  0
VERTEX
  8
0
  5
237
 10
187.200
 20
119.924
 30
0.000000
  70
    32
  0
VERTEX
  8
0
  5
238
 10
187.198
 20
119.915
 30
0.000000
  70
    32
  0
VERTEX
  8
0
  5
239
 10
187.196
 20
119.905
 30
0.000000
  70
    32
  0
VERTEX
  8
0
  5
23A
 10
187.195
 20
119.895
 30
0.000000
  70
    32
  0
VERTEX
  8
0
  5
23B
 10
187.193
 20
119.886
 30
0.000000
  70
    32
  0
VERTEX
  8
0
  5
23C
 10
187.192
 20
119.876
 30
0.000000
  70
    32
  0
VERTEX
  8
0
  5
23D
 10
187.190
 20
119.866
 30
0.000000
  70
    32
  0
VERTEX
  8
0
  5
23E
 10
187.189
 20
119.856
 30
0.000000
  70
    32
  0
VERTEX
  8
0
  5
23F
 10
187.188
 20
119.845
 30
0.000000
  70
    32
  0
VERTEX
  8
0
  5
240
 10
187.186
 20
119.835
 30
0.000000
  70
    32
  0
VERTEX
  8
0
  5
241
 10
187.185
 20
119.825
 30
0.000000
  70
    32
  0
VERTEX
  8
0
  5
242
 10
187.184
 20
119.814
 30
0.000000
  70
    32
  0
VERTEX
  8
0
  5
243
 10
187.182
 20
119.804
 30
0.000000
  70
    32
  0
VERTEX
  8
0
  5
244
 10
187.181
 20
119.793
 30
0.000000
  70
    32
  0
VERTEX
  8
0
  5
245
 10
187.180
 20
119.783
 30
0.000000
  70
    32
  0
VERTEX
  8
0
  5
246
 10
187.179
 20
119.772
 30
0.000000
  70
    32
  0
VERTEX
  8
0
  5
247
 10
187.178
 20
119.761
 30
0.000000
  70
    32
  0
VERTEX
  8
0
  5
248
 10
187.177
 20
119.751
 30
0.000000
  70
    32
  0
VERTEX
  8
0
  5
249
 10
187.176
 20
119.740
 30
0.000000
  70
    32
  0
VERTEX
  8
0
  5
24A
 10
187.175
 20
119.729
 30
0.000000
  70
    32
  0
VERTEX
  8
0
  5
24B
 10
187.174
 20
119.718
 30
0.000000
  70
    32
  0
VERTEX
  8
0
  5
24C
 10
187.173
 20
119.707
 30
0.000000
  70
    32
  0
VERTEX
  8
0
  5
24D
 10
187.172
 20
119.696
 30
0.000000
  70
    32
  0
VERTEX
  8
0
  5
24E
 10
187.172
 20
119.685
 30
0.000000
  70
    32
  0
VERTEX
  8
0
  5
24F
 10
187.171
 20
119.674
 30
0.000000
  70
    32
  0
VERTEX
  8
0
  5
250
 10
187.170
 20
119.663
 30
0.000000
  70
    32
  0
VERTEX
  8
0
  5
251
 10
187.170
 20
119.652
 30
0.000000
  70
    32
  0
VERTEX
  8
0
  5
252
 10
187.169
 20
119.640
 30
0.000000
  70
    32
  0
VERTEX
  8
0
  5
253
 10
187.168
 20
119.629
 30
0.000000
  70
    32
  0
VERTEX
  8
0
  5
254
 10
187.168
 20
119.618
 30
0.000000
  70
    32
  0
VERTEX
  8
0
  5
255
 10
187.167
 20
119.607
 30
0.000000
  70
    32
  0
VERTEX
  8
0
  5
256
 10
187.167
 20
119.595
 30
0.000000
  70
    32
  0
VERTEX
  8
0
  5
257
 10
187.167
 20
119.584
 30
0.000000
  70
    32
  0
VERTEX
  8
0
  5
258
 10
187.166
 20
119.573
 30
0.000000
  70
    32
  0
VERTEX
  8
0
  5
259
 10
187.166
 20
119.561
 30
0.000000
  70
    32
  0
VERTEX
  8
0
  5
25A
 10
187.166
 20
119.550
 30
0.000000
  70
    32
  0
VERTEX
  8
0
  5
25B
 10
187.165
 20
119.538
 30
0.000000
  70
    32
  0
VERTEX
  8
0
  5
25C
 10
187.165
 20
119.527
 30
0.000000
  70
    32
  0
VERTEX
  8
0
  5
25D
 10
187.165
 20
119.516
 30
0.000000
  70
    32
  0
VERTEX
  8
0
  5
25E
 10
187.165
 20
119.504
 30
0.000000
  70
    32
  0
VERTEX
  8
0
  5
25F
 10
187.165
 20
119.493
 30
0.000000
  70
    32
  0
VERTEX
  8
0
  5
260
 10
187.165
 20
119.481
 30
0.000000
  70
    32
  0
VERTEX
  8
0
  5
261
 10
187.165
 20
119.470
 30
0.000000
  70
    32
  0
VERTEX
  8
0
  5
262
 10
187.165
 20
119.458
 30
0.000000
  70
    32
  0
VERTEX
  8
0
  5
263
 10
187.165
 20
119.447
 30
0.000000
  70
    32
  0
VERTEX
  8
0
  5
264
 10
187.165
 20
119.435
 30
0.000000
  70
    32
  0
VERTEX
  8
0
  5
265
 10
187.165
 20
119.424
 30
0.000000
  70
    32
  0
VERTEX
  8
0
  5
266
 10
187.166
 20
119.413
 30
0.000000
  70
    32
  0
VERTEX
  8
0
  5
267
 10
187.166
 20
119.401
 30
0.000000
  70
    32
  0
VERTEX
  8
0
  5
268
 10
187.166
 20
119.390
 30
0.000000
  70
    32
  0
VERTEX
  8
0
  5
269
 10
187.167
 20
119.378
 30
0.000000
  70
    32
  0
VERTEX
  8
0
  5
26A
 10
187.167
 20
119.367
 30
0.000000
  70
    32
  0
VERTEX
  8
0
  5
26B
 10
187.167
 20
119.356
 30
0.000000
  70
    32
  0
VERTEX
  8
0
  5
26C
 10
187.168
 20
119.344
 30
0.000000
  70
    32
  0
VERTEX
  8
0
  5
26D
 10
187.168
 20
119.333
 30
0.000000
  70
    32
  0
VERTEX
  8
0
  5
26E
 10
187.169
 20
119.322
 30
0.000000
  70
    32
  0
VERTEX
  8
0
  5
26F
 10
187.170
 20
119.311
 30
0.000000
  70
    32
  0
VERTEX
  8
0
  5
270
 10
187.170
 20
119.300
 30
0.000000
  70
    32
  0
VERTEX
  8
0
  5
271
 10
187.171
 20
119.288
 30
0.000000
  70
    32
  0
VERTEX
  8
0
  5
272
 10
187.172
 20
119.277
 30
0.000000
  70
    32
  0
VERTEX
  8
0
  5
273
 10
187.172
 20
119.266
 30
0.000000
  70
    32
  0
VERTEX
  8
0
  5
274
 10
187.173
 20
119.255
 30
0.000000
  70
    32
  0
VERTEX
  8
0
  5
275
 10
187.174
 20
119.244
 30
0.000000
  70
    32
  0
VERTEX
  8
0
  5
276
 10
187.175
 20
119.233
 30
0.000000
  70
    32
  0
VERTEX
  8
0
  5
277
 10
187.176
 20
119.222
 30
0.000000
  70
    32
  0
VERTEX
  8
0
  5
278
 10
187.177
 20
119.212
 30
0.000000
  70
    32
  0
VERTEX
  8
0
  5
279
 10
187.178
 20
119.201
 30
0.000000
  70
    32
  0
VERTEX
  8
0
  5
27A
 10
187.179
 20
119.190
 30
0.000000
  70
    32
  0
VERTEX
  8
0
  5
27B
 10
187.180
 20
119.180
 30
0.000000
  70
    32
  0
VERTEX
  8
0
  5
27C
 10
187.181
 20
119.169
 30
0.000000
  70
    32
  0
VERTEX
  8
0
  5
27D
 10
187.182
 20
119.158
 30
0.000000
  70
    32
  0
VERTEX
  8
0
  5
27E
 10
187.184
 20
119.148
 30
0.000000
  70
    32
  0
VERTEX
  8
0
  5
27F
 10
187.185
 20
119.138
 30
0.000000
  70
    32
  0
VERTEX
  8
0
  5
280
 10
187.186
 20
119.127
 30
0.000000
  70
    32
  0
VERTEX
  8
0
  5
281
 10
187.188
 20
119.117
 30
0.000000
  70
    32
  0
VERTEX
  8
0
  5
282
 10
187.189
 20
119.107
 30
0.000000
  70
    32
  0
VERTEX
  8
0
  5
283
 10
187.190
 20
119.097
 30
0.000000
  70
    32
  0
VERTEX
  8
0
  5
284
 10
187.192
 20
119.087
 30
0.000000
  70
    32
  0
VERTEX
  8
0
  5
285
 10
187.193
 20
119.077
 30
0.000000
  70
    32
  0
VERTEX
  8
0
  5
286
 10
187.195
 20
119.067
 30
0.000000
  70
    32
  0
VERTEX
  8
0
  5
287
 10
187.196
 20
119.057
 30
0.000000
  70
    32
  0
VERTEX
  8
0
  5
288
 10
187.198
 20
119.048
 30
0.000000
  70
    32
  0
VERTEX
  8
0
  5
289
 10
187.200
 20
119.038
 30
0.000000
  70
    32
  0
VERTEX
  8
0
  5
28A
 10
187.201
 20
119.028
 30
0.000000
  70
    32
  0
VERTEX
  8
0
  5
28B
 10
187.203
 20
119.019
 30
0.000000
  70
    32
  0
VERTEX
  8
0
  5
28C
 10
187.205
 20
119.010
 30
0.000000
  70
    32
  0
VERTEX
  8
0
  5
28D
 10
187.206
 20
119.001
 30
0.000000
  70
    32
  0
VERTEX
  8
0
  5
28E
 10
187.208
 20
118.991
 30
0.000000
  70
    32
  0
VERTEX
  8
0
  5
28F
 10
187.210
 20
118.982
 30
0.000000
  70
    32
  0
VERTEX
  8
0
  5
290
 10
187.212
 20
118.973
 30
0.000000
  70
    32
  0
VERTEX
  8
0
  5
291
 10
187.214
 20
118.965
 30
0.000000
  70
    32
  0
VERTEX
  8
0
  5
292
 10
187.216
 20
118.956
 30
0.000000
  70
    32
  0
VERTEX
  8
0
  5
293
 10
187.218
 20
118.947
 30
0.000000
  70
    32
  0
VERTEX
  8
0
  5
294
 10
187.220
 20
118.939
 30
0.000000
  70
    32
  0
VERTEX
  8
0
  5
295
 10
187.222
 20
118.930
 30
0.000000
  70
    32
  0
VERTEX
  8
0
  5
296
 10
187.224
 20
118.922
 30
0.000000
  70
    32
  0
VERTEX
  8
0
  5
297
 10
187.226
 20
118.914
 30
0.000000
  70
    32
  0
VERTEX
  8
0
  5
298
 10
187.228
 20
118.906
 30
0.000000
  70
    32
  0
VERTEX
  8
0
  5
299
 10
187.230
 20
118.898
 30
0.000000
  70
    32
  0
VERTEX
  8
0
  5
29A
 10
187.232
 20
118.890
 30
0.000000
  70
    32
  0
VERTEX
  8
0
  5
29B
 10
187.235
 20
118.883
 30
0.000000
  70
    32
  0
VERTEX
  8
0
  5
29C
 10
187.237
 20
118.875
 30
0.000000
  70
    32
  0
VERTEX
  8
0
  5
29D
 10
187.239
 20
118.868
 30
0.000000
  70
    32
  0
VERTEX
  8
0
  5
29E
 10
187.241
 20
118.860
 30
0.000000
  70
    32
  0
VERTEX
  8
0
  5
29F
 10
187.244
 20
118.853
 30
0.000000
  70
    32
  0
VERTEX
  8
0
  5
2A0
 10
187.246
 20
118.846
 30
0.000000
  70
    32
  0
SEQEND
  8
0
  5
2A1
  0
POLYLINE
  5
F2
  8
0
 10
187.2459635347065
 20
47.605497782544674
 30
0.0
 66
     1
 70
     8
  0
VERTEX
  8
0
  5
2A2
 10
187.246
 20
47.6055
 30
0.000000
  70
    32
  0
VERTEX
  8
0
  5
2A3
 10
187.244
 20
47.5984
 30
0.000000
  70
    32
  0
VERTEX
  8
0
  5
2A4
 10
187.241
 20
47.5912
 30
0.000000
  70
    32
  0
VERTEX
  8
0
  5
2A5
 10
187.239
 20
47.5839
 30
0.000000
  70
    32
  0
VERTEX
  8
0
  5
2A6
 10
187.237
 20
47.5765
 30
0.000000
  70
    32
  0
VERTEX
  8
0
  5
2A7
 10
187.235
 20
47.5689
 30
0.000000
  70
    32
  0
VERTEX
  8
0
  5
2A8
 10
187.232
 20
47.5612
 30
0.000000
  70
    32
  0
VERTEX
  8
0
  5
2A9
 10
187.230
 20
47.5534
 30
0.000000
  70
    32
  0
VERTEX
  8
0
  5
2AA
 10
187.228
 20
47.5455
 30
0.000000
  70
    32
  0
VERTEX
  8
0
  5
2AB
 10
187.226
 20
47.5375
 30
0.000000
  70
    32
  0
VERTEX
  8
0
  5
2AC
 10
187.224
 20
47.5293
 30
0.000000
  70
    32
  0
VERTEX
  8
0
  5
2AD
 10
187.222
 20
47.5210
 30
0.000000
  70
    32
  0
VERTEX
  8
0
  5
2AE
 10
187.220
 20
47.5126
 30
0.000000
  70
    32
  0
VERTEX
  8
0
  5
2AF
 10
187.218
 20
47.5041
 30
0.000000
  70
    32
  0
VERTEX
  8
0
  5
2B0
 10
187.216
 20
47.4955
 30
0.000000
  70
    32
  0
VERTEX
  8
0
  5
2B1
 10
187.214
 20
47.4868
 30
0.000000
  70
    32
  0
VERTEX
  8
0
  5
2B2
 10
187.212
 20
47.4780
 30
0.000000
  70
    32
  0
VERTEX
  8
0
  5
2B3
 10
187.210
 20
47.4691
 30
0.000000
  70
    32
  0
VERTEX
  8
0
  5
2B4
 10
187.208
 20
47.4601
 30
0.000000
  70
    32
  0
VERTEX
  8
0
  5
2B5
 10
187.206
 20
47.4510
 30
0.000000
  70
    32
  0
VERTEX
  8
0
  5
2B6
 10
187.205
 20
47.4417
 30
0.000000
  70
    32
  0
VERTEX
  8
0
  5
2B7
 10
187.203
 20
47.4324
 30
0.000000
  70
    32
  0
VERTEX
  8
0
  5
2B8
 10
187.201
 20
47.4230
 30
0.000000
  70
    32
  0
VERTEX
  8
0
  5
2B9
 10
187.200
 20
47.4135
 30
0.000000
  70
    32
  0
VERTEX
  8
0
  5
2BA
 10
187.198
 20
47.4039
 30
0.000000
  70
    32
  0
VERTEX
  8
0
  5
2BB
 10
187.196
 20
47.3942
 30
0.000000
  70
    32
  0
VERTEX
  8
0
  5
2BC
 10
187.195
 20
47.3845
 30
0.000000
  70
    32
  0
VERTEX
  8
0
  5
2BD
 10
187.193
 20
47.3746
 30
0.000000
  70
    32
  0
VERTEX
  8
0
  5
2BE
 10
187.192
 20
47.3647
 30
0.000000
  70
    32
  0
VERTEX
  8
0
  5
2BF
 10
187.190
 20
47.3547
 30
0.000000
  70
    32
  0
VERTEX
  8
0
  5
2C0
 10
187.189
 20
47.3446
 30
0.000000
  70
    32
  0
VERTEX
  8
0
  5
2C1
 10
187.188
 20
47.3344
 30
0.000000
  70
    32
  0
VERTEX
  8
0
  5
2C2
 10
187.186
 20
47.3242
 30
0.000000
  70
    32
  0
VERTEX
  8
0
  5
2C3
 10
187.185
 20
47.3139
 30
0.000000
  70
    32
  0
VERTEX
  8
0
  5
2C4
 10
187.184
 20
47.3035
 30
0.000000
  70
    32
  0
VERTEX
  8
0
  5
2C5
 10
187.182
 20
47.2930
 30
0.000000
  70
    32
  0
VERTEX
  8
0
  5
2C6
 10
187.181
 20
47.2825
 30
0.000000
  70
    32
  0
VERTEX
  8
0
  5
2C7
 10
187.180
 20
47.2719
 30
0.000000
  70
    32
  0
VERTEX
  8
0
  5
2C8
 10
187.179
 20
47.2613
 30
0.000000
  70
    32
  0
VERTEX
  8
0
  5
2C9
 10
187.178
 20
47.2506
 30
0.000000
  70
    32
  0
VERTEX
  8
0
  5
2CA
 10
187.177
 20
47.2398
 30
0.000000
  70
    32
  0
VERTEX
  8
0
  5
2CB
 10
187.176
 20
47.2290
 30
0.000000
  70
    32
  0
VERTEX
  8
0
  5
2CC
 10
187.175
 20
47.2181
 30
0.000000
  70
    32
  0
VERTEX
  8
0
  5
2CD
 10
187.174
 20
47.2072
 30
0.000000
  70
    32
  0
VERTEX
  8
0
  5
2CE
 10
187.173
 20
47.1962
 30
0.000000
  70
    32
  0
VERTEX
  8
0
  5
2CF
 10
187.172
 20
47.1852
 30
0.000000
  70
    32
  0
VERTEX
  8
0
  5
2D0
 10
187.172
 20
47.1742
 30
0.000000
  70
    32
  0
VERTEX
  8
0
  5
2D1
 10
187.171
 20
47.1631
 30
0.000000
  70
    32
  0
VERTEX
  8
0
  5
2D2
 10
187.170
 20
47.1519
 30
0.000000
  70
    32
  0
VERTEX
  8
0
  5
2D3
 10
187.170
 20
47.1408
 30
0.000000
  70
    32
  0
VERTEX
  8
0
  5
2D4
 10
187.169
 20
47.1296
 30
0.000000
  70
    32
  0
VERTEX
  8
0
  5
2D5
 10
187.168
 20
47.1183
 30
0.000000
  70
    32
  0
VERTEX
  8
0
  5
2D6
 10
187.168
 20
47.1070
 30
0.000000
  70
    32
  0
VERTEX
  8
0
  5
2D7
 10
187.167
 20
47.0957
 30
0.000000
  70
    32
  0
VERTEX
  8
0
  5
2D8
 10
187.167
 20
47.0844
 30
0.000000
  70
    32
  0
VERTEX
  8
0
  5
2D9
 10
187.167
 20
47.0731
 30
0.000000
  70
    32
  0
VERTEX
  8
0
  5
2DA
 10
187.166
 20
47.0617
 30
0.000000
  70
    32
  0
VERTEX
  8
0
  5
2DB
 10
187.166
 20
47.0503
 30
0.000000
  70
    32
  0
VERTEX
  8
0
  5
2DC
 10
187.166
 20
47.0389
 30
0.000000
  70
    32
  0
VERTEX
  8
0
  5
2DD
 10
187.165
 20
47.0275
 30
0.000000
  70
    32
  0
VERTEX
  8
0
  5
2DE
 10
187.165
 20
47.0161
 30
0.000000
  70
    32
  0
VERTEX
  8
0
  5
2DF
 10
187.165
 20
47.0046
 30
0.000000
  70
    32
  0
VERTEX
  8
0
  5
2E0
 10
187.165
 20
46.9932
 30
0.000000
  70
    32
  0
VERTEX
  8
0
  5
2E1
 10
187.165
 20
46.9817
 30
0.000000
  70
    32
  0
VERTEX
  8
0
  5
2E2
 10
187.165
 20
46.9703
 30
0.000000
  70
    32
  0
VERTEX
  8
0
  5
2E3
 10
187.165
 20
46.9588
 30
0.000000
  70
    32
  0
VERTEX
  8
0
  5
2E4
 10
187.165
 20
46.9474
 30
0.000000
  70
    32
  0
VERTEX
  8
0
  5
2E5
 10
187.165
 20
46.9359
 30
0.000000
  70
    32
  0
VERTEX
  8
0
  5
2E6
 10
187.165
 20
46.9245
 30
0.000000
  70
    32
  0
VERTEX
  8
0
  5
2E7
 10
187.165
 20
46.9131
 30
0.000000
  70
    32
  0
VERTEX
  8
0
  5
2E8
 10
187.166
 20
46.9016
 30
0.000000
  70
    32
  0
VERTEX
  8
0
  5
2E9
 10
187.166
 20
46.8902
 30
0.000000
  70
    32
  0
VERTEX
  8
0
  5
2EA
 10
187.166
 20
46.8789
 30
0.000000
  70
    32
  0
VERTEX
  8
0
  5
2EB
 10
187.167
 20
46.8675
 30
0.000000
  70
    32
  0
VERTEX
  8
0
  5
2EC
 10
187.167
 20
46.8561
 30
0.000000
  70
    32
  0
VERTEX
  8
0
  5
2ED
 10
187.167
 20
46.8448
 30
0.000000
  70
    32
  0
VERTEX
  8
0
  5
2EE
 10
187.168
 20
46.8335
 30
0.000000
  70
    32
  0
VERTEX
  8
0
  5
2EF
 10
187.168
 20
46.8222
 30
0.000000
  70
    32
  0
VERTEX
  8
0
  5
2F0
 10
187.169
 20
46.8110
 30
0.000000
  70
    32
  0
VERTEX
  8
0
  5
2F1
 10
187.170
 20
46.7998
 30
0.000000
  70
    32
  0
VERTEX
  8
0
  5
2F2
 10
187.170
 20
46.7886
 30
0.000000
  70
    32
  0
VERTEX
  8
0
  5
2F3
 10
187.171
 20
46.7775
 30
0.000000
  70
    32
  0
VERTEX
  8
0
  5
2F4
 10
187.172
 20
46.7664
 30
0.000000
  70
    32
  0
VERTEX
  8
0
  5
2F5
 10
187.172
 20
46.7553
 30
0.000000
  70
    32
  0
VERTEX
  8
0
  5
2F6
 10
187.173
 20
46.7443
 30
0.000000
  70
    32
  0
VERTEX
  8
0
  5
2F7
 10
187.174
 20
46.7334
 30
0.000000
  70
    32
  0
VERTEX
  8
0
  5
2F8
 10
187.175
 20
46.7224
 30
0.000000
  70
    32
  0
VERTEX
  8
0
  5
2F9
 10
187.176
 20
46.7116
 30
0.000000
  70
    32
  0
VERTEX
  8
0
  5
2FA
 10
187.177
 20
46.7008
 30
0.000000
  70
    32
  0
VERTEX
  8
0
  5
2FB
 10
187.178
 20
46.6900
 30
0.000000
  70
    32
  0
VERTEX
  8
0
  5
2FC
 10
187.179
 20
46.6793
 30
0.000000
  70
    32
  0
VERTEX
  8
0
  5
2FD
 10
187.180
 20
46.6686
 30
0.000000
  70
    32
  0
VERTEX
  8
0
  5
2FE
 10
187.181
 20
46.6581
 30
0.000000
  70
    32
  0
VERTEX
  8
0
  5
2FF
 10
187.182
 20
46.6475
 30
0.000000
  70
    32
  0
VERTEX
  8
0
  5
300
 10
187.184
 20
46.6371
 30
0.000000
  70
    32
  0
VERTEX
  8
0
  5
301
 10
187.185
 20
46.6267
 30
0.000000
  70
    32
  0
VERTEX
  8
0
  5
302
 10
187.186
 20
46.6164
 30
0.000000
  70
    32
  0
VERTEX
  8
0
  5
303
 10
187.188
 20
46.6062
 30
0.000000
  70
    32
  0
VERTEX
  8
0
  5
304
 10
187.189
 20
46.5960
 30
0.000000
  70
    32
  0
VERTEX
  8
0
  5
305
 10
187.190
 20
46.5859
 30
0.000000
  70
    32
  0
VERTEX
  8
0
  5
306
 10
187.192
 20
46.5759
 30
0.000000
  70
    32
  0
VERTEX
  8
0
  5
307
 10
187.193
 20
46.5659
 30
0.000000
  70
    32
  0
VERTEX
  8
0
  5
308
 10
187.195
 20
46.5561
 30
0.000000
  70
    32
  0
VERTEX
  8
0
  5
309
 10
187.196
 20
46.5463
 30
0.000000
  70
    32
  0
VERTEX
  8
0
  5
30A
 10
187.198
 20
46.5366
 30
0.000000
  70
    32
  0
VERTEX
  8
0
  5
30B
 10
187.200
 20
46.5271
 30
0.000000
  70
    32
  0
VERTEX
  8
0
  5
30C
 10
187.201
 20
46.5176
 30
0.000000
  70
    32
  0
VERTEX
  8
0
  5
30D
 10
187.203
 20
46.5081
 30
0.000000
  70
    32
  0
VERTEX
  8
0
  5
30E
 10
187.205
 20
46.4988
 30
0.000000
  70
    32
  0
VERTEX
  8
0
  5
30F
 10
187.206
 20
46.4896
 30
0.000000
  70
    32
  0
VERTEX
  8
0
  5
310
 10
187.208
 20
46.4805
 30
0.000000
  70
    32
  0
VERTEX
  8
0
  5
311
 10
187.210
 20
46.4715
 30
0.000000
  70
    32
  0
VERTEX
  8
0
  5
312
 10
187.212
 20
46.4625
 30
0.000000
  70
    32
  0
VERTEX
  8
0
  5
313
 10
187.214
 20
46.4537
 30
0.000000
  70
    32
  0
VERTEX
  8
0
  5
314
 10
187.216
 20
46.4450
 30
0.000000
  70
    32
  0
VERTEX
  8
0
  5
315
 10
187.218
 20
46.4364
 30
0.000000
  70
    32
  0
VERTEX
  8
0
  5
316
 10
187.220
 20
46.4279
 30
0.000000
  70
    32
  0
VERTEX
  8
0
  5
317
 10
187.222
 20
46.4195
 30
0.000000
  70
    32
  0
VERTEX
  8
0
  5
318
 10
187.224
 20
46.4113
 30
0.000000
  70
    32
  0
VERTEX
  8
0
  5
319
 10
187.226
 20
46.4031
 30
0.000000
  70
    32
  0
VERTEX
  8
0
  5
31A
 10
187.228
 20
46.3951
 30
0.000000
  70
    32
  0
VERTEX
  8
0
  5
31B
 10
187.230
 20
46.3871
 30
0.000000
  70
    32
  0
VERTEX
  8
0
  5
31C
 10
187.232
 20
46.3793
 30
0.000000
  70
    32
  0
VERTEX
  8
0
  5
31D
 10
187.235
 20
46.3716
 30
0.000000
  70
    32
  0
VERTEX
  8
0
  5
31E
 10
187.237
 20
46.3641
 30
0.000000
  70
    32
  0
VERTEX
  8
0
  5
31F
 10
187.239
 20
46.3566
 30
0.000000
  70
    32
  0
VERTEX
  8
0
  5
320
 10
187.241
 20
46.3493
 30
0.000000
  70
    32
  0
VERTEX
  8
0
  5
321
 10
187.244
 20
46.3421
 30
0.000000
  70
    32
  0
VERTEX
  8
0
  5
322
 10
187.246
 20
46.3351
 30
0.000000
  70
    32
  0
SEQEND
  8
0
  5
323
  0
CIRCLE
  5
F3
  8
0
 10
43.141503802363552
 20
119.4809321510669
 30
0.0
 40
2.5000000000000111
  0
TEXT
  5
187
  8
0
 62
     3
 10
0.0
 20
0.0
 30
0.0
 40
10.0
  1
STG65X10-SOFT
  7
STANDARD1
  0
ENDSEC
  0
EOF
