  0
SECTION
  2
HEADER
  9
$ACADVER
  1
AC1009
  9
$INSBASE
 10
0.0
 20
0.0
 30
0.0
  9
$EXTMIN
 10
0.0
 20
-1.4802182810368341
 30
0.0
  9
$EXTMAX
 10
299.64065708418877
 20
228.08896428090571
 30
0.0
  9
$LIMMIN
 10
0.0
 20
0.0
  9
$LIMMAX
 10
375.0
 20
270.0
  9
$ORTHOMODE
 70
     1
  9
$REGENMODE
 70
     1
  9
$FILLMODE
 70
     1
  9
$QTEXTMODE
 70
     0
  9
$MIRRTEXT
 70
     0
  9
$DRAGMODE
 70
     2
  9
$LTSCALE
 40
10.0
  9
$OSMODE
 70
    55
  9
$ATTMODE
 70
     1
  9
$TEXTSIZE
 40
0.2
  9
$TRACEWID
 40
0.05
  9
$TEXTSTYLE
  7
STANDARD
  9
$CLAYER
  8
0
  9
$CELTYPE
  6
BYLAYER
  9
$CECOLOR
 62
   256
  9
$DIMSCALE
 40
1.0
  9
$DIMASZ
 40
3.0
  9
$DIMEXO
 40
2.0
  9
$DIMDLI
 40
0.38
  9
$DIMRND
 40
0.0
  9
$DIMDLE
 40
0.0
  9
$DIMEXE
 40
2.0
  9
$DIMTP
 40
0.0
  9
$DIMTM
 40
0.0
  9
$DIMTXT
 40
3.2000000000000002
  9
$DIMCEN
 40
0.0
  9
$DIMTSZ
 40
0.0
  9
$DIMTOL
 70
     0
  9
$DIMLIM
 70
     0
  9
$DIMTIH
 70
     0
  9
$DIMTOH
 70
     0
  9
$DIMSE1
 70
     0
  9
$DIMSE2
 70
     0
  9
$DIMTAD
 70
     1
  9
$DIMZIN
 70
     0
  9
$DIMBLK
  1

  9
$DIMASO
 70
     0
  9
$DIMSHO
 70
     0
  9
$DIMPOST
  1

  9
$DIMAPOST
  1

  9
$DIMALT
 70
     0
  9
$DIMALTD
 70
     2
  9
$DIMALTF
 40
25.399999999999999
  9
$DIMLFAC
 40
1.0
  9
$DIMTOFL
 70
     1
  9
$DIMTVP
 40
1.6000000000000001
  9
$DIMTIX
 70
     1
  9
$DIMSOXD
 70
     0
  9
$DIMSAH
 70
     0
  9
$DIMBLK1
  1

  9
$DIMBLK2
  1

  9
$DIMSTYLE
  2
STANDARD
  9
$DIMCLRD
 70
     0
  9
$DIMCLRE
 70
     0
  9
$DIMCLRT
 70
     0
  9
$DIMTFAC
 40
1.0
  9
$DIMGAP
 40
0.09
  9
$LUNITS
 70
     2
  9
$LUPREC
 70
     4
  9
$SKETCHINC
 40
0.1
  9
$FILLETRAD
 40
0.0
  9
$AUNITS
 70
     0
  9
$AUPREC
 70
     4
  9
$MENU
  1
E:\r13\win\SUPPORT\ACAD
  9
$ELEVATION
 40
0.0
  9
$PELEVATION
 40
0.0
  9
$THICKNESS
 40
0.0
  9
$LIMCHECK
 70
     0
  9
$BLIPMODE
 70
     0
  9
$CHAMFERA
 40
0.0
  9
$CHAMFERB
 40
0.0
  9
$SKPOLY
 70
     0
  9
$TDCREATE
 40
2449840.6088657412
  9
$TDUPDATE
 40
2456598.5675987271
  9
$TDINDWG
 40
0.0001687153
  9
$TDUSRTIMER
 40
0.0001687153
  9
$USRTIMER
 70
     1
  9
$ANGBASE
 50
0.0
  9
$ANGDIR
 70
     0
  9
$PDMODE
 70
     0
  9
$PDSIZE
 40
0.0
  9
$PLINEWID
 40
0.0
  9
$COORDS
 70
     1
  9
$SPLFRAME
 70
     0
  9
$SPLINETYPE
 70
     6
  9
$SPLINESEGS
 70
     8
  9
$ATTDIA
 70
     0
  9
$ATTREQ
 70
     1
  9
$HANDLING
 70
     1
  9
$HANDSEED
  5
276
  9
$SURFTAB1
 70
     6
  9
$SURFTAB2
 70
     6
  9
$SURFTYPE
 70
     6
  9
$SURFU
 70
     6
  9
$SURFV
 70
     6
  9
$UCSNAME
  2

  9
$UCSORG
 10
0.0
 20
0.0
 30
0.0
  9
$UCSXDIR
 10
1.0
 20
0.0
 30
0.0
  9
$UCSYDIR
 10
0.0
 20
1.0
 30
0.0
  9
$PUCSNAME
  2

  9
$PUCSORG
 10
0.0
 20
0.0
 30
0.0
  9
$PUCSXDIR
 10
1.0
 20
0.0
 30
0.0
  9
$PUCSYDIR
 10
0.0
 20
1.0
 30
0.0
  9
$USERI1
 70
     0
  9
$USERI2
 70
     1
  9
$USERI3
 70
     0
  9
$USERI4
 70
     0
  9
$USERI5
 70
     0
  9
$USERR1
 40
0.0
  9
$USERR2
 40
0.0
  9
$USERR3
 40
0.0
  9
$USERR4
 40
0.0
  9
$USERR5
 40
0.0
  9
$WORLDVIEW
 70
     1
  9
$SHADEDGE
 70
     3
  9
$SHADEDIF
 70
    70
  9
$TILEMODE
 70
     1
  9
$MAXACTVP
 70
    16
  9
$PLIMCHECK
 70
     0
  9
$PEXTMIN
 10
1.0000000000000000E+020
 20
1.0000000000000000E+020
 30
1.0000000000000000E+020
  9
$PEXTMAX
 10
-1.0000000000000000E+020
 20
-1.0000000000000000E+020
 30
-1.0000000000000000E+020
  9
$PLIMMIN
 10
0.0
 20
0.0
  9
$PLIMMAX
 10
12.0
 20
9.0
  9
$UNITMODE
 70
     0
  9
$VISRETAIN
 70
     0
  9
$PLINEGEN
 70
     0
  9
$PSLTSCALE
 70
     0
  0
ENDSEC
  0
SECTION
  2
TABLES
  0
TABLE
  2
VPORT
 70
     1
  0
VPORT
  2
*ACTIVE
 70
     0
 10
0.0
 20
0.0
 11
1.0
 21
1.0
 12
187.49427839065231
 22
197.44726035192559
 13
0.0
 23
0.0
 14
10.0
 24
10.0
 15
10.0
 25
10.0
 16
0.0
 26
0.0
 36
1.0
 17
0.0
 27
0.0
 37
0.0
 40
401.38042228973131
 41
1.7807262569832401
 42
50.0
 43
0.0
 44
0.0
 50
0.0
 51
0.0
 71
     0
 72
   500
 73
     1
 74
     0
 75
     0
 76
     0
 77
     0
 78
     2
  0
ENDTAB
  0
TABLE
  2
LTYPE
 70
     4
  0
LTYPE
  2
CONTINUOUS
 70
     0
  3
Solid Line
 72
    65
 73
     0
 40
0.0
  0
LTYPE
  2
CENTER
 70
     0
  3
____ _ ____ _ ____ _ ____ _ ____ _ ____ _ ____
 72
    65
 73
     4
 40
2.0
 49
1.25
 49
-0.25
 49
0.25
 49
-0.25
  0
LTYPE
  2
HIDDEN
 70
     0
  3
_ _ _ _ _ _ _ _ _ _ _ _ _ _ _ _ _ _ _ _ _ _ _
 72
    65
 73
     2
 40
0.375
 49
0.25
 49
-0.125
  0
LTYPE
  2
PHANTOM2
 70
     0
  3
___ _ _ ___ _ _ ___ _ _ ___ _ _
 72
    65
 73
     6
 40
1.25
 49
0.625
 49
-0.125
 49
0.125
 49
-0.125
 49
0.125
 49
-0.125
  0
ENDTAB
  0
TABLE
  2
LAYER
 70
     4
  0
LAYER
  2
0
 70
     0
 62
     7
  6
CONTINUOUS
  0
LAYER
  2
1
 70
     0
 62
     1
  6
CENTER
  0
LAYER
  2
2
 70
     0
 62
     2
  6
HIDDEN
  0
LAYER
  2
3
 70
     0
 62
     3
  6
CONTINUOUS
  0
ENDTAB
  0
TABLE
  2
STYLE
 70
     2
  0
STYLE
  2
STANDARD
 70
     0
 40
0.0
 41
1.0
 50
0.0
 71
     0
 42
0.2
  3
TXT
  4
BIGFONT
  0
STYLE
  2
STANDARD1
 70
     0
 40
0.0
 41
1.0
 50
0.0
 71
     0
 42
3.0
  3
txt
  4

  0
ENDTAB
  0
TABLE
  2
VIEW
 70
     1
  0
VIEW
  2
ALL
 70
     0
 40
270.0
 10
220.99159663865549
 20
135.0
 41
0.0
 11
0.0
 21
0.0
 31
1.0
 12
0.0
 22
0.0
 32
0.0
 42
0.0
 43
0.0
 44
0.0
 50
0.0
 71
     0
  0
ENDTAB
  0
TABLE
  2
UCS
 70
     0
  0
ENDTAB
  0
TABLE
  2
APPID
 70
     3
  0
APPID
  2
ACAD
 70
     0
  0
APPID
  2
ACAD_MLEADERVER
 70
     0
  0
APPID
  2
ACAD_NAV_VCDISPLAY
 70
     0
  0
ENDTAB
  0
TABLE
  2
DIMSTYLE
 70
     1
  0
DIMSTYLE
  2
STANDARD
 70
     0
  3

  4

  5

  6

  7

 40
1.0
 41
0.18
 42
0.0625
 43
0.38
 44
0.18
 45
0.0
 46
0.0
 47
0.0
 48
0.0
140
0.18
141
0.09
142
0.0
143
25.399999999999999
144
1.0
145
0.0
146
1.0
147
0.09
 71
     0
 72
     0
 73
     1
 74
     1
 75
     0
 76
     0
 77
     0
 78
     0
170
     0
171
     2
172
     0
173
     0
174
     0
175
     0
176
     0
177
     0
178
     0
  0
ENDTAB
  0
ENDSEC
  0
SECTION
  2
BLOCKS
  0
BLOCK
  8
0
  2
$MODEL_SPACE
 70
     0
 10
0.0
 20
0.0
 30
0.0
  3
$MODEL_SPACE
  1

  0
ENDBLK
  5
12A
  8
0
  0
BLOCK
 67
     1
  8
0
  2
$PAPER_SPACE
 70
     0
 10
0.0
 20
0.0
 30
0.0
  3
$PAPER_SPACE
  1

  0
ENDBLK
  5
128
 67
     1
  8
0
  0
ENDSEC
  0
SECTION
  2
ENTITIES
  0
LINE
  5
36
  8
0
 10
164.6919931351467
 20
66.497925256734732
 30
0.0
 11
164.6919931351467
 21
59.49792525673476
 31
0.0
  0
LINE
  5
37
  8
0
 10
165.1919931351467
 20
58.99792525673476
 30
0.0
 11
203.0372445456432
 21
58.99792525673476
 31
0.0
  0
LINE
  5
38
  8
0
 10
203.53724454564309
 20
66.49792525673476
 30
0.0
 11
203.53724454564309
 21
59.49792525673476
 31
0.0
  0
LINE
  5
39
  8
0
 10
165.1919931351467
 20
66.997925256734732
 30
0.0
 11
203.03724454564309
 21
66.99792525673476
 31
0.0
  0
LINE
  5
3A
  8
0
 10
165.1919931351467
 20
58.99792525673476
 30
0.0
 11
164.6919931351467
 21
59.49792525673476
 31
0.0
  0
LINE
  5
3B
  8
0
 10
164.6919931351467
 20
66.497925256734732
 30
0.0
 11
165.1919931351467
 21
66.997925256734732
 31
0.0
  0
LINE
  5
3C
  8
0
 10
203.03724454564309
 20
66.99792525673476
 30
0.0
 11
203.53724454564309
 21
66.49792525673476
 31
0.0
  0
LINE
  5
3D
  8
0
 10
203.0372445456432
 20
58.99792525673476
 30
0.0
 11
203.53724454564309
 21
59.49792525673476
 31
0.0
  0
ARC
  5
3E
  8
0
 10
188.19199178644891
 20
57.497925256734838
 30
0.0
 40
0.5
 50
90.000218566053448
 51
179.99969090092171
  0
ARC
  5
3F
  8
0
 10
188.19199178644891
 20
55.997925256734781
 30
0.0
 40
0.5
 50
180.00030909907829
 51
269.99978143394662
  0
LINE
  5
40
  8
0
 10
187.69199178644899
 20
57.497927954133161
 30
0.0
 11
187.69199178644899
 21
55.997922559336473
 31
0.0
  0
ARC
  5
41
  8
0
 10
181.19199178644621
 20
55.997925256734781
 30
0.0
 40
0.5
 50
270.00021856605349
 51
359.99969090092179
  0
ARC
  5
42
  8
0
 10
181.19199178644621
 20
57.497925256734838
 30
0.0
 40
0.5
 50
0.0003090990782876
 51
89.999781433946566
  0
LINE
  5
43
  8
3
 10
188.01549178644919
 20
55.49792525673481
 30
0.0
 11
188.01549178644919
 21
47.521425256736542
 31
0.0
  0
LINE
  5
44
  8
3
 10
181.36849178644599
 20
55.49792525673481
 30
0.0
 11
181.36849178644599
 21
47.521425256736279
 31
0.0
  0
LINE
  5
45
  8
0
 10
180.6919917864474
 20
48.197925256734749
 30
0.0
 11
188.69199178644749
 21
48.19792525673477
 31
0.0
  0
LINE
  5
46
  8
0
 10
187.49199178644739
 20
46.997925256734817
 30
0.0
 11
188.69199178644749
 21
48.197925256734813
 31
0.0
  0
LINE
  5
47
  8
0
 10
180.6919917864474
 20
48.197925256734813
 30
0.0
 11
181.89199178644751
 21
46.997925256734817
 31
0.0
  0
LINE
  5
48
  8
0
 10
188.69199178644749
 20
48.197925256734813
 30
0.0
 11
188.69199178644769
 21
55.49792525673481
 31
0.0
  0
LINE
  5
49
  8
0
 10
181.89199178644751
 20
46.997925256734817
 30
0.0
 11
187.49199178644739
 21
46.997925256734817
 31
0.0
  0
LINE
  5
4A
  8
0
 10
180.6919917864474
 20
55.49792525673481
 30
0.0
 11
180.6919917864474
 21
48.197925256734813
 31
0.0
  0
LINE
  5
4B
  8
0
 10
180.6919917864474
 20
55.49792525673481
 30
0.0
 11
188.69199178644769
 21
55.49792525673481
 31
0.0
  0
LINE
  5
4C
  8
0
 10
181.69199178644621
 20
57.497927954133161
 30
0.0
 11
181.69199178644621
 21
55.997922559336473
 31
0.0
  0
LINE
  5
4D
  8
0
 10
189.6919917864472
 20
57.99792525673481
 30
0.0
 11
189.69199178644789
 21
58.99792525673476
 31
0.0
  0
LINE
  5
4E
  8
0
 10
179.6919917864472
 20
57.99792525673481
 30
0.0
 11
189.6919917864472
 21
57.99792525673481
 31
0.0
  0
LINE
  5
4F
  8
0
 10
179.6919917864472
 20
58.99792525673476
 30
0.0
 11
179.6919917864472
 21
57.99792525673481
 31
0.0
  0
ARC
  5
50
  8
0
 10
191.19199178644729
 20
72.497925256734817
 30
0.0
 40
0.5
 50
0.0000000000063243
 51
89.999999999999915
  0
ARC
  5
51
  8
0
 10
178.19199178644729
 20
72.497925256734817
 30
0.0
 40
0.5
 50
90.000000000000057
 51
180.0
  0
LINE
  5
52
  8
0
 10
191.69199178644729
 20
72.497925256734874
 30
0.0
 11
191.69199178644789
 21
66.997925256734788
 31
0.0
  0
LINE
  5
53
  8
0
 10
178.19199178644729
 20
72.997925256734817
 30
0.0
 11
191.19199178644729
 21
72.997925256734817
 31
0.0
  0
LINE
  5
54
  8
0
 10
177.6919917864472
 20
66.997925256734788
 30
0.0
 11
177.69199178644729
 21
72.497925256734817
 31
0.0
  0
LINE
  5
55
  8
1
 10
184.6919917864476
 20
77.997925256734817
 30
0.0
 11
184.6919917864476
 21
41.997925256734817
 31
0.0
  0
LINE
  5
56
  8
2
 10
181.6919917864476
 20
68.497925256734817
 30
0.0
 11
187.69199178644749
 21
68.497925256734817
 31
0.0
  0
LINE
  5
57
  8
2
 10
181.6919917864476
 20
72.997925256734817
 30
0.0
 11
181.6919917864476
 21
68.497925256734817
 31
0.0
  0
LINE
  5
58
  8
2
 10
187.6919917864476
 20
72.997925256734817
 30
0.0
 11
187.6919917864476
 21
68.497925256734817
 31
0.0
  0
LINE
  5
59
  8
2
 10
184.6919917864476
 20
72.997925256734817
 30
0.0
 11
184.6919917864476
 21
68.497925256734817
 31
0.0
  0
LINE
  5
5A
  8
2
 10
184.6919917864476
 20
66.477199314570953
 30
0.0
 11
181.6919917864476
 21
68.497925256734817
 31
0.0
  0
LINE
  5
5B
  8
2
 10
184.6919917864476
 20
66.477199314570953
 30
0.0
 11
187.69199178644749
 21
68.497925256734817
 31
0.0
  0
LINE
  5
5C
  8
2
 10
177.9419917864476
 20
66.49792525673476
 30
0.0
 11
177.9419917864476
 21
59.49792525673476
 31
0.0
  0
LINE
  5
5D
  8
0
 10
200.03339019793179
 20
66.497925256734732
 30
0.0
 11
200.03339019793191
 21
59.49792525673476
 31
0.0
  0
LINE
  5
5E
  8
2
 10
200.03339019793179
 20
203.5889642809058
 30
0.0
 11
200.03339019793191
 21
210.5889642809058
 31
0.0
  0
LINE
  5
5F
  8
2
 10
177.9419917864476
 20
203.5889642809058
 30
0.0
 11
177.9419917864476
 21
210.5889642809058
 31
0.0
  0
LINE
  5
60
  8
2
 10
184.6919917864476
 20
203.60969022306961
 30
0.0
 11
187.69199178644749
 21
201.5889642809058
 31
0.0
  0
LINE
  5
61
  8
2
 10
184.6919917864476
 20
203.60969022306961
 30
0.0
 11
181.6919917864476
 21
201.5889642809058
 31
0.0
  0
LINE
  5
62
  8
2
 10
184.6919917864476
 20
197.08896428090571
 30
0.0
 11
184.6919917864476
 21
201.5889642809058
 31
0.0
  0
LINE
  5
63
  8
2
 10
187.6919917864476
 20
197.08896428090571
 30
0.0
 11
187.6919917864476
 21
201.5889642809058
 31
0.0
  0
LINE
  5
64
  8
2
 10
181.6919917864476
 20
197.08896428090571
 30
0.0
 11
181.6919917864476
 21
201.5889642809058
 31
0.0
  0
LINE
  5
65
  8
2
 10
181.6919917864476
 20
201.5889642809058
 30
0.0
 11
187.69199178644749
 21
201.5889642809058
 31
0.0
  0
LINE
  5
66
  8
1
 10
184.6919917864476
 20
192.08896428090571
 30
0.0
 11
184.6919917864476
 21
228.08896428090571
 31
0.0
  0
LINE
  5
67
  8
0
 10
177.6919917864472
 20
203.0889642809058
 30
0.0
 11
177.69199178644729
 21
197.58896428090571
 31
0.0
  0
LINE
  5
68
  8
0
 10
178.19199178644729
 20
197.08896428090571
 30
0.0
 11
191.19199178644729
 21
197.08896428090571
 31
0.0
  0
LINE
  5
69
  8
0
 10
191.69199178644729
 20
197.58896428090571
 30
0.0
 11
191.69199178644789
 21
203.0889642809058
 31
0.0
  0
ARC
  5
6A
  8
0
 10
178.19199178644729
 20
197.58896428090571
 30
0.0
 40
0.5
 50
180.0
 51
269.99999999999989
  0
ARC
  5
6B
  8
0
 10
191.19199178644729
 20
197.58896428090571
 30
0.0
 40
0.5
 50
270.00000000000011
 51
359.99999999999369
  0
LINE
  5
6C
  8
0
 10
179.6919917864472
 20
211.0889642809058
 30
0.0
 11
179.6919917864472
 21
212.0889642809058
 31
0.0
  0
LINE
  5
6D
  8
0
 10
179.6919917864472
 20
212.0889642809058
 30
0.0
 11
189.6919917864472
 21
212.0889642809058
 31
0.0
  0
LINE
  5
6E
  8
0
 10
189.6919917864472
 20
212.0889642809058
 30
0.0
 11
189.69199178644789
 21
211.0889642809058
 31
0.0
  0
LINE
  5
6F
  8
0
 10
181.69199178644621
 20
212.5889615835074
 30
0.0
 11
181.69199178644621
 21
214.08896697830409
 31
0.0
  0
LINE
  5
70
  8
0
 10
180.6919917864474
 20
214.58896428090571
 30
0.0
 11
188.69199178644769
 21
214.58896428090571
 31
0.0
  0
LINE
  5
71
  8
0
 10
180.6919917864474
 20
214.58896428090571
 30
0.0
 11
180.6919917864474
 21
221.8889642809057
 31
0.0
  0
LINE
  5
72
  8
0
 10
181.89199178644751
 20
223.08896428090571
 30
0.0
 11
187.49199178644739
 21
223.08896428090571
 31
0.0
  0
LINE
  5
73
  8
0
 10
188.69199178644749
 20
221.8889642809057
 30
0.0
 11
188.69199178644769
 21
214.58896428090571
 31
0.0
  0
LINE
  5
74
  8
0
 10
180.6919917864474
 20
221.8889642809057
 30
0.0
 11
181.89199178644751
 21
223.08896428090571
 31
0.0
  0
LINE
  5
75
  8
0
 10
187.49199178644739
 20
223.08896428090571
 30
0.0
 11
188.69199178644749
 21
221.8889642809057
 31
0.0
  0
LINE
  5
76
  8
0
 10
180.6919917864474
 20
221.88896428090581
 30
0.0
 11
188.69199178644749
 21
221.88896428090581
 31
0.0
  0
LINE
  5
77
  8
3
 10
181.36849178644599
 20
214.58896428090571
 30
0.0
 11
181.36849178644599
 21
222.56546428090431
 31
0.0
  0
LINE
  5
78
  8
3
 10
188.01549178644919
 20
214.58896428090571
 30
0.0
 11
188.01549178644919
 21
222.565464280904
 31
0.0
  0
ARC
  5
79
  8
0
 10
181.19199178644621
 20
212.58896428090571
 30
0.0
 40
0.5
 50
270.00021856605338
 51
359.99969090092168
  0
ARC
  5
7A
  8
0
 10
181.19199178644621
 20
214.0889642809058
 30
0.0
 40
0.5
 50
0.0003090990782595
 51
89.999781433946538
  0
LINE
  5
7B
  8
0
 10
187.69199178644899
 20
212.5889615835074
 30
0.0
 11
187.69199178644899
 21
214.08896697830409
 31
0.0
  0
ARC
  5
7C
  8
0
 10
188.19199178644891
 20
214.0889642809058
 30
0.0
 40
0.5
 50
90.000218566053448
 51
179.99969090092171
  0
ARC
  5
7D
  8
0
 10
188.19199178644891
 20
212.58896428090571
 30
0.0
 40
0.5
 50
180.00030909907821
 51
269.99978143394662
  0
LINE
  5
7E
  8
0
 10
203.0372445456432
 20
211.0889642809058
 30
0.0
 11
203.53724454564309
 21
210.5889642809058
 31
0.0
  0
LINE
  5
7F
  8
0
 10
203.03724454564309
 20
203.0889642809058
 30
0.0
 11
203.53724454564309
 21
203.5889642809058
 31
0.0
  0
LINE
  5
80
  8
0
 10
164.6919931351467
 20
203.5889642809058
 30
0.0
 11
165.1919931351467
 21
203.0889642809058
 31
0.0
  0
LINE
  5
81
  8
0
 10
165.1919931351467
 20
211.0889642809058
 30
0.0
 11
164.6919931351467
 21
210.5889642809058
 31
0.0
  0
LINE
  5
82
  8
0
 10
165.1919931351467
 20
203.0889642809058
 30
0.0
 11
203.03724454564309
 21
203.0889642809058
 31
0.0
  0
LINE
  5
83
  8
0
 10
203.53724454564309
 20
203.5889642809058
 30
0.0
 11
203.53724454564309
 21
210.5889642809058
 31
0.0
  0
LINE
  5
84
  8
0
 10
165.1919931351467
 20
211.0889642809058
 30
0.0
 11
203.0372445456432
 21
211.0889642809058
 31
0.0
  0
LINE
  5
85
  8
0
 10
164.6919931351467
 20
203.5889642809058
 30
0.0
 11
164.6919931351467
 21
210.5889642809058
 31
0.0
  0
LINE
  5
86
  8
0
 10
94.743326488706344
 20
161.38344628741041
 30
0.0
 11
94.743326488706373
 21
105.38344628741049
 31
0.0
  0
LINE
  5
87
  8
0
 10
94.243326488706359
 20
104.88344628741049
 30
0.0
 11
87.243326488706344
 21
104.88344628741049
 31
0.0
  0
LINE
  5
88
  8
0
 10
86.743326488706344
 20
105.38344628741039
 30
0.0
 11
86.743326488706344
 21
161.38344628741041
 31
0.0
  0
LINE
  5
89
  8
0
 10
87.243326488706344
 20
161.88344628741041
 30
0.0
 11
94.243326488706344
 21
161.88344628741041
 31
0.0
  0
LINE
  5
8A
  8
1
 10
99.743326488706344
 20
141.88344628741041
 30
0.0
 11
81.743326488706344
 21
141.88344628741049
 31
0.0
  0
LINE
  5
8B
  8
1
 10
105.7433264887064
 20
114.88344628741049
 30
0.0
 11
69.743326488706401
 21
114.88344628741049
 31
0.0
  0
LINE
  5
8C
  8
0
 10
94.243326488706344
 20
161.88344628741041
 30
0.0
 11
94.743326488706344
 21
161.38344628741041
 31
0.0
  0
LINE
  5
8D
  8
0
 10
94.743326488706373
 20
105.38344628741049
 30
0.0
 11
94.243326488706359
 21
104.88344628741049
 31
0.0
  0
LINE
  5
8E
  8
0
 10
87.243326488706344
 20
104.88344628741049
 30
0.0
 11
86.743326488706344
 21
105.38344628741039
 31
0.0
  0
LINE
  5
8F
  8
0
 10
86.743326488706344
 20
161.38344628741041
 30
0.0
 11
87.243326488706344
 21
161.88344628741041
 31
0.0
  0
LINE
  5
90
  8
0
 10
94.743326488706373
 20
121.88344628741081
 30
0.0
 11
100.2433264887064
 21
121.88344628741081
 31
0.0
  0
LINE
  5
91
  8
0
 10
100.7433264887064
 20
121.38344628741081
 30
0.0
 11
100.7433264887064
 21
108.38344628741071
 31
0.0
  0
LINE
  5
92
  8
0
 10
100.2433264887064
 20
107.88344628741071
 30
0.0
 11
94.743326488706373
 21
107.88344628741019
 31
0.0
  0
ARC
  5
93
  8
0
 10
100.2433264887064
 20
121.38344628741081
 30
0.0
 40
0.5
 50
0.0000000000000763
 51
90.000000000000028
  0
ARC
  5
94
  8
0
 10
100.2433264887064
 20
108.38344628741071
 30
0.0
 40
0.5
 50
270.00000000000642
 51
360.0
  0
LINE
  5
95
  8
2
 10
100.7433264887064
 20
118.3834462874101
 30
0.0
 11
96.243326488706415
 21
118.3834462874101
 31
0.0
  0
LINE
  5
96
  8
2
 10
96.243326488706415
 20
118.3834462874101
 30
0.0
 11
96.243326488706415
 21
111.3834462874101
 31
0.0
  0
LINE
  5
97
  8
2
 10
96.243326488706415
 20
111.3834462874101
 30
0.0
 11
100.7433264887064
 21
111.38344628741091
 31
0.0
  0
LINE
  5
98
  8
2
 10
96.24332648870643
 20
111.3834462874101
 30
0.0
 11
94.222600546542495
 21
114.88344628741049
 31
0.0
  0
LINE
  5
99
  8
2
 10
96.24332648870643
 20
118.38344628741091
 30
0.0
 11
94.222600546542495
 21
114.88344628741049
 31
0.0
  0
LINE
  5
9A
  8
2
 10
96.279039833053133
 20
113.1334463068724
 30
0.0
 11
100.7790398330531
 21
113.1334463068732
 31
0.0
  0
LINE
  5
9B
  8
2
 10
96.279039833053133
 20
116.6334462679486
 30
0.0
 11
100.7790398330531
 21
116.6334462679478
 31
0.0
  0
LINE
  5
9C
  8
0
 10
86.743326488706344
 20
119.88344628741081
 30
0.0
 11
85.743326488706401
 21
119.88344628741081
 31
0.0
  0
LINE
  5
9D
  8
0
 10
85.743326488706401
 20
119.88344628741081
 30
0.0
 11
85.743326488706401
 21
109.88344628741081
 31
0.0
  0
LINE
  5
9E
  8
0
 10
85.743326488706401
 20
109.88344628741081
 30
0.0
 11
86.743326488706344
 21
109.8834462874101
 31
0.0
  0
LINE
  5
9F
  8
0
 10
85.243329186104745
 20
117.8834462874118
 30
0.0
 11
83.743323791308043
 21
117.8834462874118
 31
0.0
  0
LINE
  5
A0
  8
0
 10
83.243326488706401
 20
118.88344628741061
 30
0.0
 11
83.243326488706401
 21
110.88344628741039
 31
0.0
  0
LINE
  5
A1
  8
0
 10
83.243326488706401
 20
118.88344628741061
 30
0.0
 11
75.94332648870639
 21
118.88344628741061
 31
0.0
  0
LINE
  5
A2
  8
0
 10
74.743326488706401
 20
117.6834462874106
 30
0.0
 11
74.743326488706401
 21
112.0834462874106
 31
0.0
  0
LINE
  5
A3
  8
0
 10
75.94332648870639
 20
110.88344628741061
 30
0.0
 11
83.243326488706401
 21
110.88344628741039
 31
0.0
  0
LINE
  5
A4
  8
0
 10
75.94332648870639
 20
118.88344628741061
 30
0.0
 11
74.743326488706401
 21
117.6834462874106
 31
0.0
  0
LINE
  5
A5
  8
0
 10
74.743326488706401
 20
112.0834462874106
 30
0.0
 11
75.94332648870639
 21
110.88344628741061
 31
0.0
  0
LINE
  5
A6
  8
0
 10
75.943326488706333
 20
118.88344628741061
 30
0.0
 11
75.943326488706361
 21
110.88344628741061
 31
0.0
  0
LINE
  5
A7
  8
3
 10
83.243326488706401
 20
118.20694628741209
 30
0.0
 11
75.266826488707864
 21
118.20694628741209
 31
0.0
  0
LINE
  5
A8
  8
3
 10
83.243326488706401
 20
111.55994628740881
 30
0.0
 11
75.266826488708119
 21
111.55994628740881
 31
0.0
  0
ARC
  5
A9
  8
0
 10
85.24332648870643
 20
118.3834462874118
 30
0.0
 40
0.5
 50
270.00030909907832
 51
359.99978143394662
  0
ARC
  5
AA
  8
0
 10
83.743326488706373
 20
118.3834462874118
 30
0.0
 40
0.5
 50
180.00021856605349
 51
269.99969090092179
  0
LINE
  5
AB
  8
0
 10
85.243329186104745
 20
111.8834462874091
 30
0.0
 11
83.743323791308043
 21
111.8834462874091
 31
0.0
  0
ARC
  5
AC
  8
0
 10
83.743326488706373
 20
111.3834462874091
 30
0.0
 40
0.5
 50
90.000309099078265
 51
179.99978143394651
  0
ARC
  5
AD
  8
0
 10
85.24332648870643
 20
111.3834462874091
 30
0.0
 40
0.5
 50
0.0002185660534659
 51
89.999690900921735
  0
LINE
  5
AE
  8
0
 10
282.14065708418889
 20
135.13344628741041
 30
0.0
 11
275.14065708418889
 21
135.13344628741041
 31
0.0
  0
ARC
  5
AF
  8
0
 10
284.14065708418877
 20
111.3834462874091
 30
0.0
 40
0.5
 50
90.000309099078265
 51
179.99978143394651
  0
ARC
  5
B0
  8
0
 10
285.64065708418877
 20
111.3834462874091
 30
0.0
 40
0.5
 50
0.0002185660534544
 51
89.999690900921735
  0
LINE
  5
B1
  8
0
 10
284.1406543867904
 20
111.8834462874091
 30
0.0
 11
285.6406597815872
 21
111.8834462874091
 31
0.0
  0
ARC
  5
B2
  8
0
 10
285.64065708418877
 20
118.3834462874118
 30
0.0
 40
0.5
 50
270.00030909907832
 51
359.99978143394662
  0
ARC
  5
B3
  8
0
 10
284.14065708418877
 20
118.3834462874118
 30
0.0
 40
0.5
 50
180.00021856605341
 51
269.99969090092168
  0
LINE
  5
B4
  8
3
 10
286.14065708418877
 20
111.55994628740881
 30
0.0
 11
294.117157084187
 21
111.55994628740881
 31
0.0
  0
LINE
  5
B5
  8
3
 10
286.14065708418877
 20
118.20694628741209
 30
0.0
 11
294.11715708418728
 21
118.20694628741209
 31
0.0
  0
LINE
  5
B6
  8
0
 10
293.44065708418879
 20
118.88344628741061
 30
0.0
 11
293.44065708418879
 21
110.88344628741061
 31
0.0
  0
LINE
  5
B7
  8
0
 10
294.64065708418877
 20
112.0834462874106
 30
0.0
 11
293.44065708418879
 21
110.88344628741061
 31
0.0
  0
LINE
  5
B8
  8
0
 10
293.44065708418879
 20
118.88344628741061
 30
0.0
 11
294.64065708418877
 21
117.6834462874106
 31
0.0
  0
LINE
  5
B9
  8
0
 10
293.44065708418879
 20
110.88344628741061
 30
0.0
 11
286.14065708418877
 21
110.88344628741039
 31
0.0
  0
LINE
  5
BA
  8
0
 10
294.64065708418877
 20
117.6834462874106
 30
0.0
 11
294.64065708418877
 21
112.0834462874106
 31
0.0
  0
LINE
  5
BB
  8
0
 10
286.14065708418877
 20
118.88344628741061
 30
0.0
 11
293.44065708418879
 21
118.88344628741061
 31
0.0
  0
LINE
  5
BC
  8
0
 10
286.14065708418877
 20
118.88344628741061
 30
0.0
 11
286.14065708418877
 21
110.88344628741039
 31
0.0
  0
LINE
  5
BD
  8
0
 10
284.1406543867904
 20
117.8834462874118
 30
0.0
 11
285.6406597815872
 21
117.8834462874118
 31
0.0
  0
LINE
  5
BE
  8
0
 10
283.64065708418877
 20
109.88344628741081
 30
0.0
 11
282.64065708418889
 21
109.8834462874101
 31
0.0
  0
LINE
  5
BF
  8
0
 10
283.64065708418877
 20
119.88344628741081
 30
0.0
 11
283.64065708418877
 21
109.88344628741081
 31
0.0
  0
LINE
  5
C0
  8
0
 10
282.64065708418889
 20
119.88344628741081
 30
0.0
 11
283.64065708418877
 21
119.88344628741081
 31
0.0
  0
LINE
  5
C1
  8
2
 10
273.1049437398421
 20
116.6334462679486
 30
0.0
 11
268.60494373984199
 21
116.6334462679478
 31
0.0
  0
LINE
  5
C2
  8
2
 10
273.1049437398421
 20
113.1334463068724
 30
0.0
 11
268.60494373984199
 21
113.1334463068732
 31
0.0
  0
LINE
  5
C3
  8
2
 10
273.14065708418877
 20
118.38344628741091
 30
0.0
 11
275.16138302635272
 21
114.88344628741049
 31
0.0
  0
LINE
  5
C4
  8
2
 10
273.14065708418877
 20
111.3834462874101
 30
0.0
 11
275.16138302635272
 21
114.88344628741049
 31
0.0
  0
LINE
  5
C5
  8
2
 10
273.14065708418877
 20
111.3834462874101
 30
0.0
 11
268.64065708418877
 21
111.38344628741091
 31
0.0
  0
LINE
  5
C6
  8
2
 10
273.14065708418877
 20
118.3834462874101
 30
0.0
 11
273.14065708418877
 21
111.3834462874101
 31
0.0
  0
LINE
  5
C7
  8
2
 10
268.64065708418877
 20
118.3834462874101
 30
0.0
 11
273.14065708418877
 21
118.3834462874101
 31
0.0
  0
ARC
  5
C8
  8
0
 10
269.14065708418877
 20
108.38344628741071
 30
0.0
 40
0.5
 50
180.00000000000011
 51
269.99999999999369
  0
ARC
  5
C9
  8
0
 10
269.14065708418877
 20
121.38344628741081
 30
0.0
 40
0.5
 50
90.0
 51
179.99999999999989
  0
LINE
  5
CA
  8
0
 10
269.14065708418877
 20
107.88344628741071
 30
0.0
 11
274.64065708418877
 21
107.88344628741019
 31
0.0
  0
LINE
  5
CB
  8
0
 10
268.64065708418877
 20
121.38344628741081
 30
0.0
 11
268.64065708418877
 21
108.38344628741071
 31
0.0
  0
LINE
  5
CC
  8
0
 10
274.64065708418877
 20
121.88344628741081
 30
0.0
 11
269.14065708418877
 21
121.88344628741081
 31
0.0
  0
CIRCLE
  5
CD
  8
0
 10
184.6919917864476
 20
114.88344628741049
 30
0.0
 40
7.0
  0
LINE
  5
CE
  8
0
 10
181.6919917864476
 20
116.6154970949793
 30
0.0
 11
184.6919917864476
 21
118.3475479025482
 31
0.0
  0
LINE
  5
CF
  8
0
 10
184.6919917864476
 20
118.3475479025482
 30
0.0
 11
187.69199178644749
 21
116.6154970949793
 31
0.0
  0
LINE
  5
D0
  8
0
 10
187.69199178644749
 20
116.6154970949793
 30
0.0
 11
187.69199178644749
 21
113.1513954798416
 31
0.0
  0
LINE
  5
D1
  8
0
 10
187.69199178644749
 20
113.1513954798416
 30
0.0
 11
184.69199178644749
 21
111.4193446722728
 31
0.0
  0
LINE
  5
D2
  8
0
 10
184.69199178644749
 20
111.4193446722728
 30
0.0
 11
181.6919917864476
 21
113.1513954798416
 31
0.0
  0
LINE
  5
D3
  8
0
 10
181.6919917864476
 20
113.1513954798416
 30
0.0
 11
181.6919917864476
 21
116.6154970949793
 31
0.0
  0
LINE
  5
D4
  8
0
 10
282.64065708418889
 20
161.38344628741041
 30
0.0
 11
282.14065708418889
 21
161.88344628741041
 31
0.0
  0
LINE
  5
D5
  8
0
 10
282.14065708418889
 20
104.88344628741049
 30
0.0
 11
282.64065708418889
 21
105.38344628741039
 31
0.0
  0
LINE
  5
D6
  8
0
 10
274.64065708418877
 20
105.38344628741049
 30
0.0
 11
275.14065708418877
 21
104.88344628741049
 31
0.0
  0
LINE
  5
D7
  8
0
 10
275.14065708418889
 20
161.88344628741041
 30
0.0
 11
274.64065708418889
 21
161.38344628741041
 31
0.0
  0
LINE
  5
D8
  8
2
 10
282.14065708418889
 20
148.63344628741049
 30
0.0
 11
275.14065708418889
 21
148.63344628741049
 31
0.0
  0
LINE
  5
D9
  8
0
 10
282.14065708418889
 20
145.042011772021
 30
0.0
 11
275.14065708418889
 21
145.042011772021
 31
0.0
  0
LINE
  5
DA
  8
1
 10
263.64065708418877
 20
114.88344628741049
 30
0.0
 11
299.64065708418877
 21
114.88344628741049
 31
0.0
  0
LINE
  5
DB
  8
1
 10
269.64065708418877
 20
141.88344628741041
 30
0.0
 11
287.64065708418889
 21
141.88344628741049
 31
0.0
  0
LINE
  5
DC
  8
0
 10
282.14065708418889
 20
161.88344628741041
 30
0.0
 11
275.14065708418889
 21
161.88344628741041
 31
0.0
  0
LINE
  5
DD
  8
0
 10
282.64065708418889
 20
105.38344628741039
 30
0.0
 11
282.64065708418889
 21
161.38344628741041
 31
0.0
  0
LINE
  5
DE
  8
0
 10
275.14065708418877
 20
104.88344628741049
 30
0.0
 11
282.14065708418889
 21
104.88344628741049
 31
0.0
  0
LINE
  5
DF
  8
0
 10
274.64065708418889
 20
161.38344628741041
 30
0.0
 11
274.64065708418877
 21
105.38344628741049
 31
0.0
  0
LINE
  5
E0
  8
0
 10
199.82004361569449
 20
125.82440725327579
 30
0.0
 11
193.9808334190287
 21
111.1797425837067
 31
0.0
  0
ARC
  5
E1
  8
0
 10
184.6919917864476
 20
114.88344628741049
 30
0.0
 40
20.25
 50
44.320451942166741
 51
90.0
  0
ARC
  5
E2
  8
0
 10
197.03339019793179
 20
126.9355160370018
 30
0.0
 40
3.0
 50
338.26149135560701
 51
44.320451942166791
  0
ARC
  5
E3
  8
0
 10
184.6919931351467
 20
141.88344628741049
 30
0.0
 40
20.0
 50
21.239584494739489
 51
201.7384593605062
  0
ARC
  5
E4
  8
0
 10
184.6919917864476
 20
114.88344628741049
 30
0.0
 40
33.75
 50
64.458588554185653
 51
90.0
  0
ARC
  5
E5
  8
0
 10
200.5372445456432
 20
148.042011772021
 30
0.0
 40
3.0
 50
244.45858635596261
 51
21.239584494738779
  0
ARC
  5
E6
  8
0
 10
184.6919917864476
 20
141.88344628741049
 30
0.0
 40
6.75
 50
90.0
 51
270.0
  0
ARC
  5
E7
  8
0
 10
184.6919917864476
 20
114.88344628741049
 30
0.0
 40
10.0
 50
201.73846586708399
 51
338.26153203054878
  0
LINE
  5
E8
  8
1
 10
200.84039929873279
 20
114.88344628741049
 30
0.0
 11
168.54358427416241
 21
114.88344628741049
 31
0.0
  0
LINE
  5
E9
  8
1
 10
159.6919931351467
 20
141.88344628741049
 30
0.0
 11
211.60600430692301
 21
141.88344628741049
 31
0.0
  0
LINE
  5
EA
  8
1
 10
184.6919917864476
 20
166.88344628741049
 30
0.0
 11
184.6919917864476
 21
99.883446287410706
 31
0.0
  0
LINE
  5
EB
  8
0
 10
166.11430852128541
 20
134.4760388800031
 30
0.0
 11
175.40315015386651
 21
111.1797425837067
 31
0.0
  0
LINE
  5
EE
  8
2
 10
94.243326488706344
 20
148.63344628741049
 30
0.0
 11
87.243326488706344
 21
148.63344628741049
 31
0.0
  0
LINE
  5
EF
  8
2
 10
94.243326488706359
 20
135.13344628741049
 30
0.0
 11
87.243326488706344
 21
135.13344628741049
 31
0.0
  0
TEXT
  5
1DD
  8
0
 62
     3
 10
0.0
 20
0.0
 30
0.0
 40
5.0
  1
SW12
  7
STANDARD1
  0
ENDSEC
  0
EOF
