  0
SECTION
  2
HEADER
  9
$ACADVER
  1
AC1009
  9
$INSBASE
 10
0.0
 20
0.0
 30
0.0
  9
$EXTMIN
 10
0.0
 20
-1.4802182810368341
 30
0.0
  9
$EXTMAX
 10
268.98438338299059
 20
227.65830028664431
 30
0.0
  9
$LIMMIN
 10
0.0
 20
0.0
  9
$LIMMAX
 10
375.0
 20
270.0
  9
$ORTHOMODE
 70
     1
  9
$REGENMODE
 70
     1
  9
$FILLMODE
 70
     1
  9
$QTEXTMODE
 70
     0
  9
$MIRRTEXT
 70
     0
  9
$DRAGMODE
 70
     2
  9
$LTSCALE
 40
10.0
  9
$OSMODE
 70
    55
  9
$ATTMODE
 70
     1
  9
$TEXTSIZE
 40
0.2
  9
$TRACEWID
 40
0.05
  9
$TEXTSTYLE
  7
STANDARD
  9
$CLAYER
  8
0
  9
$CELTYPE
  6
BYLAYER
  9
$CECOLOR
 62
   256
  9
$DIMSCALE
 40
1.0
  9
$DIMASZ
 40
3.0
  9
$DIMEXO
 40
2.0
  9
$DIMDLI
 40
0.3799999999999999
  9
$DIMRND
 40
0.0
  9
$DIMDLE
 40
0.0
  9
$DIMEXE
 40
2.0
  9
$DIMTP
 40
0.0
  9
$DIMTM
 40
0.0
  9
$DIMTXT
 40
3.2000000000000002
  9
$DIMCEN
 40
0.09
  9
$DIMTSZ
 40
0.0
  9
$DIMTOL
 70
     0
  9
$DIMLIM
 70
     0
  9
$DIMTIH
 70
     0
  9
$DIMTOH
 70
     0
  9
$DIMSE1
 70
     0
  9
$DIMSE2
 70
     0
  9
$DIMTAD
 70
     1
  9
$DIMZIN
 70
     0
  9
$DIMBLK
  1

  9
$DIMASO
 70
     0
  9
$DIMSHO
 70
     0
  9
$DIMPOST
  1

  9
$DIMAPOST
  1

  9
$DIMALT
 70
     0
  9
$DIMALTD
 70
     2
  9
$DIMALTF
 40
25.399999999999999
  9
$DIMLFAC
 40
1.0
  9
$DIMTOFL
 70
     0
  9
$DIMTVP
 40
0.0
  9
$DIMTIX
 70
     0
  9
$DIMSOXD
 70
     0
  9
$DIMSAH
 70
     0
  9
$DIMBLK1
  1

  9
$DIMBLK2
  1

  9
$DIMSTYLE
  2
STANDARD
  9
$DIMCLRD
 70
     0
  9
$DIMCLRE
 70
     0
  9
$DIMCLRT
 70
     0
  9
$DIMTFAC
 40
1.0
  9
$DIMGAP
 40
0.09
  9
$LUNITS
 70
     2
  9
$LUPREC
 70
     4
  9
$SKETCHINC
 40
0.1
  9
$FILLETRAD
 40
0.0
  9
$AUNITS
 70
     0
  9
$AUPREC
 70
     0
  9
$MENU
  1
E:\r13\win\SUPPORT\ACAD
  9
$ELEVATION
 40
0.0
  9
$PELEVATION
 40
0.0
  9
$THICKNESS
 40
0.0
  9
$LIMCHECK
 70
     0
  9
$BLIPMODE
 70
     0
  9
$CHAMFERA
 40
0.0
  9
$CHAMFERB
 40
0.0
  9
$SKPOLY
 70
     0
  9
$TDCREATE
 40
2449840.6088425932
  9
$TDUPDATE
 40
2456598.5676828702
  9
$TDINDWG
 40
0.001200081
  9
$TDUSRTIMER
 40
0.001200081
  9
$USRTIMER
 70
     1
  9
$ANGBASE
 50
0.0
  9
$ANGDIR
 70
     0
  9
$PDMODE
 70
     0
  9
$PDSIZE
 40
0.0
  9
$PLINEWID
 40
0.0
  9
$COORDS
 70
     1
  9
$SPLFRAME
 70
     0
  9
$SPLINETYPE
 70
     6
  9
$SPLINESEGS
 70
     8
  9
$ATTDIA
 70
     0
  9
$ATTREQ
 70
     1
  9
$HANDLING
 70
     1
  9
$HANDSEED
  5
5E8
  9
$SURFTAB1
 70
     6
  9
$SURFTAB2
 70
     6
  9
$SURFTYPE
 70
     6
  9
$SURFU
 70
     6
  9
$SURFV
 70
     6
  9
$UCSNAME
  2

  9
$UCSORG
 10
0.0
 20
0.0
 30
0.0
  9
$UCSXDIR
 10
1.0
 20
0.0
 30
0.0
  9
$UCSYDIR
 10
0.0
 20
1.0
 30
0.0
  9
$PUCSNAME
  2

  9
$PUCSORG
 10
0.0
 20
0.0
 30
0.0
  9
$PUCSXDIR
 10
1.0
 20
0.0
 30
0.0
  9
$PUCSYDIR
 10
0.0
 20
1.0
 30
0.0
  9
$USERI1
 70
     0
  9
$USERI2
 70
     1
  9
$USERI3
 70
     0
  9
$USERI4
 70
     0
  9
$USERI5
 70
     0
  9
$USERR1
 40
0.0
  9
$USERR2
 40
0.0
  9
$USERR3
 40
0.0
  9
$USERR4
 40
0.0
  9
$USERR5
 40
0.0
  9
$WORLDVIEW
 70
     1
  9
$SHADEDGE
 70
     3
  9
$SHADEDIF
 70
    70
  9
$TILEMODE
 70
     1
  9
$MAXACTVP
 70
    16
  9
$PLIMCHECK
 70
     0
  9
$PEXTMIN
 10
1.0000000000000000E+020
 20
1.0000000000000000E+020
 30
1.0000000000000000E+020
  9
$PEXTMAX
 10
-1.0000000000000000E+020
 20
-1.0000000000000000E+020
 30
-1.0000000000000000E+020
  9
$PLIMMIN
 10
0.0
 20
0.0
  9
$PLIMMAX
 10
12.0
 20
9.0
  9
$UNITMODE
 70
     0
  9
$VISRETAIN
 70
     0
  9
$PLINEGEN
 70
     0
  9
$PSLTSCALE
 70
     0
  0
ENDSEC
  0
SECTION
  2
TABLES
  0
TABLE
  2
VPORT
 70
     1
  0
VPORT
  2
*ACTIVE
 70
     0
 10
0.0
 20
0.0
 11
1.0
 21
1.0
 12
187.49427839065231
 22
197.44726035192559
 13
0.0
 23
0.0
 14
10.0
 24
10.0
 15
10.0
 25
10.0
 16
0.0
 26
0.0
 36
1.0
 17
0.0
 27
0.0
 37
0.0
 40
401.38042228973131
 41
1.7807262569832401
 42
50.0
 43
0.0
 44
0.0
 50
0.0
 51
0.0
 71
     0
 72
   100
 73
     1
 74
     0
 75
     0
 76
     0
 77
     0
 78
     0
  0
ENDTAB
  0
TABLE
  2
LTYPE
 70
     4
  0
LTYPE
  2
CONTINUOUS
 70
     0
  3
Solid Line
 72
    65
 73
     0
 40
0.0
  0
LTYPE
  2
CENTER
 70
     0
  3
____ _ ____ _ ____ _ ____ _ ____ _ ____ _ ____
 72
    65
 73
     4
 40
2.0
 49
1.25
 49
-0.25
 49
0.25
 49
-0.25
  0
LTYPE
  2
HIDDEN
 70
     0
  3
_ _ _ _ _ _ _ _ _ _ _ _ _ _ _ _ _ _ _ _ _ _ _
 72
    65
 73
     2
 40
0.375
 49
0.25
 49
-0.125
  0
LTYPE
  2
PHANTOM2
 70
     0
  3
___ _ _ ___ _ _ ___ _ _ ___ _ _
 72
    65
 73
     6
 40
1.25
 49
0.625
 49
-0.125
 49
0.125
 49
-0.125
 49
0.125
 49
-0.125
  0
ENDTAB
  0
TABLE
  2
LAYER
 70
     5
  0
LAYER
  2
0
 70
     0
 62
     7
  6
CONTINUOUS
  0
LAYER
  2
1
 70
     0
 62
     1
  6
CENTER
  0
LAYER
  2
2
 70
     0
 62
     2
  6
HIDDEN
  0
LAYER
  2
3
 70
     0
 62
     3
  6
CONTINUOUS
  0
LAYER
  2
11
 70
     0
 62
     3
  6
CONTINUOUS
  0
ENDTAB
  0
TABLE
  2
STYLE
 70
     2
  0
STYLE
  2
STANDARD
 70
     0
 40
0.0
 41
1.0
 50
0.0
 71
     0
 42
0.2
  3
TXT
  4
BIGFONT
  0
STYLE
  2
STANDARD1
 70
     0
 40
0.0
 41
1.0
 50
0.0
 71
     0
 42
3.0
  3
txt
  4

  0
ENDTAB
  0
TABLE
  2
VIEW
 70
     1
  0
VIEW
  2
ALL
 70
     0
 40
270.0
 10
220.99159663865549
 20
135.0
 41
0.0
 11
0.0
 21
0.0
 31
1.0
 12
0.0
 22
0.0
 32
0.0
 42
0.0
 43
0.0
 44
0.0
 50
0.0
 71
     0
  0
ENDTAB
  0
TABLE
  2
UCS
 70
     0
  0
ENDTAB
  0
TABLE
  2
APPID
 70
     3
  0
APPID
  2
ACAD
 70
     0
  0
APPID
  2
ACAD_MLEADERVER
 70
     0
  0
APPID
  2
ACAD_NAV_VCDISPLAY
 70
     0
  0
ENDTAB
  0
TABLE
  2
DIMSTYLE
 70
     1
  0
DIMSTYLE
  2
STANDARD
 70
     0
  3

  4

  5

  6

  7

 40
1.0
 41
0.18
 42
0.0625
 43
0.38
 44
0.18
 45
0.0
 46
0.0
 47
0.0
 48
0.0
140
0.18
141
0.09
142
0.0
143
25.399999999999999
144
1.0
145
0.0
146
1.0
147
0.09
 71
     0
 72
     0
 73
     1
 74
     1
 75
     0
 76
     0
 77
     0
 78
     0
170
     0
171
     2
172
     0
173
     0
174
     0
175
     0
176
     0
177
     0
178
     0
  0
ENDTAB
  0
ENDSEC
  0
SECTION
  2
BLOCKS
  0
BLOCK
  8
0
  2
$MODEL_SPACE
 70
     0
 10
0.0
 20
0.0
 30
0.0
  3
$MODEL_SPACE
  1

  0
ENDBLK
  5
49A
  8
0
  0
BLOCK
 67
     1
  8
0
  2
$PAPER_SPACE
 70
     0
 10
0.0
 20
0.0
 30
0.0
  3
$PAPER_SPACE
  1

  0
ENDBLK
  5
498
 67
     1
  8
0
  0
BLOCK
  8
0
  2
STDGX5
 70
     0
 10
0.0
 20
0.0
 30
0.0
  3
STDGX5
  1

  0
ENDBLK
  5
129
  8
0
  0
ENDSEC
  0
SECTION
  2
ENTITIES
  0
INSERT
  5
230
  8
11
  2
STDGX5
 10
0.0
 20
0.0
 30
0.0
  0
LINE
  5
399
  8
1
 10
194.6625910108765
 20
147.23226231372189
 30
0.0
 11
157.3151506758222
 21
147.23226231372189
 31
0.0
  0
LINE
  5
39A
  8
1
 10
190.21953637516069
 20
129.23226231372189
 30
0.0
 11
162.68360208357959
 21
129.23226231372189
 31
0.0
  0
LINE
  5
39B
  8
1
 10
176.45156922937019
 20
165.08248926763201
 30
0.0
 11
176.45156922937019
 21
115.4642951679313
 31
0.0
  0
LINE
  5
39C
  8
0
 10
250.55834541006831
 20
156.73226231372189
 30
0.0
 11
250.55834541006831
 21
121.7322623137219
 31
0.0
  0
LINE
  5
39D
  8
0
 10
251.05834541006831
 20
121.2322623137219
 30
0.0
 11
256.05834541006828
 21
121.2322623137219
 31
0.0
  0
LINE
  5
39E
  8
0
 10
256.55834541006828
 20
121.7322623137219
 30
0.0
 11
256.55834541006828
 21
156.73226231372189
 31
0.0
  0
LINE
  5
39F
  8
0
 10
256.05834541006828
 20
157.23226231372189
 30
0.0
 11
251.05834541006831
 21
157.23226231372189
 31
0.0
  0
LINE
  5
3A0
  8
0
 10
251.05834541006831
 20
149.5347623137219
 30
0.0
 11
256.05834541006828
 21
149.5347623137219
 31
0.0
  0
LINE
  5
3A1
  8
0
 10
251.05834541006831
 20
141.3364111512513
 30
0.0
 11
256.05834541006828
 21
141.3364111512513
 31
0.0
  0
LINE
  5
3A2
  8
1
 10
239.67411306941671
 20
129.23226231372189
 30
0.0
 11
268.98438338299059
 21
129.23226231372189
 31
0.0
  0
LINE
  5
3A3
  8
1
 10
241.69126495581941
 20
147.23226231372189
 30
0.0
 11
265.36185511410861
 21
147.23226231372189
 31
0.0
  0
LINE
  5
3A4
  8
0
 10
251.05834541006831
 20
157.23226231372189
 30
0.0
 11
250.55834541006831
 21
156.73226231372189
 31
0.0
  0
LINE
  5
3A5
  8
0
 10
250.55834541006831
 20
121.7322623137219
 30
0.0
 11
251.05834541006831
 21
121.2322623137219
 31
0.0
  0
LINE
  5
3A6
  8
0
 10
256.05834541006828
 20
121.2322623137219
 30
0.0
 11
256.55834541006828
 21
121.7322623137219
 31
0.0
  0
LINE
  5
3A7
  8
0
 10
256.55834541006828
 20
156.73226231372189
 30
0.0
 11
256.05834541006828
 21
157.23226231372189
 31
0.0
  0
CIRCLE
  5
3A8
  8
0
 10
176.45156922937031
 20
129.23226231372189
 30
0.0
 40
5.5
  0
LINE
  5
3A9
  8
0
 10
173.95156922937011
 20
127.7888866407478
 30
0.0
 11
173.95156922937019
 21
130.6756379866961
 31
0.0
  0
LINE
  5
3AA
  8
0
 10
176.45156922937031
 20
126.34551096777361
 30
0.0
 11
173.95156922937011
 21
127.7888866407478
 31
0.0
  0
LINE
  5
3AB
  8
0
 10
178.95156922937039
 20
127.7888866407478
 30
0.0
 11
176.45156922937031
 21
126.34551096777361
 31
0.0
  0
LINE
  5
3AC
  8
0
 10
178.95156922937039
 20
130.6756379866961
 30
0.0
 11
178.95156922937039
 21
127.7888866407478
 31
0.0
  0
LINE
  5
3AD
  8
0
 10
176.45156922937031
 20
132.1190136596702
 30
0.0
 11
178.95156922937039
 21
130.6756379866961
 31
0.0
  0
LINE
  5
3AE
  8
0
 10
173.95156922937019
 20
130.6756379866961
 30
0.0
 11
176.45156922937031
 21
132.1190136596702
 31
0.0
  0
LINE
  5
3AF
  8
0
 10
250.55834541006831
 20
134.73226231372189
 30
0.0
 11
245.0583454100684
 21
134.73226231372189
 31
0.0
  0
LINE
  5
3B0
  8
0
 10
244.5583454100684
 20
134.23226231372189
 30
0.0
 11
244.5583454100684
 21
124.2322623137219
 31
0.0
  0
LINE
  5
3B1
  8
0
 10
245.0583454100684
 20
123.7322623137219
 30
0.0
 11
250.55834541006831
 21
123.7322623137219
 31
0.0
  0
ARC
  5
3B2
  8
0
 10
245.0583454100684
 20
134.23226231372189
 30
0.0
 40
0.5
 50
90.0
 51
179.99999999999989
  0
ARC
  5
3B3
  8
0
 10
245.0583454100684
 20
124.2322623137219
 30
0.0
 40
0.5
 50
180.0
 51
269.99999999999989
  0
LINE
  5
3B4
  8
2
 10
244.5583454100684
 20
132.18226231372111
 30
0.0
 11
248.05834541006831
 21
132.18226231372111
 31
0.0
  0
LINE
  5
3B5
  8
2
 10
248.05834541006831
 20
132.18226231372111
 30
0.0
 11
248.05834541006831
 21
126.28226231372111
 31
0.0
  0
LINE
  5
3B6
  8
2
 10
248.05834541006831
 20
126.28226231372111
 30
0.0
 11
244.5583454100684
 21
126.2822623137226
 31
0.0
  0
LINE
  5
3B7
  8
2
 10
248.05834541006831
 20
126.28226231372111
 30
0.0
 11
249.7615287041782
 21
129.23226231372189
 31
0.0
  0
LINE
  5
3B8
  8
2
 10
248.05834541006831
 20
132.18226231372259
 30
0.0
 11
249.7615287041782
 21
129.23226231372189
 31
0.0
  0
LINE
  5
3B9
  8
2
 10
248.0583473174176
 20
127.7572623137208
 30
0.0
 11
244.5583473174176
 21
127.75726231372219
 31
0.0
  0
LINE
  5
3BA
  8
2
 10
248.0583473174176
 20
130.70726231372291
 30
0.0
 11
244.5583473174176
 21
130.70726231372149
 31
0.0
  0
LINE
  5
3BB
  8
0
 10
257.5583454100684
 20
133.23226231372101
 30
0.0
 11
256.55834541006828
 21
133.23226231372101
 31
0.0
  0
LINE
  5
3BC
  8
0
 10
257.5583454100684
 20
125.2322623137228
 30
0.0
 11
256.55834541006828
 21
125.2322623137228
 31
0.0
  0
LINE
  5
3BD
  8
0
 10
257.55834810746671
 20
133.23226231372101
 30
0.0
 11
257.55834810746671
 21
125.2322623137228
 31
0.0
  0
LINE
  5
3BE
  8
0
 10
258.05835001481529
 20
131.4322623137227
 30
0.0
 11
259.0583481074666
 21
131.4322623137227
 31
0.0
  0
LINE
  5
3BF
  8
0
 10
259.55834810746671
 20
132.23226231372189
 30
0.0
 11
259.55834810746671
 21
126.2322623137231
 31
0.0
  0
LINE
  5
3C0
  8
0
 10
265.55834810746671
 20
127.2322623137218
 30
0.0
 11
265.55834810746671
 21
131.23226231372189
 31
0.0
  0
LINE
  5
3C1
  8
0
 10
264.55834810746671
 20
132.2322623137218
 30
0.0
 11
264.55834810746671
 21
126.2322623137218
 31
0.0
  0
LINE
  5
3C2
  8
0
 10
259.55834810746671
 20
132.23226231372189
 30
0.0
 11
264.55834810746671
 21
132.23226231372189
 31
0.0
  0
LINE
  5
3C3
  8
0
 10
259.55834810746671
 20
126.2322623137219
 30
0.0
 11
264.55834810746671
 21
126.2322623137218
 31
0.0
  0
LINE
  5
3C4
  8
0
 10
264.55834810746671
 20
132.23226231372189
 30
0.0
 11
265.55834810746671
 21
131.23226231372189
 31
0.0
  0
LINE
  5
3C5
  8
0
 10
265.55834810746671
 20
127.2322623137218
 30
0.0
 11
264.55834810746671
 21
126.2322623137218
 31
0.0
  0
LINE
  5
3C6
  8
3
 10
259.55834810746671
 20
131.6907623137219
 30
0.0
 11
265.09984810746681
 21
131.6907623137219
 31
0.0
  0
LINE
  5
3C7
  8
3
 10
259.55834810746671
 20
126.7737623137221
 30
0.0
 11
265.09984810746698
 21
126.7737623137221
 31
0.0
  0
ARC
  5
3C8
  8
0
 10
258.05834810746671
 20
131.9322623137227
 30
0.0
 40
0.5
 50
179.99981071624541
 51
270.00021856605338
  0
ARC
  5
3C9
  8
0
 10
259.0583481074666
 20
131.9322623137227
 30
0.0
 40
0.5
 50
269.99978143394662
 51
0.0001892837545439
  0
LINE
  5
3CA
  8
0
 10
258.05835001481529
 20
127.03226231372101
 30
0.0
 11
259.0583481074666
 21
127.03226231372101
 31
0.0
  0
ARC
  5
3CB
  8
0
 10
259.0583481074666
 20
126.53226231372101
 30
0.0
 40
0.5
 50
359.99981071624552
 51
90.000218566053448
  0
ARC
  5
3CC
  8
0
 10
258.05834810746671
 20
126.53226231372101
 30
0.0
 40
0.5
 50
89.999781433946566
 51
180.00018928375451
  0
LINE
  5
3CD
  8
0
 10
251.05834541006831
 20
143.93226231372179
 30
0.0
 11
256.05834541006828
 21
143.93226231372179
 31
0.0
  0
INSERT
  5
3CE
  8
11
  2
STDGX5
 10
0.0
 20
0.0
 30
0.0
  0
ARC
  5
3CF
  8
0
 10
176.45156922937019
 20
147.23226231372189
 30
0.0
 40
10.0
 50
32.534850037579751
 51
186.37937020844279
  0
ARC
  5
3D0
  8
0
 10
176.45156922937019
 20
129.23226231372169
 30
0.0
 40
8.0
 50
186.37937020844279
 51
353.62062979155729
  0
LINE
  5
3D1
  8
0
 10
168.5011053093709
 20
128.34337342483281
 30
0.0
 11
166.51348932937111
 21
146.1211512026108
 31
0.0
  0
LINE
  5
3D2
  8
0
 10
184.4020331493694
 20
128.34337342483281
 30
0.0
 11
185.6457333236304
 21
139.46736595793661
 31
0.0
  0
ARC
  5
3D3
  8
0
 10
176.45156922937019
 20
147.23226231372189
 30
0.0
 40
3.2999999999999989
 50
90.000000000000242
 51
270.00000000000051
  0
ARC
  5
3D4
  8
0
 10
176.45156922937031
 20
129.23226231372189
 30
0.0
 40
14.699999999999999
 50
55.427769229825792
 51
90.000000000000384
  0
ARC
  5
3D5
  8
0
 10
176.45156922937031
 20
129.23226231372189
 30
0.0
 40
21.300000000000001
 50
73.17411890064642
 51
90.000000000000384
  0
ARC
  5
3D6
  8
0
 10
183.19608505706299
 20
151.5347623137219
 30
0.0
 40
2.0
 50
253.17411890064631
 51
32.534850037579751
  0
ARC
  5
3D7
  8
0
 10
183.65811734363061
 20
139.68958818015881
 30
0.0
 40
2.0
 50
353.62062979155741
 51
55.427769229825948
  0
LINE
  5
3D8
  8
2
 10
251.05834541006831
 20
150.5322623137219
 30
0.0
 11
256.05834541006828
 21
150.5322623137219
 31
0.0
  0
LINE
  5
3D9
  8
0
 10
96.344793048671974
 20
121.7322623137219
 30
0.0
 11
96.344793048672017
 21
156.73226231372189
 31
0.0
  0
LINE
  5
3DA
  8
0
 10
102.344793048672
 20
156.73226231372189
 30
0.0
 11
102.344793048672
 21
121.7322623137219
 31
0.0
  0
LINE
  5
3DB
  8
1
 10
111.21187350292089
 20
147.23226231372189
 30
0.0
 11
87.541283344631751
 21
147.23226231372189
 31
0.0
  0
LINE
  5
3DC
  8
0
 10
93.344790351273716
 20
132.23226231372189
 30
0.0
 11
88.344790351273645
 21
132.23226231372189
 31
0.0
  0
LINE
  5
3DD
  8
0
 10
93.344790351273716
 20
126.2322623137219
 30
0.0
 11
88.344790351273673
 21
126.2322623137218
 31
0.0
  0
LINE
  5
3DE
  8
3
 10
93.344790351273716
 20
126.7737623137221
 30
0.0
 11
87.803290351273375
 21
126.7737623137221
 31
0.0
  0
LINE
  5
3DF
  8
3
 10
93.344790351273716
 20
131.6907623137219
 30
0.0
 11
87.803290351273645
 21
131.6907623137219
 31
0.0
  0
LINE
  5
3E0
  8
1
 10
113.2290253893236
 20
129.23226231372189
 30
0.0
 11
83.918755075749786
 21
129.23226231372189
 31
0.0
  0
LINE
  5
3E1
  8
0
 10
108.344793048672
 20
134.23226231372189
 30
0.0
 11
108.344793048672
 21
124.2322623137219
 31
0.0
  0
LINE
  5
3E2
  8
0
 10
107.844793048672
 20
123.7322623137219
 30
0.0
 11
102.344793048672
 21
123.7322623137219
 31
0.0
  0
ARC
  5
3E3
  8
0
 10
107.844793048672
 20
124.2322623137219
 30
0.0
 40
0.5
 50
270.00000000000011
 51
0.0
  0
LINE
  5
3E4
  8
0
 10
101.844793048672
 20
121.2322623137219
 30
0.0
 11
96.844793048671988
 21
121.2322623137219
 31
0.0
  0
LINE
  5
3E5
  8
0
 10
102.344793048672
 20
121.7322623137219
 30
0.0
 11
101.844793048672
 21
121.2322623137219
 31
0.0
  0
LINE
  5
3E6
  8
0
 10
96.844793048671988
 20
121.2322623137219
 30
0.0
 11
96.344793048671974
 21
121.7322623137219
 31
0.0
  0
LINE
  5
3E7
  8
2
 10
108.344793048672
 20
132.18226231372111
 30
0.0
 11
104.844793048672
 21
132.18226231372111
 31
0.0
  0
LINE
  5
3E8
  8
2
 10
104.8447911413227
 20
130.70726231372291
 30
0.0
 11
108.3447911413227
 21
130.70726231372149
 31
0.0
  0
LINE
  5
3E9
  8
0
 10
102.344793048672
 20
134.73226231372189
 30
0.0
 11
107.844793048672
 21
134.73226231372189
 31
0.0
  0
LINE
  5
3EA
  8
2
 10
104.8447911413227
 20
127.7572623137208
 30
0.0
 11
108.3447911413227
 21
127.75726231372219
 31
0.0
  0
LINE
  5
3EB
  8
2
 10
104.844793048672
 20
126.28226231372111
 30
0.0
 11
108.344793048672
 21
126.2822623137226
 31
0.0
  0
ARC
  5
3EC
  8
0
 10
107.844793048672
 20
134.23226231372189
 30
0.0
 40
0.5
 50
0.0000000000000509
 51
90.0
  0
LINE
  5
3ED
  8
0
 10
93.344790351273716
 20
132.23226231372189
 30
0.0
 11
93.344790351273716
 21
126.2322623137231
 31
0.0
  0
LINE
  5
3EE
  8
0
 10
95.344790351273701
 20
133.23226231372101
 30
0.0
 11
95.344790351273701
 21
125.2322623137228
 31
0.0
  0
LINE
  5
3EF
  8
2
 10
104.844793048672
 20
132.18226231372259
 30
0.0
 11
103.1416097545622
 21
129.23226231372189
 31
0.0
  0
LINE
  5
3F0
  8
2
 10
104.844793048672
 20
132.18226231372111
 30
0.0
 11
104.844793048672
 21
126.28226231372111
 31
0.0
  0
LINE
  5
3F1
  8
2
 10
104.844793048672
 20
126.28226231372111
 30
0.0
 11
103.1416097545622
 21
129.23226231372189
 31
0.0
  0
ARC
  5
3F2
  8
0
 10
94.844790351273687
 20
126.53226231372101
 30
0.0
 40
0.5
 50
359.99981071624541
 51
90.000218566053434
  0
LINE
  5
3F3
  8
0
 10
94.844788443925069
 20
127.03226231372101
 30
0.0
 11
93.844790351273701
 21
127.03226231372101
 31
0.0
  0
LINE
  5
3F4
  8
0
 10
95.344793048672017
 20
125.2322623137228
 30
0.0
 11
96.344793048671974
 21
125.2322623137228
 31
0.0
  0
ARC
  5
3F5
  8
0
 10
93.844790351273701
 20
126.53226231372101
 30
0.0
 40
0.5
 50
89.999781433946566
 51
180.00018928375451
  0
ARC
  5
3F6
  8
0
 10
94.844790351273687
 20
131.9322623137227
 30
0.0
 40
0.5
 50
269.99978143394662
 51
0.0001892837545439
  0
LINE
  5
3F7
  8
0
 10
94.844788443925069
 20
131.4322623137227
 30
0.0
 11
93.844790351273701
 21
131.4322623137227
 31
0.0
  0
LINE
  5
3F8
  8
0
 10
95.344793048672017
 20
133.23226231372101
 30
0.0
 11
96.344793048671974
 21
133.23226231372101
 31
0.0
  0
ARC
  5
3F9
  8
0
 10
93.844790351273701
 20
131.9322623137227
 30
0.0
 40
0.5
 50
179.99981071624541
 51
270.00021856605338
  0
LINE
  5
3FA
  8
0
 10
87.344790351273673
 20
127.2322623137218
 30
0.0
 11
87.344790351273645
 21
131.23226231372189
 31
0.0
  0
LINE
  5
3FB
  8
0
 10
88.344790351273716
 20
132.2322623137218
 30
0.0
 11
88.344790351273716
 21
126.2322623137218
 31
0.0
  0
LINE
  5
3FC
  8
0
 10
87.344790351273673
 20
127.2322623137218
 30
0.0
 11
88.344790351273673
 21
126.2322623137218
 31
0.0
  0
LINE
  5
3FD
  8
0
 10
88.344790351273645
 20
132.23226231372189
 30
0.0
 11
87.344790351273645
 21
131.23226231372189
 31
0.0
  0
LINE
  5
3FE
  8
2
 10
101.844793048672
 20
150.5322623137219
 30
0.0
 11
96.844793048672031
 21
150.5322623137219
 31
0.0
  0
LINE
  5
3FF
  8
0
 10
96.844793048672031
 20
157.23226231372189
 30
0.0
 11
101.844793048672
 21
157.23226231372189
 31
0.0
  0
LINE
  5
400
  8
0
 10
101.844793048672
 20
157.23226231372189
 30
0.0
 11
102.344793048672
 21
156.73226231372189
 31
0.0
  0
LINE
  5
401
  8
0
 10
96.344793048672017
 20
156.73226231372189
 30
0.0
 11
96.844793048672031
 21
157.23226231372189
 31
0.0
  0
LINE
  5
402
  8
2
 10
101.844793048672
 20
143.93226231372191
 30
0.0
 11
96.844793048672031
 21
143.93226231372179
 31
0.0
  0
LINE
  5
403
  8
0
 10
166.95156922937019
 20
79.232262313721691
 30
0.0
 11
185.15811734363069
 21
79.232262313721705
 31
0.0
  0
LINE
  5
404
  8
0
 10
185.15811734363061
 20
85.232262313721705
 30
0.0
 11
166.95156922937019
 21
85.232262313721719
 31
0.0
  0
LINE
  5
405
  8
0
 10
179.45156922937019
 20
76.232259616323404
 30
0.0
 11
179.45156922937019
 21
71.232259616323347
 31
0.0
  0
LINE
  5
406
  8
0
 10
173.45156922937019
 20
76.232259616323404
 30
0.0
 11
173.45156922937011
 21
71.232259616323375
 31
0.0
  0
LINE
  5
407
  8
3
 10
173.99306922937041
 20
76.232259616323404
 30
0.0
 11
173.99306922937041
 21
70.690759616323064
 31
0.0
  0
LINE
  5
408
  8
3
 10
178.91006922937021
 20
76.232259616323404
 30
0.0
 11
178.91006922937021
 21
70.690759616323334
 31
0.0
  0
LINE
  5
409
  8
1
 10
176.45156922937019
 20
96.116494654373355
 30
0.0
 11
176.45156922937019
 21
66.806224340799474
 31
0.0
  0
LINE
  5
40A
  8
0
 10
181.45156922937019
 20
91.232262313721705
 30
0.0
 11
171.45156922937019
 21
91.232262313721705
 31
0.0
  0
LINE
  5
40B
  8
0
 10
170.95156922937019
 20
90.732262313721691
 30
0.0
 11
170.95156922937019
 21
85.232262313721719
 31
0.0
  0
ARC
  5
40C
  8
0
 10
171.45156922937019
 20
90.732262313721691
 30
0.0
 40
0.5
 50
90.0
 51
179.99999999999989
  0
LINE
  5
40D
  8
0
 10
166.45156922937019
 20
84.732262313721705
 30
0.0
 11
166.45156922937019
 21
79.732262313721691
 31
0.0
  0
LINE
  5
40E
  8
0
 10
166.95156922937019
 20
85.232262313721719
 30
0.0
 11
166.45156922937019
 21
84.732262313721705
 31
0.0
  0
LINE
  5
40F
  8
0
 10
166.45156922937019
 20
79.732262313721691
 30
0.0
 11
166.95156922937019
 21
79.232262313721691
 31
0.0
  0
LINE
  5
410
  8
0
 10
181.95156922937019
 20
85.232262313721677
 30
0.0
 11
181.95156922937019
 21
90.732262313721691
 31
0.0
  0
ARC
  5
411
  8
0
 10
181.45156922937019
 20
90.732262313721691
 30
0.0
 40
0.5
 50
0.0
 51
89.999999999999943
  0
LINE
  5
412
  8
0
 10
179.45156922937019
 20
76.232259616323404
 30
0.0
 11
173.45156922937139
 21
76.232259616323404
 31
0.0
  0
LINE
  5
413
  8
0
 10
180.45156922936931
 20
78.232259616323404
 30
0.0
 11
172.4515692293711
 21
78.232259616323404
 31
0.0
  0
LINE
  5
414
  8
2
 10
178.95156922937039
 20
87.732262313721677
 30
0.0
 11
173.95156922937011
 21
87.732262313721677
 31
0.0
  0
ARC
  5
415
  8
0
 10
173.7515692293693
 20
77.732259616323404
 30
0.0
 40
0.5
 50
359.99978143394662
 51
90.000189283754551
  0
LINE
  5
416
  8
0
 10
174.2515692293693
 20
77.732257708974771
 30
0.0
 11
174.2515692293693
 21
76.732259616323404
 31
0.0
  0
LINE
  5
417
  8
0
 10
172.4515692293711
 20
78.232262313721719
 30
0.0
 11
172.4515692293711
 21
79.232262313721691
 31
0.0
  0
ARC
  5
418
  8
0
 10
173.7515692293693
 20
76.732259616323404
 30
0.0
 40
0.5
 50
269.99981071624552
 51
0.0002185660534531
  0
ARC
  5
419
  8
0
 10
179.15156922937101
 20
77.732259616323404
 30
0.0
 40
0.5
 50
89.999810716245435
 51
180.00021856605341
  0
LINE
  5
41A
  8
0
 10
178.65156922937101
 20
77.732257708974771
 30
0.0
 11
178.65156922937101
 21
76.732259616323404
 31
0.0
  0
LINE
  5
41B
  8
0
 10
180.45156922936931
 20
78.232262313721719
 30
0.0
 11
180.45156922936931
 21
79.232262313721691
 31
0.0
  0
ARC
  5
41C
  8
0
 10
179.15156922937101
 20
76.732259616323404
 30
0.0
 40
0.5
 50
179.99978143394651
 51
270.00018928375448
  0
LINE
  5
41D
  8
0
 10
174.45156922937011
 20
70.232259616323375
 30
0.0
 11
178.45156922937019
 21
70.232259616323347
 31
0.0
  0
LINE
  5
41E
  8
0
 10
179.45156922937011
 20
71.232259616323404
 30
0.0
 11
173.45156922937011
 21
71.232259616323404
 31
0.0
  0
LINE
  5
41F
  8
0
 10
174.45156922937011
 20
70.232259616323375
 30
0.0
 11
173.45156922937011
 21
71.232259616323375
 31
0.0
  0
LINE
  5
420
  8
0
 10
179.45156922937019
 20
71.232259616323347
 30
0.0
 11
178.45156922937019
 21
70.232259616323347
 31
0.0
  0
LINE
  5
421
  8
0
 10
185.65811734363061
 20
79.732262313721691
 30
0.0
 11
185.65811734363061
 21
84.732262313721662
 31
0.0
  0
LINE
  5
422
  8
0
 10
185.65811734363061
 20
84.732262313721662
 30
0.0
 11
185.15811734363061
 21
85.232262313721662
 31
0.0
  0
LINE
  5
423
  8
0
 10
185.15811734363061
 20
79.232262313721691
 30
0.0
 11
185.65811734363061
 21
79.732262313721691
 31
0.0
  0
LINE
  5
424
  8
2
 10
178.95156922937051
 20
91.232262313721705
 30
0.0
 11
178.95156922937039
 21
87.732262313721677
 31
0.0
  0
LINE
  5
425
  8
2
 10
173.95156922937011
 20
91.232262313721705
 30
0.0
 11
173.95156922937011
 21
87.732262313721677
 31
0.0
  0
LINE
  5
426
  8
2
 10
173.95156922937011
 20
87.732262313721677
 30
0.0
 11
176.45156922937011
 21
86.029079019611913
 31
0.0
  0
LINE
  5
427
  8
2
 10
176.45156922937011
 20
86.029079019611913
 30
0.0
 11
178.95156922937039
 21
87.732262313721677
 31
0.0
  0
LINE
  5
428
  8
2
 10
176.45156922937019
 20
91.232262313721705
 30
0.0
 11
176.45156922937019
 21
87.732262313721677
 31
0.0
  0
LINE
  5
429
  8
2
 10
173.15156922937021
 20
84.732262313721705
 30
0.0
 11
173.15156922937021
 21
79.732262313721691
 31
0.0
  0
LINE
  5
42A
  8
2
 10
185.1960850570631
 20
84.732262313721691
 30
0.0
 11
185.1960850570631
 21
79.732262313721705
 31
0.0
  0
LINE
  5
42B
  8
0
 10
185.15811734363061
 20
215.23226231372209
 30
0.0
 11
185.65811734363061
 21
214.73226231372209
 31
0.0
  0
LINE
  5
42C
  8
0
 10
166.45156922937019
 20
214.73226231372209
 30
0.0
 11
166.95156922937019
 21
215.23226231372209
 31
0.0
  0
LINE
  5
42D
  8
1
 10
176.45156922937019
 20
198.3480299730704
 30
0.0
 11
176.45156922937019
 21
227.65830028664431
 31
0.0
  0
LINE
  5
42E
  8
0
 10
166.95156922937019
 20
215.23226231372209
 30
0.0
 11
185.15811734363069
 21
215.23226231372209
 31
0.0
  0
LINE
  5
42F
  8
0
 10
179.45156922937019
 20
218.2322650111204
 30
0.0
 11
179.45156922937019
 21
223.2322650111204
 31
0.0
  0
LINE
  5
430
  8
3
 10
178.91006922937021
 20
218.2322650111204
 30
0.0
 11
178.91006922937021
 21
223.77376501112039
 31
0.0
  0
LINE
  5
431
  8
0
 10
173.45156922937019
 20
218.2322650111204
 30
0.0
 11
173.45156922937011
 21
223.2322650111204
 31
0.0
  0
LINE
  5
432
  8
3
 10
173.99306922937041
 20
218.2322650111204
 30
0.0
 11
173.99306922937041
 21
223.7737650111207
 31
0.0
  0
LINE
  5
433
  8
0
 10
174.45156922937011
 20
224.2322650111204
 30
0.0
 11
178.45156922937019
 21
224.23226501112049
 31
0.0
  0
LINE
  5
434
  8
0
 10
179.45156922937011
 20
223.2322650111204
 30
0.0
 11
173.45156922937011
 21
223.2322650111204
 31
0.0
  0
LINE
  5
435
  8
0
 10
174.45156922937011
 20
224.2322650111204
 30
0.0
 11
173.45156922937011
 21
223.2322650111204
 31
0.0
  0
LINE
  5
436
  8
0
 10
179.45156922937019
 20
223.2322650111204
 30
0.0
 11
178.45156922937019
 21
224.23226501112049
 31
0.0
  0
LINE
  5
437
  8
0
 10
179.45156922937019
 20
218.2322650111204
 30
0.0
 11
173.45156922937139
 21
218.2322650111204
 31
0.0
  0
LINE
  5
438
  8
0
 10
180.45156922936931
 20
216.2322650111204
 30
0.0
 11
172.4515692293711
 21
216.2322650111204
 31
0.0
  0
ARC
  5
439
  8
0
 10
173.7515692293693
 20
216.7322650111204
 30
0.0
 40
0.5
 50
269.99981071624552
 51
0.0002185660534404
  0
LINE
  5
43A
  8
0
 10
174.2515692293693
 20
216.73226691846901
 30
0.0
 11
174.2515692293693
 21
217.7322650111204
 31
0.0
  0
ARC
  5
43B
  8
0
 10
173.7515692293693
 20
217.7322650111204
 30
0.0
 40
0.5
 50
359.99978143394662
 51
90.000189283754551
  0
LINE
  5
43C
  8
0
 10
172.4515692293711
 20
216.23226231372209
 30
0.0
 11
172.4515692293711
 21
215.23226231372209
 31
0.0
  0
ARC
  5
43D
  8
0
 10
179.15156922937101
 20
216.7322650111204
 30
0.0
 40
0.5
 50
179.99978143394651
 51
270.00018928375448
  0
LINE
  5
43E
  8
0
 10
178.65156922937101
 20
216.73226691846901
 30
0.0
 11
178.65156922937101
 21
217.7322650111204
 31
0.0
  0
ARC
  5
43F
  8
0
 10
179.15156922937101
 20
217.7322650111204
 30
0.0
 40
0.5
 50
89.999810716245435
 51
180.00021856605341
  0
LINE
  5
440
  8
0
 10
180.45156922936931
 20
216.23226231372209
 30
0.0
 11
180.45156922936931
 21
215.23226231372209
 31
0.0
  0
LINE
  5
441
  8
0
 10
185.15811734363061
 20
209.23226231372209
 30
0.0
 11
166.95156922937019
 21
209.23226231372209
 31
0.0
  0
LINE
  5
442
  8
0
 10
170.95156922937019
 20
203.73226231372209
 30
0.0
 11
170.95156922937019
 21
209.23226231372209
 31
0.0
  0
LINE
  5
443
  8
0
 10
181.95156922937019
 20
209.23226231372209
 30
0.0
 11
181.95156922937019
 21
203.73226231372209
 31
0.0
  0
LINE
  5
444
  8
2
 10
178.95156922937051
 20
203.23226231372209
 30
0.0
 11
178.95156922937039
 21
206.73226231372209
 31
0.0
  0
LINE
  5
445
  8
2
 10
173.95156922937011
 20
203.23226231372209
 30
0.0
 11
173.95156922937011
 21
206.73226231372209
 31
0.0
  0
LINE
  5
446
  8
2
 10
176.45156922937019
 20
203.23226231372209
 30
0.0
 11
176.45156922937019
 21
206.73226231372209
 31
0.0
  0
LINE
  5
447
  8
0
 10
166.95156922937019
 20
209.23226231372209
 30
0.0
 11
166.45156922937019
 21
209.73226231372209
 31
0.0
  0
LINE
  5
448
  8
0
 10
166.45156922937019
 20
209.73226231372209
 30
0.0
 11
166.45156922937019
 21
214.73226231372209
 31
0.0
  0
LINE
  5
449
  8
2
 10
173.15156922937021
 20
209.73226231372209
 30
0.0
 11
173.15156922937021
 21
214.73226231372209
 31
0.0
  0
LINE
  5
44A
  8
2
 10
173.95156922937011
 20
206.73226231372209
 30
0.0
 11
176.45156922937011
 21
208.43544560783181
 31
0.0
  0
LINE
  5
44B
  8
2
 10
178.95156922937039
 20
206.73226231372209
 30
0.0
 11
173.95156922937011
 21
206.73226231372209
 31
0.0
  0
LINE
  5
44C
  8
2
 10
176.45156922937011
 20
208.43544560783181
 30
0.0
 11
178.95156922937039
 21
206.73226231372209
 31
0.0
  0
LINE
  5
44D
  8
0
 10
181.45156922937019
 20
203.23226231372209
 30
0.0
 11
171.45156922937019
 21
203.23226231372209
 31
0.0
  0
ARC
  5
44E
  8
0
 10
171.45156922937019
 20
203.73226231372209
 30
0.0
 40
0.5
 50
180.0
 51
270.0
  0
ARC
  5
44F
  8
0
 10
181.45156922937019
 20
203.73226231372209
 30
0.0
 40
0.5
 50
270.00000000000011
 51
0.0
  0
LINE
  5
450
  8
0
 10
185.65811734363061
 20
209.73226231372209
 30
0.0
 11
185.15811734363061
 21
209.23226231372209
 31
0.0
  0
LINE
  5
451
  8
0
 10
185.65811734363061
 20
214.73226231372209
 30
0.0
 11
185.65811734363061
 21
209.73226231372209
 31
0.0
  0
LINE
  5
452
  8
0
 10
185.1960850570631
 20
209.73226231372209
 30
0.0
 11
185.1960850570631
 21
214.732262313722
 31
0.0
  0
INSERT
  5
453
  8
0
  2
STDGX5
 10
0.0
 20
0.0
 30
0.0
  0
INSERT
  5
454
  8
0
  2
STDGX5
 10
0.0
 20
0.0
 30
0.0
  0
INSERT
  5
455
  8
0
  2
STDGX5
 10
275.0
 20
0.0
 30
0.0
  0
INSERT
  5
456
  8
0
  2
STDGX5
 10
275.0
 20
0.0
 30
0.0
  0
TEXT
  5
54D
  8
0
 62
     3
 10
0.0
 20
0.0
 30
0.0
 40
5.0
  1
SW6
  7
STANDARD1
  0
ENDSEC
  0
EOF
