  0
SECTION
  2
HEADER
  9
$ACADVER
  1
AC1009
  9
$INSBASE
 10
0.0
 20
0.0
 30
0.0
  9
$EXTMIN
 10
0.0
 20
-2.960436562073669
 30
0.0
  9
$EXTMAX
 10
1476.2308795138631
 20
910.30566721551759
 30
0.0
  9
$LIMMIN
 10
0.0
 20
0.0
  9
$LIMMAX
 10
1500.0
 20
1080.0
  9
$ORTHOMODE
 70
     1
  9
$REGENMODE
 70
     1
  9
$FILLMODE
 70
     1
  9
$QTEXTMODE
 70
     0
  9
$MIRRTEXT
 70
     0
  9
$DRAGMODE
 70
     2
  9
$LTSCALE
 40
40.0
  9
$OSMODE
 70
    55
  9
$ATTMODE
 70
     1
  9
$TEXTSIZE
 40
0.2
  9
$TRACEWID
 40
0.05
  9
$TEXTSTYLE
  7
K50
  9
$CLAYER
  8
0
  9
$CELTYPE
  6
BYLAYER
  9
$CECOLOR
 62
   256
  9
$DIMSCALE
 40
4.0
  9
$DIMASZ
 40
3.0
  9
$DIMEXO
 40
2.0
  9
$DIMDLI
 40
0.3799999999999999
  9
$DIMRND
 40
0.0
  9
$DIMDLE
 40
0.0
  9
$DIMEXE
 40
2.0
  9
$DIMTP
 40
0.0
  9
$DIMTM
 40
0.0
  9
$DIMTXT
 40
3.2000000000000002
  9
$DIMCEN
 40
0.09
  9
$DIMTSZ
 40
0.0
  9
$DIMTOL
 70
     0
  9
$DIMLIM
 70
     0
  9
$DIMTIH
 70
     0
  9
$DIMTOH
 70
     0
  9
$DIMSE1
 70
     0
  9
$DIMSE2
 70
     0
  9
$DIMTAD
 70
     1
  9
$DIMZIN
 70
     0
  9
$DIMBLK
  1

  9
$DIMASO
 70
     1
  9
$DIMSHO
 70
     0
  9
$DIMPOST
  1

  9
$DIMAPOST
  1

  9
$DIMALT
 70
     0
  9
$DIMALTD
 70
     2
  9
$DIMALTF
 40
25.399999999999999
  9
$DIMLFAC
 40
1.0
  9
$DIMTOFL
 70
     0
  9
$DIMTVP
 40
1.6000000000000001
  9
$DIMTIX
 70
     1
  9
$DIMSOXD
 70
     0
  9
$DIMSAH
 70
     0
  9
$DIMBLK1
  1

  9
$DIMBLK2
  1

  9
$DIMSTYLE
  2
STANDARD
  9
$DIMCLRD
 70
     0
  9
$DIMCLRE
 70
     0
  9
$DIMCLRT
 70
     0
  9
$DIMTFAC
 40
1.0
  9
$DIMGAP
 40
0.09
  9
$LUNITS
 70
     2
  9
$LUPREC
 70
     4
  9
$SKETCHINC
 40
0.1
  9
$FILLETRAD
 40
0.0
  9
$AUNITS
 70
     0
  9
$AUPREC
 70
     0
  9
$MENU
  1
E:\r13\win\SUPPORT\ACAD
  9
$ELEVATION
 40
0.0
  9
$PELEVATION
 40
0.0
  9
$THICKNESS
 40
0.0
  9
$LIMCHECK
 70
     0
  9
$BLIPMODE
 70
     0
  9
$CHAMFERA
 40
0.0
  9
$CHAMFERB
 40
0.0
  9
$SKPOLY
 70
     0
  9
$TDCREATE
 40
2449840.5979166669
  9
$TDUPDATE
 40
2456598.56795154
  9
$TDINDWG
 40
0.0020661227
  9
$TDUSRTIMER
 40
0.0020661227
  9
$USRTIMER
 70
     1
  9
$ANGBASE
 50
0.0
  9
$ANGDIR
 70
     0
  9
$PDMODE
 70
     0
  9
$PDSIZE
 40
0.0
  9
$PLINEWID
 40
0.0
  9
$COORDS
 70
     1
  9
$SPLFRAME
 70
     0
  9
$SPLINETYPE
 70
     6
  9
$SPLINESEGS
 70
     8
  9
$ATTDIA
 70
     0
  9
$ATTREQ
 70
     1
  9
$HANDLING
 70
     1
  9
$HANDSEED
  5
640
  9
$SURFTAB1
 70
     6
  9
$SURFTAB2
 70
     6
  9
$SURFTYPE
 70
     6
  9
$SURFU
 70
     6
  9
$SURFV
 70
     6
  9
$UCSNAME
  2

  9
$UCSORG
 10
0.0
 20
0.0
 30
0.0
  9
$UCSXDIR
 10
1.0
 20
0.0
 30
0.0
  9
$UCSYDIR
 10
0.0
 20
1.0
 30
0.0
  9
$PUCSNAME
  2

  9
$PUCSORG
 10
0.0
 20
0.0
 30
0.0
  9
$PUCSXDIR
 10
1.0
 20
0.0
 30
0.0
  9
$PUCSYDIR
 10
0.0
 20
1.0
 30
0.0
  9
$USERI1
 70
     0
  9
$USERI2
 70
     1
  9
$USERI3
 70
     1
  9
$USERI4
 70
     0
  9
$USERI5
 70
     0
  9
$USERR1
 40
0.0
  9
$USERR2
 40
0.0
  9
$USERR3
 40
0.0
  9
$USERR4
 40
0.0
  9
$USERR5
 40
0.0
  9
$WORLDVIEW
 70
     1
  9
$SHADEDGE
 70
     3
  9
$SHADEDIF
 70
    70
  9
$TILEMODE
 70
     1
  9
$MAXACTVP
 70
    16
  9
$PLIMCHECK
 70
     0
  9
$PEXTMIN
 10
1.0000000000000000E+020
 20
1.0000000000000000E+020
 30
1.0000000000000000E+020
  9
$PEXTMAX
 10
-1.0000000000000000E+020
 20
-1.0000000000000000E+020
 30
-1.0000000000000000E+020
  9
$PLIMMIN
 10
0.0
 20
0.0
  9
$PLIMMAX
 10
12.0
 20
9.0
  9
$UNITMODE
 70
     0
  9
$VISRETAIN
 70
     0
  9
$PLINEGEN
 70
     0
  9
$PSLTSCALE
 70
     0
  0
ENDSEC
  0
SECTION
  2
TABLES
  0
TABLE
  2
VPORT
 70
     1
  0
VPORT
  2
*ACTIVE
 70
     0
 10
0.0
 20
0.0
 11
1.0
 21
1.0
 12
749.97711356260925
 22
790.58175093952525
 13
0.0
 23
0.0
 14
40.0
 24
40.0
 15
40.0
 25
40.0
 16
0.0
 26
0.0
 36
1.0
 17
0.0
 27
0.0
 37
0.0
 40
1601.1362160785229
 41
1.7807262569832401
 42
50.0
 43
0.0
 44
0.0
 50
0.0
 51
0.0
 71
     0
 72
   500
 73
     1
 74
     0
 75
     0
 76
     0
 77
     0
 78
     0
  0
ENDTAB
  0
TABLE
  2
LTYPE
 70
     4
  0
LTYPE
  2
CONTINUOUS
 70
     0
  3
Solid Line
 72
    65
 73
     0
 40
0.0
  0
LTYPE
  2
CENTER
 70
     0
  3
____ _ ____ _ ____ _ ____ _ ____ _ ____ _ ____
 72
    65
 73
     4
 40
2.0
 49
1.25
 49
-0.25
 49
0.25
 49
-0.25
  0
LTYPE
  2
HIDDEN
 70
     0
  3
_ _ _ _ _ _ _ _ _ _ _ _ _ _ _ _ _ _ _ _ _ _ _
 72
    65
 73
     2
 40
0.375
 49
0.25
 49
-0.125
  0
LTYPE
  2
PHANTOM2
 70
     0
  3
___ _ _ ___ _ _ ___ _ _ ___ _ _
 72
    65
 73
     6
 40
1.25
 49
0.625
 49
-0.125
 49
0.125
 49
-0.125
 49
0.125
 49
-0.125
  0
ENDTAB
  0
TABLE
  2
LAYER
 70
     3
  0
LAYER
  2
0
 70
     0
 62
     7
  6
CONTINUOUS
  0
LAYER
  2
1
 70
     0
 62
     1
  6
CENTER
  0
LAYER
  2
2
 70
     0
 62
     2
  6
HIDDEN
  0
ENDTAB
  0
TABLE
  2
STYLE
 70
     4
  0
STYLE
  2
STANDARD
 70
     0
 40
0.0
 41
1.0
 50
0.0
 71
     0
 42
0.2
  3
romans.shx
  4

  0
STYLE
  2
K90
 70
     0
 40
0.0
 41
1.0
 50
0.0
 71
     0
 42
0.2
  3
romans.shx
  4

  0
STYLE
  2
K50
 70
     0
 40
0.0
 41
1.0
 50
0.0
 71
     0
 42
0.2
  3
romans.shx
  4

  0
STYLE
  2
STANDARD1
 70
     0
 40
0.0
 41
1.0
 50
0.0
 71
     0
 42
3.0
  3
txt
  4

  0
ENDTAB
  0
TABLE
  2
VIEW
 70
     1
  0
VIEW
  2
ALL
 70
     0
 40
1080.0
 10
883.96638655462186
 20
540.0
 41
0.0
 11
0.0
 21
0.0
 31
1.0
 12
0.0
 22
0.0
 32
0.0
 42
0.0
 43
0.0
 44
0.0
 50
0.0
 71
     0
  0
ENDTAB
  0
TABLE
  2
UCS
 70
     0
  0
ENDTAB
  0
TABLE
  2
APPID
 70
     3
  0
APPID
  2
ACAD
 70
     0
  0
APPID
  2
ACAD_MLEADERVER
 70
     0
  0
APPID
  2
ACAD_NAV_VCDISPLAY
 70
     0
  0
ENDTAB
  0
TABLE
  2
DIMSTYLE
 70
     1
  0
DIMSTYLE
  2
STANDARD
 70
     0
  3

  4

  5

  6

  7

 40
1.0
 41
0.18
 42
0.0625
 43
0.38
 44
0.18
 45
0.0
 46
0.0
 47
0.0
 48
0.0
140
0.18
141
0.09
142
0.0
143
25.399999999999999
144
1.0
145
0.0
146
1.0
147
0.09
 71
     0
 72
     0
 73
     1
 74
     1
 75
     0
 76
     0
 77
     0
 78
     0
170
     0
171
     2
172
     0
173
     0
174
     0
175
     0
176
     0
177
     0
178
     0
  0
ENDTAB
  0
ENDSEC
  0
SECTION
  2
BLOCKS
  0
BLOCK
  8
0
  2
$MODEL_SPACE
 70
     0
 10
0.0
 20
0.0
 30
0.0
  3
$MODEL_SPACE
  1

  0
ENDBLK
  5
4A7
  8
0
  0
BLOCK
 67
     1
  8
0
  2
$PAPER_SPACE
 70
     0
 10
0.0
 20
0.0
 30
0.0
  3
$PAPER_SPACE
  1

  0
ENDBLK
  5
4A5
 67
     1
  8
0
  0
ENDSEC
  0
SECTION
  2
ENTITIES
  0
ARC
  5
40
  8
0
 10
1099.8527033726559
 20
511.62710865460099
 30
0.0
 40
10.0
 50
111.16684942416271
 51
164.462934248463
  0
LINE
  5
41
  8
0
 10
1090.2181296737781
 20
514.30572576813131
 30
0.0
 11
1068.326093886006
 21
435.56344074711939
 31
0.0
  0
ARC
  5
42
  8
0
 10
1081.326099364451
 20
556.30930255796
 30
0.0
 40
50.0
 50
287.35643005323129
 51
288.11175474242668
  0
LINE
  5
43
  8
0
 10
1076.3260938860069
 20
512.8707156633601
 30
0.0
 11
1076.3260938860069
 21
537.46049464809732
 31
0.0
  0
LINE
  5
44
  8
2
 10
1076.3260938860069
 20
537.46049464809698
 30
0.0
 11
1076.3260938860069
 21
564.96955659578566
 31
0.0
  0
ARC
  5
45
  8
2
 10
1081.326099364451
 20
516.30930255794692
 30
0.0
 40
50.0
 50
77.959134155850577
 51
90.000006277834416
  0
ARC
  5
46
  8
0
 10
1102.9256277006871
 20
573.65034667244174
 30
0.0
 40
14.0
 50
215.03950853096549
 51
241.48345501949569
  0
ARC
  5
47
  8
0
 10
1102.9256277006871
 20
546.07511108453104
 30
0.0
 40
14.0
 50
215.03950853096549
 51
241.48345501949569
  0
ARC
  5
48
  8
0
 10
1076.1313016463409
 20
534.06560247696939
 30
0.0
 40
2.0
 50
275.5892470775056
 51
32.742127120666233
  0
ARC
  5
49
  8
0
 10
1076.1313016463409
 20
519.63661726214798
 30
0.0
 40
2.0
 50
344.46293424846442
 51
84.410752922450456
  0
LINE
  5
4A
  8
0
 10
818.61812285832275
 20
632.30930255795363
 30
0.0
 11
827.2935675379855
 21
632.30930255795363
 31
0.0
  0
LINE
  5
4B
  8
0
 10
801.99356753798372
 20
631.80930255795374
 30
0.0
 11
822.59356753798374
 21
631.80930255795374
 31
0.0
  0
LINE
  5
4C
  8
0
 10
823.29356753798379
 20
631.1093025579537
 30
0.0
 11
823.29356753798379
 21
628.80930255795374
 31
0.0
  0
LINE
  5
4D
  8
0
 10
801.29356753798368
 20
631.10930255795381
 30
0.0
 11
801.29356753798368
 21
628.80930255795374
 31
0.0
  0
ARC
  5
4E
  8
0
 10
812.29356753798368
 20
585.80930255795374
 30
0.0
 40
50.0
 50
253.73979529168051
 51
286.2602047083044
  0
LINE
  5
4F
  8
0
 10
798.29356753798368
 20
598.80930255795386
 30
0.0
 11
798.29356753797742
 21
537.80930255795556
 31
0.0
  0
LINE
  5
50
  8
0
 10
826.29356753797754
 20
598.8092892065132
 30
0.0
 11
826.29356753797754
 21
537.80930255795192
 31
0.0
  0
LINE
  5
51
  8
0
 10
798.29356753797742
 20
537.80930255795556
 30
0.0
 11
826.29356753797754
 21
537.80930255795192
 31
0.0
  0
LINE
  5
52
  8
0
 10
798.29356753798368
 20
598.80930255795386
 30
0.0
 11
799.44373738638546
 21
626.41337891973365
 31
0.0
  0
LINE
  5
53
  8
0
 10
801.29356753798368
 20
628.80930255795374
 30
0.0
 11
823.29356753798379
 21
628.80930255795374
 31
0.0
  0
LINE
  5
54
  8
0
 10
825.14339764706745
 20
626.41337887349539
 30
0.0
 11
826.29356753797754
 21
598.8092892065132
 31
0.0
  0
ARC
  5
55
  8
0
 10
822.64556496240994
 20
626.30930255795374
 30
0.0
 40
2.5
 50
2.38594296975681
 51
90.0
  0
ARC
  5
56
  8
0
 10
801.94157006911644
 20
626.30930255795374
 30
0.0
 40
2.5
 50
90.0
 51
177.61405596962311
  0
LINE
  5
57
  8
0
 10
798.29356753798368
 20
598.80930255795386
 30
0.0
 11
826.29356753797754
 21
598.8092892065132
 31
0.0
  0
LINE
  5
58
  8
1
 10
796.29356753798447
 20
641.30930255795374
 30
0.0
 11
828.29356753798493
 21
641.30930255795374
 31
0.0
  0
LINE
  5
59
  8
0
 10
801.29356753798368
 20
631.10930255795381
 30
0.0
 11
823.29356753798379
 21
631.10930255795381
 31
0.0
  0
LINE
  5
5A
  8
0
 10
823.29356753798379
 20
631.1093025579537
 30
0.0
 11
822.59356753798374
 21
631.80930255795374
 31
0.0
  0
LINE
  5
5B
  8
0
 10
801.29356753798368
 20
631.10930255795381
 30
0.0
 11
801.99356753798372
 21
631.80930255795374
 31
0.0
  0
ARC
  5
5C
  8
0
 10
812.29356753798368
 20
641.30930255795374
 30
0.0
 40
11.0
 50
300.27264131891638
 51
239.7273586810837
  0
LINE
  5
5D
  8
0
 10
814.79356753798095
 20
631.80930255795374
 30
0.0
 11
814.79356753798095
 21
636.97917553903153
 31
0.0
  0
ARC
  5
5E
  8
0
 10
812.29356753798368
 20
641.30930255795374
 30
0.0
 40
5.0
 50
233.1301023541904
 51
306.86989764582319
  0
LINE
  5
5F
  8
0
 10
809.79356753798675
 20
631.80930255795374
 30
0.0
 11
809.79356753798675
 21
636.97917553902982
 31
0.0
  0
ARC
  5
60
  8
0
 10
812.29356753798368
 20
641.30930255795374
 30
0.0
 40
3.0
 50
0.0
 51
180.0
  0
LINE
  5
61
  8
0
 10
815.29356753798015
 20
641.30930255795374
 30
0.0
 11
815.29356753798015
 21
631.80930255795374
 31
0.0
  0
LINE
  5
62
  8
0
 10
809.29356753798731
 20
641.30930255795374
 30
0.0
 11
809.29356753798731
 21
631.80930255795374
 31
0.0
  0
LINE
  5
63
  8
2
 10
1071.326093886006
 20
649.30930255794885
 30
0.0
 11
1071.326093886006
 21
633.30930255795784
 31
0.0
  0
LINE
  5
64
  8
2
 10
1071.326093886006
 20
633.30930255795795
 30
0.0
 11
1071.7260938860061
 21
633.30930255795795
 31
0.0
  0
LINE
  5
65
  8
2
 10
1071.326093886006
 20
649.30930255794885
 30
0.0
 11
1071.7260938860049
 21
649.30930255794885
 31
0.0
  0
LINE
  5
66
  8
2
 10
1071.7260938860049
 20
649.30930255794885
 30
0.0
 11
1071.7260938860061
 21
633.30930255795784
 31
0.0
  0
LINE
  5
67
  8
2
 10
1071.326093886006
 20
649.30930255794897
 30
0.0
 11
1067.326093886006
 21
645.30930255794885
 31
0.0
  0
LINE
  5
68
  8
2
 10
1071.326093886006
 20
633.30930255795795
 30
0.0
 11
1067.326093886006
 21
637.30930255795795
 31
0.0
  0
LINE
  5
69
  8
2
 10
1067.326093886006
 20
645.30930255794885
 30
0.0
 11
1067.326093886006
 21
637.30930255795795
 31
0.0
  0
LINE
  5
6A
  8
2
 10
1056.7260938860061
 20
644.10930255794983
 30
0.0
 11
1056.7260938860061
 21
638.50930255795708
 31
0.0
  0
LINE
  5
6B
  8
2
 10
1057.9260938860059
 20
637.30930255795715
 30
0.0
 11
1067.326093886006
 21
637.30930255795715
 31
0.0
  0
LINE
  5
6C
  8
2
 10
1057.9260938860059
 20
645.30930255794965
 30
0.0
 11
1067.326093886006
 21
645.30930255794965
 31
0.0
  0
LINE
  5
6D
  8
2
 10
1057.9260938860059
 20
645.30930255794965
 30
0.0
 11
1057.9260938860059
 21
637.30930255795727
 31
0.0
  0
LINE
  5
6E
  8
2
 10
1056.7260938860061
 20
638.50930255795708
 30
0.0
 11
1057.9260938860059
 21
637.30930255795715
 31
0.0
  0
LINE
  5
6F
  8
2
 10
1056.7260938860061
 20
644.10930255794983
 30
0.0
 11
1057.9260938860059
 21
645.30930255794965
 31
0.0
  0
LINE
  5
70
  8
2
 10
1066.126093886005
 20
637.98580255795343
 30
0.0
 11
1057.24959388601
 21
637.98580255795343
 31
0.0
  0
LINE
  5
71
  8
2
 10
1066.126093886005
 20
645.30930255794885
 30
0.0
 11
1066.126093886005
 21
637.30930255795795
 31
0.0
  0
LINE
  5
72
  8
2
 10
1066.126093886005
 20
644.63280255795326
 30
0.0
 11
1057.24959388601
 21
644.63280255795326
 31
0.0
  0
ARC
  5
73
  8
2
 10
1042.8260938860069
 20
633.80930255795352
 30
0.0
 40
2.0
 50
221.40962210785301
 51
270.0
  0
LINE
  5
74
  8
2
 10
1064.8260938860069
 20
632.30930255795352
 30
0.0
 11
1064.3260938860069
 21
631.80930255795352
 31
0.0
  0
LINE
  5
75
  8
2
 10
1064.3260938860069
 20
652.30930255795067
 30
0.0
 11
1064.8260938860069
 21
651.80930255795056
 31
0.0
  0
LINE
  5
76
  8
2
 10
1064.3260938860069
 20
652.30930255795067
 30
0.0
 11
1041.3260938860069
 21
652.30930255795374
 31
0.0
  0
LINE
  5
77
  8
0
 10
1040.8260938860069
 20
633.80930255795352
 30
0.0
 11
1040.8260938860069
 21
651.80930255795363
 31
0.0
  0
LINE
  5
78
  8
1
 10
1050.8260938860069
 20
657.30930255795363
 30
0.0
 11
1050.8260938860069
 21
515.80930255795613
 31
0.0
  0
LINE
  5
79
  8
2
 10
1064.3260938860069
 20
631.80930255795352
 30
0.0
 11
1041.326093886006
 21
631.8093025579534
 31
0.0
  0
ARC
  5
7A
  8
0
 10
1042.8260938860069
 20
633.80930255795352
 30
0.0
 40
2.0
 50
180.0
 51
221.40962210785301
  0
LINE
  5
7B
  8
1
 10
1020.826093886007
 20
641.3093025579534
 30
0.0
 11
1091.8260938860069
 21
641.3093025579534
 31
0.0
  0
LINE
  5
7C
  8
0
 10
1039.8260938860069
 20
631.10930255795358
 30
0.0
 11
1040.5260938860069
 21
631.80930255795352
 31
0.0
  0
LINE
  5
7D
  8
2
 10
1061.8260938860069
 20
631.10930255795336
 30
0.0
 11
1061.1260938860071
 21
631.80930255795352
 31
0.0
  0
LINE
  5
7E
  8
2
 10
1041.326093886006
 20
631.10930255795358
 30
0.0
 11
1061.8260938860069
 21
631.10930255795358
 31
0.0
  0
LINE
  5
7F
  8
2
 10
1041.326093886006
 20
598.80930041218642
 30
0.0
 11
1064.8260938860001
 21
598.80928920651309
 31
0.0
  0
ARC
  5
80
  8
0
 10
1040.474096417139
 20
626.30930255795352
 30
0.0
 40
2.5
 50
90.0
 51
177.61405596962311
  0
ARC
  5
81
  8
2
 10
1061.178091310433
 20
626.30930255795352
 30
0.0
 40
2.5
 50
2.38594296975681
 51
90.0
  0
LINE
  5
82
  8
2
 10
1063.67592399509
 20
626.41337887349528
 30
0.0
 11
1064.8260938860001
 21
598.80928920651309
 31
0.0
  0
LINE
  5
83
  8
2
 10
1041.3260938860069
 20
628.80930255795329
 30
0.0
 11
1061.178091310433
 21
628.8093025579534
 31
0.0
  0
LINE
  5
84
  8
0
 10
1036.8260938860069
 20
598.80930255795363
 30
0.0
 11
1037.9762637344079
 21
626.41337891973342
 31
0.0
  0
LINE
  5
85
  8
2
 10
1041.326093886006
 20
537.80930255795477
 30
0.0
 11
1064.8260938860001
 21
537.80930255795158
 31
0.0
  0
LINE
  5
86
  8
2
 10
1064.8260938860001
 20
598.80928920651309
 30
0.0
 11
1064.8260938860001
 21
537.80930255795158
 31
0.0
  0
LINE
  5
87
  8
0
 10
1036.8260938860069
 20
598.80930255795363
 30
0.0
 11
1036.8260938860001
 21
537.80930255795533
 31
0.0
  0
ARC
  5
88
  8
2
 10
1050.8260938860069
 20
585.80930255795352
 30
0.0
 40
50.0
 50
259.04721580110839
 51
286.2602047083044
  0
LINE
  5
89
  8
0
 10
1039.8260938860069
 20
631.10930255795358
 30
0.0
 11
1039.8260938860069
 21
628.8093025579534
 31
0.0
  0
LINE
  5
8A
  8
2
 10
1061.8260938860069
 20
631.10930255795336
 30
0.0
 11
1061.8260938860069
 21
628.8093025579534
 31
0.0
  0
LINE
  5
8B
  8
0
 10
1040.5260938860069
 20
631.80930255795352
 30
0.0
 11
1041.326093886006
 21
631.80930255795352
 31
0.0
  0
LINE
  5
8C
  8
0
 10
1040.8260938860069
 20
651.80930255795363
 30
0.0
 11
1041.3260938860069
 21
652.30930255795363
 31
0.0
  0
CIRCLE
  5
8D
  8
0
 10
1331.2308795138631
 20
641.30930255795408
 30
0.0
 40
8.0
  0
LINE
  5
8E
  8
0
 10
1333.730879511829
 20
642.75267822975377
 30
0.0
 11
1333.730879511829
 21
639.86592688380597
 31
0.0
  0
LINE
  5
8F
  8
0
 10
1333.730879511827
 20
639.86592688615394
 30
0.0
 11
1331.2308795118281
 21
638.42255121317987
 31
0.0
  0
LINE
  5
90
  8
0
 10
1331.230879513864
 20
638.42255121435619
 30
0.0
 11
1328.730879513864
 21
639.86592688732992
 31
0.0
  0
LINE
  5
91
  8
0
 10
1328.730879515897
 20
639.86592688615565
 30
0.0
 11
1328.730879515897
 21
642.75267823210345
 31
0.0
  0
LINE
  5
92
  8
0
 10
1328.730879515897
 20
642.75267822975377
 30
0.0
 11
1331.2308795158981
 21
644.19605390272784
 31
0.0
  0
LINE
  5
93
  8
0
 10
1331.230879513864
 20
644.19605390155129
 30
0.0
 11
1333.730879513864
 21
642.75267822857768
 31
0.0
  0
CIRCLE
  5
94
  8
0
 10
1331.2308795138631
 20
641.30930255795386
 30
0.0
 40
8.4999999999928377
  0
LINE
  5
95
  8
0
 10
1098.3260938860069
 20
511.30930255795352
 30
0.0
 11
1098.3260938860069
 21
561.30930255795352
 31
0.0
  0
LINE
  5
96
  8
0
 10
1096.869670859865
 20
563.8319012365447
 30
0.0
 11
1096.8696708598659
 21
508.78670387936461
 31
0.0
  0
ARC
  5
97
  8
2
 10
1081.326099364451
 20
556.30930255796
 30
0.0
 40
50.0
 50
269.99999372216558
 51
287.35643005323129
  0
ARC
  5
98
  8
2
 10
1081.3260938860069
 20
516.30930255795215
 30
0.0
 40
10.0
 50
239.99999999996149
 51
270.0
  0
ARC
  5
99
  8
0
 10
1063.326093886006
 20
656.30930255795352
 30
0.0
 40
5.0
 50
0.0
 51
90.0
  0
POLYLINE
  5
9A
  8
2
 66
     1
 10
0.0
 20
0.0
 30
0.0
  0
VERTEX
  5
9B
  8
2
 10
760.53331597133695
 20
444.95353449836489
 30
0.0
 42
-0.0773499965443019
  0
VERTEX
  5
9C
  8
2
 10
757.13021573946855
 20
441.05434668770607
 30
0.0
 42
-0.0870842337394132
  0
VERTEX
  5
9D
  8
2
 10
753.14633012346474
 20
438.74623031077363
 30
0.0
 42
-0.105658500619103
 70
     2
 50
200.13241406842749
  0
VERTEX
  5
9E
  8
2
 10
748.419441442324
 20
438.07605323689978
 30
0.0
 42
-0.1449457769526317
  0
VERTEX
  5
9F
  8
2
 10
745.12769755365116
 20
439.30599407941583
 30
0.0
 42
-0.1239995065677658
  0
VERTEX
  5
A0
  8
2
 10
742.50404727519469
 20
442.06154342101871
 30
0.0
 42
-0.1056585006191176
  0
VERTEX
  5
A1
  8
2
 10
741.17462446960656
 20
446.3049237803458
 30
0.0
 42
-0.0870842337393992
 70
     2
 50
95.332609731474875
  0
VERTEX
  5
A2
  8
2
 10
741.54559095010347
 20
450.8941644235469
 30
0.0
 42
-0.0773499965443061
  0
VERTEX
  5
A3
  8
2
 10
743.60276747091234
 20
455.64314131685478
 30
0.0
 42
-0.0142133061433492
  0
VERTEX
  5
A4
  8
2
 10
744.13619251642217
 20
456.4370781606691
 30
0.0
 42
-0.0870842337394245
  0
SEQEND
  5
A5
  8
2
  0
POLYLINE
  5
A6
  8
2
 66
     1
 10
0.0
 20
0.0
 30
0.0
  0
VERTEX
  5
A7
  8
2
 10
738.65239112075017
 20
461.46294569346878
 30
0.0
 42
-0.0773499965443019
  0
VERTEX
  5
A8
  8
2
 10
734.35606465150829
 20
458.57740663800229
 30
0.0
 42
-0.0870842337394132
  0
VERTEX
  5
A9
  8
2
 10
729.91054216936539
 20
457.37904289037419
 30
0.0
 42
-0.105658500619103
 70
     2
 50
185.13241406842749
  0
VERTEX
  5
AA
  8
2
 10
725.17126372394864
 20
457.95511036129147
 30
0.0
 42
-0.1449457769526317
  0
VERTEX
  5
AB
  8
2
 10
722.31001540274292
 20
459.9951079958737
 30
0.0
 42
-0.1239995065677658
  0
VERTEX
  5
AC
  8
2
 10
720.48895248895758
 20
463.33581493029482
 30
0.0
 42
-0.1056585006191176
  0
VERTEX
  5
AD
  8
2
 10
720.3030963195904
 20
467.77868555121648
 30
0.0
 42
-0.0870842337393992
 70
     2
 50
80.332609731474889
  0
VERTEX
  5
AE
  8
2
 10
721.84920530480883
 20
472.11553842129268
 30
0.0
 42
-0.0773499965443061
  0
VERTEX
  5
AF
  8
2
 10
725.06541090023347
 20
476.17026138826583
 30
0.0
 42
-0.0142133061433492
  0
VERTEX
  5
B0
  8
2
 10
725.78614590386849
 20
476.79908492923579
 30
0.0
 42
-0.0870842337394245
  0
SEQEND
  5
B1
  8
2
  0
POLYLINE
  5
B2
  8
2
 66
     1
 10
0.0
 20
0.0
 30
0.0
  0
VERTEX
  5
B3
  8
2
 10
721.78999074520004
 20
483.07301241943441
 30
0.0
 42
-0.0773499965443019
  0
VERTEX
  5
B4
  8
2
 10
716.893225587448
 20
481.39776683721141
 30
0.0
 42
-0.0870842337394132
  0
VERTEX
  5
B5
  8
2
 10
712.28902124975093
 20
481.39082222789892
 30
0.0
 42
-0.105658500619103
 70
     2
 50
170.13241406842741
  0
VERTEX
  5
B6
  8
2
 10
707.86032703408512
 20
483.17387619746069
 30
0.0
 42
-0.1449457769526317
  0
VERTEX
  5
B7
  8
2
 10
705.62456362500006
 20
485.8849081565678
 30
0.0
 42
-0.1239995065677658
  0
VERTEX
  5
B8
  8
2
 10
704.73019050401206
 20
489.58310902700572
 30
0.0
 42
-0.1056585006191176
  0
VERTEX
  5
B9
  8
2
 10
705.70056676166598
 20
493.92269561889691
 30
0.0
 42
-0.0870842337393992
 70
     2
 50
65.332609731474875
  0
VERTEX
  5
BA
  8
2
 10
708.31645347932943
 20
497.7116113597408
 30
0.0
 42
-0.0773499965443061
  0
VERTEX
  5
BB
  8
2
 10
712.47250905307271
 20
500.7957577309262
 30
0.0
 42
-0.0142133061433492
  0
VERTEX
  5
BC
  8
2
 10
713.33143711540629
 20
501.216614683915
 30
0.0
 42
-0.0870842337394245
  0
SEQEND
  5
BD
  8
2
  0
POLYLINE
  5
BE
  8
2
 66
     1
 10
0.0
 20
0.0
 30
0.0
  0
VERTEX
  5
BF
  8
2
 10
711.09525956384573
 20
508.3110443412109
 30
0.0
 42
-0.0773499965443019
  0
VERTEX
  5
C0
  8
2
 10
705.93176217079736
 20
507.96025745018579
 30
0.0
 42
-0.0870842337394132
  0
VERTEX
  5
C1
  8
2
 10
701.48264489435269
 20
509.14520524283699
 30
0.0
 42
-0.105658500619103
 70
     2
 50
155.13241406842741
  0
VERTEX
  5
C2
  8
2
 10
697.66634310047243
 20
512.01373352965356
 30
0.0
 42
-0.1449457769526317
  0
VERTEX
  5
C3
  8
2
 10
696.20842818506367
 20
515.21104746546484
 30
0.0
 42
-0.1239995065677658
  0
VERTEX
  5
C4
  8
2
 10
696.30169490704668
 20
519.01471599416504
 30
0.0
 42
-0.1056585006191176
  0
VERTEX
  5
C5
  8
2
 10
698.36217405338539
 20
522.95528290229424
 30
0.0
 42
-0.0870842337393992
 70
     2
 50
50.332609731474889
  0
VERTEX
  5
C6
  8
2
 10
701.8695701466421
 20
525.93805316764644
 30
0.0
 42
-0.0773499965443061
  0
VERTEX
  5
C7
  8
2
 10
706.68224737955995
 20
527.84144346464109
 30
0.0
 42
-0.0142133061433492
  0
VERTEX
  5
C8
  8
2
 10
707.62083397258948
 20
528.02565312380125
 30
0.0
 42
-0.0870842337394245
  0
SEQEND
  5
C9
  8
2
  0
POLYLINE
  5
CA
  8
2
 66
     1
 10
0.0
 20
0.0
 30
0.0
  0
VERTEX
  5
CB
  8
2
 10
707.29702583281778
 20
535.45711129114898
 30
0.0
 42
-0.0773499965443019
  0
VERTEX
  5
CC
  8
2
 10
702.21868001872645
 20
536.45468863824237
 30
0.0
 42
-0.0870842337394132
  0
VERTEX
  5
CD
  8
2
 10
698.22784979341009
 20
538.75077659900694
 30
0.0
 42
-0.105658500619103
 70
     2
 50
140.13241406842749
  0
VERTEX
  5
CE
  8
2
 10
695.28401508183106
 20
542.50929374079885
 30
0.0
 42
-0.1449457769526317
  0
VERTEX
  5
CF
  8
2
 10
694.70330315226545
 20
545.97499799239972
 30
0.0
 42
-0.1239995065677658
  0
VERTEX
  5
D0
  8
2
 10
695.77785374424684
 20
549.62492045499073
 30
0.0
 42
-0.1056585006191176
  0
VERTEX
  5
D1
  8
2
 10
698.78801753054995
 20
552.89792455666384
 30
0.0
 42
-0.0870842337393992
 70
     2
 50
35.332609731474882
  0
VERTEX
  5
D2
  8
2
 10
702.94789975189065
 20
554.87127848220155
 30
0.0
 42
-0.0773499965443061
  0
VERTEX
  5
D3
  8
2
 10
708.08922264388502
 20
555.46419980176631
 30
0.0
 42
-0.0142133061433492
  0
VERTEX
  5
D4
  8
2
 10
709.04350464238348
 20
555.39920858324695
 30
0.0
 42
-0.0870842337394245
  0
SEQEND
  5
D5
  8
2
  0
POLYLINE
  5
D6
  8
2
 66
     1
 10
0.0
 20
0.0
 30
0.0
  0
VERTEX
  5
D7
  8
2
 10
744.15027508555704
 20
616.19354189052149
 30
0.0
 42
-0.0773499965443019
  0
VERTEX
  5
D8
  8
2
 10
741.65016590187781
 20
620.72501084005819
 30
0.0
 42
-0.0870842337394132
  0
VERTEX
  5
D9
  8
2
 10
740.84381510393803
 20
625.25806104952301
 30
0.0
 42
-0.105658500619103
 70
     2
 50
90.132414068427465
  0
VERTEX
  5
DA
  8
2
 10
741.83074579720721
 20
629.92909752132709
 30
0.0
 42
-0.1449457769526317
  0
VERTEX
  5
DB
  8
2
 10
744.11235484751785
 20
632.60166041979073
 30
0.0
 42
-0.1239995065677658
  0
VERTEX
  5
DC
  8
2
 10
747.59906547430774
 20
634.12463184522346
 30
0.0
 42
-0.1056585006191176
  0
VERTEX
  5
DD
  8
2
 10
752.04122806366286
 20
633.9225590868565
 30
0.0
 42
-0.0870842337393992
 70
     2
 50
345.33260973147492
  0
VERTEX
  5
DE
  8
2
 10
756.22682562226134
 20
632.00435188003098
 30
0.0
 42
-0.0773499965443061
  0
VERTEX
  5
DF
  8
2
 10
759.98580835669225
 20
628.44699252607347
 30
0.0
 42
-0.0142133061433492
  0
VERTEX
  5
E0
  8
2
 10
760.54942283967569
 20
627.67419455395259
 30
0.0
 42
-0.0870842337394245
  0
SEQEND
  5
E1
  8
2
  0
POLYLINE
  5
E2
  8
2
 66
     1
 10
0.0
 20
0.0
 30
0.0
  0
VERTEX
  5
E3
  8
2
 10
767.14776401261236
 20
631.10833432541688
 30
0.0
 42
-0.0773499965443019
  0
VERTEX
  5
E4
  8
2
 10
765.90567444998476
 20
636.13247308637335
 30
0.0
 42
-0.0870842337394132
  0
VERTEX
  5
E5
  8
2
 10
766.30003911582151
 20
640.71976229910081
 30
0.0
 42
-0.105658500619103
 70
     2
 50
75.132414068427465
  0
VERTEX
  5
E6
  8
2
 10
768.46229416047902
 20
644.97620060314034
 30
0.0
 42
-0.1449457769526317
  0
VERTEX
  5
E7
  8
2
 10
771.3578694450257
 20
646.96717425344957
 30
0.0
 42
-0.1239995065677658
  0
VERTEX
  5
E8
  8
2
 10
775.11994729828746
 20
647.5358245710006
 30
0.0
 42
-0.1056585006191176
  0
VERTEX
  5
E9
  8
2
 10
779.35844658955887
 20
646.19092099533748
 30
0.0
 42
-0.0870842337393992
 70
     2
 50
330.3326097314748
  0
VERTEX
  5
EA
  8
2
 10
782.90495481228231
 20
643.25476275079097
 30
0.0
 42
-0.0773499965443061
  0
VERTEX
  5
EB
  8
2
 10
785.61514096496603
 20
638.84572115553033
 30
0.0
 42
-0.0142133061433492
  0
VERTEX
  5
EC
  8
2
 10
785.95953591694888
 20
637.9533814734632
 30
0.0
 42
-0.0870842337394245
  0
SEQEND
  5
ED
  8
2
  0
POLYLINE
  5
EE
  8
2
 66
     1
 10
0.0
 20
0.0
 30
0.0
  0
VERTEX
  5
EF
  8
2
 10
880.43685999041099
 20
616.19354189052149
 30
0.0
 42
0.0773499965443019
 50
55.0
  0
VERTEX
  5
F0
  8
2
 10
882.93696917409045
 20
620.72501084005819
 30
0.0
 42
0.0870842337394132
 50
55.0
  0
VERTEX
  5
F1
  8
2
 10
883.74331997203012
 20
625.25806104952301
 30
0.0
 42
0.105658500619103
 70
     2
 50
89.867585931572535
  0
VERTEX
  5
F2
  8
2
 10
882.75638927876082
 20
629.92909752132709
 30
0.0
 42
0.1449457769526317
 50
89.867585931572535
  0
VERTEX
  5
F3
  8
2
 10
880.47478022845019
 20
632.60166041979073
 30
0.0
 42
0.1239995065677658
 50
55.0
  0
VERTEX
  5
F4
  8
2
 10
876.98806960166041
 20
634.12463184522346
 30
0.0
 42
0.1056585006191176
 50
55.0
  0
VERTEX
  5
F5
  8
2
 10
872.54590701230507
 20
633.9225590868565
 30
0.0
 42
0.0870842337393992
 70
     2
 50
194.66739026852511
  0
VERTEX
  5
F6
  8
2
 10
868.36030945370669
 20
632.00435188003098
 30
0.0
 42
0.0773499965443061
 50
194.66739026852511
  0
VERTEX
  5
F7
  8
2
 10
864.60132671927579
 20
628.44699252607347
 30
0.0
 42
0.0142133061433492
 50
55.0
  0
VERTEX
  5
F8
  8
2
 10
864.03771223629224
 20
627.67419455395259
 30
0.0
 42
0.0870842337394245
 50
55.0
  0
SEQEND
  5
F9
  8
2
  0
POLYLINE
  5
FA
  8
2
 66
     1
 10
0.0
 20
0.0
 30
0.0
  0
VERTEX
  5
FB
  8
2
 10
857.43937106335568
 20
631.10833432541688
 30
0.0
 42
0.0773499965443019
 50
70.0
  0
VERTEX
  5
FC
  8
2
 10
858.68146062598316
 20
636.13247308637335
 30
0.0
 42
0.0870842337394132
 50
70.0
  0
VERTEX
  5
FD
  8
2
 10
858.28709596014664
 20
640.71976229910081
 30
0.0
 42
0.105658500619103
 70
     2
 50
104.86758593157251
  0
VERTEX
  5
FE
  8
2
 10
856.12484091548924
 20
644.97620060314034
 30
0.0
 42
0.1449457769526317
 50
104.86758593157251
  0
VERTEX
  5
FF
  8
2
 10
853.22926563094222
 20
646.96717425344957
 30
0.0
 42
0.1239995065677658
 50
70.0
  0
VERTEX
  5
100
  8
2
 10
849.46718777768058
 20
647.5358245710006
 30
0.0
 42
0.1056585006191176
 50
70.0
  0
VERTEX
  5
101
  8
2
 10
845.22868848640906
 20
646.19092099533748
 30
0.0
 42
0.0870842337393992
 70
     2
 50
209.66739026852511
  0
VERTEX
  5
102
  8
2
 10
841.68218026368572
 20
643.25476275079097
 30
0.0
 42
0.0773499965443061
 50
209.66739026852511
  0
VERTEX
  5
103
  8
2
 10
838.97199411100189
 20
638.84572115553033
 30
0.0
 42
0.0142133061433492
 50
70.0
  0
VERTEX
  5
104
  8
2
 10
838.62759915901916
 20
637.9533814734632
 30
0.0
 42
0.0870842337394245
 50
70.0
  0
SEQEND
  5
105
  8
2
  0
POLYLINE
  5
106
  8
2
 66
     1
 10
0.0
 20
0.0
 30
0.0
  0
VERTEX
  5
107
  8
2
 10
864.0538191046312
 20
444.95353449836489
 30
0.0
 42
0.0773499965443019
 50
305.0
  0
VERTEX
  5
108
  8
2
 10
867.45691933649925
 20
441.05434668770607
 30
0.0
 42
0.0870842337394132
 50
305.0
  0
VERTEX
  5
109
  8
2
 10
871.4408049525033
 20
438.74623031077363
 30
0.0
 42
0.105658500619103
 70
     2
 50
339.86758593157259
  0
VERTEX
  5
10A
  8
2
 10
876.16769363364403
 20
438.07605323689978
 30
0.0
 42
0.1449457769526317
 50
339.86758593157259
  0
VERTEX
  5
10B
  8
2
 10
879.45943752231676
 20
439.30599407941583
 30
0.0
 42
0.1239995065677658
 50
305.0
  0
VERTEX
  5
10C
  8
2
 10
882.08308780077346
 20
442.06154342101871
 30
0.0
 42
0.1056585006191176
 50
305.0
  0
VERTEX
  5
10D
  8
2
 10
883.41251060636148
 20
446.3049237803458
 30
0.0
 42
0.0870842337393992
 70
     2
 50
84.667390268525125
  0
VERTEX
  5
10E
  8
2
 10
883.04154412586468
 20
450.8941644235469
 30
0.0
 42
0.0773499965443061
 50
84.667390268525125
  0
VERTEX
  5
10F
  8
2
 10
880.98436760505581
 20
455.64314131685478
 30
0.0
 42
0.0142133061433492
 50
305.0
  0
VERTEX
  5
110
  8
2
 10
880.45094255954598
 20
456.4370781606691
 30
0.0
 42
0.0870842337394245
 50
305.0
  0
SEQEND
  5
111
  8
2
  0
POLYLINE
  5
112
  8
2
 66
     1
 10
0.0
 20
0.0
 30
0.0
  0
VERTEX
  5
113
  8
2
 10
885.93474395521787
 20
461.46294569346878
 30
0.0
 42
0.0773499965443019
 50
320.0
  0
VERTEX
  5
114
  8
2
 10
890.23107042445974
 20
458.57740663800229
 30
0.0
 42
0.0870842337394132
 50
320.0
  0
VERTEX
  5
115
  8
2
 10
894.67659290660276
 20
457.37904289037419
 30
0.0
 42
0.105658500619103
 70
     2
 50
354.86758593157248
  0
VERTEX
  5
116
  8
2
 10
899.41587135201939
 20
457.95511036129147
 30
0.0
 42
0.1449457769526317
 50
354.86758593157248
  0
VERTEX
  5
117
  8
2
 10
902.27711967322523
 20
459.9951079958737
 30
0.0
 42
0.1239995065677658
 50
320.0
  0
VERTEX
  5
118
  8
2
 10
904.09818258701046
 20
463.33581493029482
 30
0.0
 42
0.1056585006191176
 50
320.0
  0
VERTEX
  5
119
  8
2
 10
904.28403875637775
 20
467.77868555121648
 30
0.0
 42
0.0870842337393992
 70
     2
 50
99.667390268525111
  0
VERTEX
  5
11A
  8
2
 10
902.73792977115932
 20
472.11553842129268
 30
0.0
 42
0.0773499965443061
 50
99.667390268525111
  0
VERTEX
  5
11B
  8
2
 10
899.52172417573456
 20
476.17026138826583
 30
0.0
 42
0.0142133061433492
 50
320.0
  0
VERTEX
  5
11C
  8
2
 10
898.80098917209966
 20
476.79908492923579
 30
0.0
 42
0.0870842337394245
 50
320.0
  0
SEQEND
  5
11D
  8
2
  0
POLYLINE
  5
11E
  8
2
 66
     1
 10
0.0
 20
0.0
 30
0.0
  0
VERTEX
  5
11F
  8
2
 10
902.79714433076811
 20
483.07301241943441
 30
0.0
 42
0.0773499965443019
 50
335.0
  0
VERTEX
  5
120
  8
2
 10
907.69390948852015
 20
481.39776683721141
 30
0.0
 42
0.0870842337394132
 50
335.0
  0
VERTEX
  5
121
  8
2
 10
912.29811382621722
 20
481.39082222789892
 30
0.0
 42
0.105658500619103
 70
     2
 50
9.8675859315725223
  0
VERTEX
  5
122
  8
2
 10
916.72680804188303
 20
483.17387619746069
 30
0.0
 42
0.1449457769526317
 50
9.8675859315725223
  0
VERTEX
  5
123
  8
2
 10
918.96257145096786
 20
485.8849081565678
 30
0.0
 42
0.1239995065677658
 50
335.0
  0
VERTEX
  5
124
  8
2
 10
919.85694457195586
 20
489.58310902700572
 30
0.0
 42
0.1056585006191176
 50
335.0
  0
VERTEX
  5
125
  8
2
 10
918.88656831430205
 20
493.92269561889691
 30
0.0
 42
0.0870842337393992
 70
     2
 50
114.6673902685251
  0
VERTEX
  5
126
  8
2
 10
916.27068159663872
 20
497.7116113597408
 30
0.0
 42
0.0773499965443061
 50
114.6673902685251
  0
VERTEX
  5
127
  8
2
 10
912.11462602289544
 20
500.7957577309262
 30
0.0
 42
0.0142133061433492
 50
335.0
  0
VERTEX
  5
128
  8
2
 10
911.25569796056186
 20
501.216614683915
 30
0.0
 42
0.0870842337394245
 50
335.0
  0
SEQEND
  5
129
  8
2
  0
POLYLINE
  5
12A
  8
2
 66
     1
 10
0.0
 20
0.0
 30
0.0
  0
VERTEX
  5
12B
  8
2
 10
913.49187551212242
 20
508.3110443412109
 30
0.0
 42
0.0773499965443019
 50
350.0
  0
VERTEX
  5
12C
  8
2
 10
918.65537290517068
 20
507.96025745018579
 30
0.0
 42
0.0870842337394132
 50
350.0
  0
VERTEX
  5
12D
  8
2
 10
923.10449018161535
 20
509.14520524283699
 30
0.0
 42
0.105658500619103
 70
     2
 50
24.867585931572521
  0
VERTEX
  5
12E
  8
2
 10
926.92079197549583
 20
512.01373352965356
 30
0.0
 42
0.1449457769526317
 50
24.867585931572521
  0
VERTEX
  5
12F
  8
2
 10
928.37870689090437
 20
515.21104746546484
 30
0.0
 42
0.1239995065677658
 50
350.0
  0
VERTEX
  5
130
  8
2
 10
928.28544016892147
 20
519.01471599416504
 30
0.0
 42
0.1056585006191176
 50
350.0
  0
VERTEX
  5
131
  8
2
 10
926.22496102258265
 20
522.95528290229424
 30
0.0
 42
0.0870842337393992
 70
     2
 50
129.66739026852511
  0
VERTEX
  5
132
  8
2
 10
922.71756492932593
 20
525.93805316764644
 30
0.0
 42
0.0773499965443061
 50
129.66739026852511
  0
VERTEX
  5
133
  8
2
 10
917.90488769640808
 20
527.84144346464109
 30
0.0
 42
0.0142133061433492
 50
350.0
  0
VERTEX
  5
134
  8
2
 10
916.96630110337856
 20
528.02565312380125
 30
0.0
 42
0.0870842337394245
 50
350.0
  0
SEQEND
  5
135
  8
2
  0
POLYLINE
  5
136
  8
2
 66
     1
 10
0.0
 20
0.0
 30
0.0
  0
VERTEX
  5
137
  8
2
 10
917.29010924315025
 20
535.45711129114898
 30
0.0
 42
0.0773499965443019
 50
5.0
  0
VERTEX
  5
138
  8
2
 10
922.36845505724159
 20
536.45468863824237
 30
0.0
 42
0.0870842337394132
 50
5.0
  0
VERTEX
  5
139
  8
2
 10
926.35928528255795
 20
538.75077659900694
 30
0.0
 42
0.105658500619103
 70
     2
 50
39.867585931572521
  0
VERTEX
  5
13A
  8
2
 10
929.30311999413686
 20
542.50929374079885
 30
0.0
 42
0.1449457769526317
 50
39.867585931572521
  0
VERTEX
  5
13B
  8
2
 10
929.88383192370259
 20
545.97499799239972
 30
0.0
 42
0.1239995065677658
 50
5.0
  0
VERTEX
  5
13C
  8
2
 10
928.80928133172131
 20
549.62492045499073
 30
0.0
 42
0.1056585006191176
 50
5.0
  0
VERTEX
  5
13D
  8
2
 10
925.79911754541808
 20
552.89792455666384
 30
0.0
 42
0.0870842337393992
 70
     2
 50
144.66739026852511
  0
VERTEX
  5
13E
  8
2
 10
921.63923532407739
 20
554.87127848220155
 30
0.0
 42
0.0773499965443061
 50
144.66739026852511
  0
VERTEX
  5
13F
  8
2
 10
916.49791243208313
 20
555.46419980176631
 30
0.0
 42
0.0142133061433492
 50
5.0
  0
VERTEX
  5
140
  8
2
 10
915.54363043358455
 20
555.39920858324695
 30
0.0
 42
0.0870842337394245
 50
5.0
  0
SEQEND
  5
141
  8
2
  0
ARC
  5
142
  8
0
 10
821.17178883611666
 20
595.64881036330485
 30
0.0
 40
30.0
 50
279.83003038596542
 51
298.567903815835
  0
ARC
  5
143
  8
0
 10
803.41534623985331
 20
595.64881036330337
 30
0.0
 40
30.0
 50
241.43209618416549
 51
260.16996961401099
  0
LINE
  5
144
  8
0
 10
1068.3260938860069
 20
549.90164464008706
 30
0.0
 11
1077.813528324469
 21
535.14732027907655
 31
0.0
  0
LINE
  5
145
  8
0
 10
1068.326093886006
 20
571.03167029421797
 30
0.0
 11
1091.4630389732069
 21
538.03713499196476
 31
0.0
  0
LINE
  5
146
  8
0
 10
1091.463038973201
 20
565.61237057987046
 30
0.0
 11
1068.326093886006
 21
598.15669554359408
 31
0.0
  0
LINE
  5
147
  8
0
 10
1078.058216386117
 20
519.10089383944194
 30
0.0
 11
1068.326093886006
 21
484.09594632372711
 31
0.0
  0
LINE
  5
148
  8
0
 10
1341.230879513857
 20
641.30930255795374
 30
0.0
 11
1341.230879513857
 21
632.30930255795374
 31
0.0
  0
LINE
  5
149
  8
0
 10
1351.2308795138611
 20
641.30930255795374
 30
0.0
 11
1351.2308795138611
 21
638.52551600439608
 31
0.0
  0
LINE
  5
14A
  8
0
 10
1321.230879513869
 20
641.30930255795374
 30
0.0
 11
1321.230879513869
 21
632.30930255795374
 31
0.0
  0
LINE
  5
14B
  8
0
 10
1311.2308795138661
 20
641.30930255795374
 30
0.0
 11
1311.2308795138661
 21
638.52551600439608
 31
0.0
  0
ARC
  5
14C
  8
0
 10
1331.2308795138631
 20
641.30930255795397
 30
0.0
 40
20.0
 50
359.99999999999949
 51
180.00000000000051
  0
ARC
  5
14D
  8
0
 10
1331.2308795138631
 20
641.30930255795397
 30
0.0
 40
10.0
 50
359.99999999999898
 51
180.00000000000091
  0
LINE
  5
14E
  8
0
 10
1316.2308795138631
 20
632.30930255795374
 30
0.0
 11
1346.2308795138649
 21
632.30930255795374
 31
0.0
  0
LINE
  5
14F
  8
1
 10
1361.2308795138549
 20
641.30930255795374
 30
0.0
 11
1301.2308795138599
 21
641.30930255795386
 31
0.0
  0
ARC
  5
150
  8
0
 10
1081.326099364451
 20
516.30930255794692
 30
0.0
 40
50.0
 50
71.888245257573288
 51
77.959134155850577
  0
ARC
  5
151
  8
0
 10
1098.3300616925369
 20
501.90465877505369
 30
0.0
 40
7.0
 50
107.3564618012194
 51
160.53992496378689
  0
LINE
  5
152
  8
0
 10
1068.326093886006
 20
416.3093025579534
 30
0.0
 11
1068.326093886006
 21
656.30930255795352
 31
0.0
  0
LINE
  5
153
  8
0
 10
1071.50347876767
 20
446.9920053812582
 30
0.0
 11
1091.729944629089
 21
504.236708248978
 31
0.0
  0
LINE
  5
154
  8
0
 10
1098.3260938860069
 20
511.30930255795352
 30
0.0
 11
1096.8696708598659
 21
508.78670387936432
 31
0.0
  0
LINE
  5
155
  8
0
 10
1098.3260938860069
 20
561.30930255795363
 30
0.0
 11
1096.869670859865
 21
563.83190123654435
 31
0.0
  0
ARC
  5
156
  8
2
 10
1081.3260938860069
 20
556.30930255795477
 30
0.0
 40
10.0
 50
90.0
 51
120.0000000000384
  0
LINE
  5
157
  8
2
 10
1064.8260938860069
 20
632.30930255795352
 30
0.0
 11
1064.8260938860069
 21
651.80930255795056
 31
0.0
  0
LINE
  5
158
  8
0
 10
1071.8260938860069
 20
650.30930255795352
 30
0.0
 11
1067.817773459803
 21
658.50584862083133
 31
0.0
  0
LINE
  5
159
  8
0
 10
1071.8260938860069
 20
632.30930255795352
 30
0.0
 11
1071.8260938860069
 21
650.30930255795352
 31
0.0
  0
LINE
  5
15A
  8
0
 10
1068.3260938860069
 20
632.30930255795352
 30
0.0
 11
1071.8260938860069
 21
632.30930255795352
 31
0.0
  0
LINE
  5
15B
  8
2
 10
1076.3260938860069
 20
507.6490485201146
 30
0.0
 11
1076.326093886006
 21
512.87071566335942
 31
0.0
  0
ARC
  5
15C
  8
0
 10
1114.8260938860069
 20
512.80930255795352
 30
0.0
 40
1.5
 50
270.0
 51
0.0
  0
ARC
  5
15D
  8
0
 10
1114.8260938860069
 20
559.80930255795352
 30
0.0
 40
1.5
 50
0.0
 51
90.0
  0
LINE
  5
15E
  8
0
 10
1114.8260938860069
 20
511.30930255795352
 30
0.0
 11
1098.3260938860069
 21
511.30930255795352
 31
0.0
  0
LINE
  5
15F
  8
0
 10
1116.3260938860069
 20
559.80930255795352
 30
0.0
 11
1116.3260938860069
 21
512.80930255795352
 31
0.0
  0
LINE
  5
160
  8
0
 10
1098.3260938860069
 20
561.30930255795352
 30
0.0
 11
1114.8260938860069
 21
561.30930255795352
 31
0.0
  0
ARC
  5
161
  8
0
 10
1046.3260938860069
 20
656.30930255795363
 30
0.0
 40
5.0
 50
90.0
 51
179.99999999999989
  0
ARC
  5
162
  8
0
 10
1063.3260938860069
 20
416.3093025579534
 30
0.0
 40
5.0
 50
270.0
 51
0.0
  0
ARC
  5
163
  8
0
 10
1046.3260938860069
 20
416.3093025579534
 30
0.0
 40
5.0
 50
180.0
 51
269.99999999999989
  0
LINE
  5
164
  8
0
 10
1041.3260938860069
 20
656.30930255795363
 30
0.0
 11
1041.3260938860069
 21
416.3093025579534
 31
0.0
  0
LINE
  5
165
  8
0
 10
1063.3260938860069
 20
661.30930255795363
 30
0.0
 11
1046.3260938860069
 21
661.30930255795363
 31
0.0
  0
LINE
  5
166
  8
0
 10
1046.3260938860069
 20
411.30930255795352
 30
0.0
 11
1063.3260938860069
 21
411.30930255795352
 31
0.0
  0
LINE
  5
167
  8
1
 10
1021.326093886007
 20
536.3093025579534
 30
0.0
 11
1136.3260938860069
 21
536.30930255795363
 31
0.0
  0
LINE
  5
168
  8
1
 10
843.29356753798572
 20
641.30930255795374
 30
0.0
 11
781.29356753798197
 21
641.30930255795374
 31
0.0
  0
ARC
  5
169
  8
0
 10
812.2935675379839
 20
536.30930255795374
 30
0.0
 40
104.9999999999994
 50
103.1426880273744
 51
135.96440082096609
  0
ARC
  5
16A
  8
0
 10
812.29356753798368
 20
536.30930255795374
 30
0.0
 40
104.9999999999994
 50
44.035599179033817
 51
76.857311972625567
  0
ARC
  5
16B
  8
0
 10
812.29356753798368
 20
536.30930255795363
 30
0.0
 40
110.0
 50
105.21986737831411
 51
74.780132621685965
  0
ARC
  5
16C
  8
0
 10
786.30371476778032
 20
631.83692972927611
 30
0.0
 40
11.0
 50
2.4612086153313211
 51
105.2198770565369
  0
ARC
  5
16D
  8
0
 10
790.31125020892819
 20
631.81206547528859
 30
0.0
 40
7.0
 50
4.0733713802544687
 51
105.6693633501464
  0
ARC
  5
16E
  8
0
 10
834.27588486703939
 20
631.81206547528859
 30
0.0
 40
7.0
 50
74.33063664985356
 51
175.92662861974549
  0
ARC
  5
16F
  8
0
 10
838.28342030818715
 20
631.83692972927611
 30
0.0
 40
11.0
 50
74.780122943463056
 51
177.53879138466871
  0
ARC
  5
170
  8
0
 10
812.29356753798368
 20
536.30930255795363
 30
0.0
 40
105.0
 50
164.03559917903331
 51
247.25702189969931
  0
ARC
  5
171
  8
0
 10
812.29356753798368
 20
536.30930255795363
 30
0.0
 40
105.0
 50
292.74297810030077
 51
15.96440082096662
  0
LINE
  5
172
  8
0
 10
797.29356753798368
 20
632.30930255795363
 30
0.0
 11
805.9690122176446
 21
632.30930255795363
 31
0.0
  0
ARC
  5
173
  8
0
 10
719.03458883045425
 20
562.98818728780145
 30
0.0
 40
8.0000000000003055
 50
58.567903815836189
 51
164.03559917903351
  0
ARC
  5
174
  8
0
 10
742.55948626353461
 20
603.73450488474305
 30
0.0
 40
7.9999999999995959
 50
135.9644008209664
 51
241.432096184165
  0
LINE
  5
175
  8
0
 10
789.06934771696103
 20
569.30128056673277
 30
0.0
 11
738.73388665743005
 21
596.70849693899129
 31
0.0
  0
ARC
  5
176
  8
0
 10
774.79356753798356
 20
446.85121181150419
 30
0.0
 40
8.0000000000000568
 50
247.2570218996992
 51
0.0
  0
LINE
  5
177
  8
0
 10
723.20649039561465
 20
569.81425770427234
 30
0.0
 11
768.43819840733613
 21
542.16991448248518
 31
0.0
  0
LINE
  5
178
  8
0
 10
782.79356753798356
 20
516.57215581551839
 30
0.0
 11
782.79356753798379
 21
446.85120641670773
 31
0.0
  0
ARC
  5
179
  8
0
 10
752.79356753798368
 20
516.57215042072175
 30
0.0
 40
30.0
 50
0.0000000000000509
 51
58.567903815832267
  0
ARC
  5
17A
  8
0
 10
871.79356753798379
 20
516.57215042072175
 30
0.0
 40
30.0
 50
121.4320961841677
 51
179.99999999999989
  0
LINE
  5
17B
  8
0
 10
841.79356753798368
 20
516.57215976478369
 30
0.0
 11
841.79356753798368
 21
446.85121181150419
 31
0.0
  0
LINE
  5
17C
  8
0
 10
901.38064468035293
 20
569.81425770427222
 30
0.0
 11
856.14893666863134
 21
542.16991448248518
 31
0.0
  0
ARC
  5
17D
  8
0
 10
849.79356753798368
 20
446.85121181150419
 30
0.0
 40
8.0000000000000568
 50
180.0
 51
292.74297810030077
  0
LINE
  5
17E
  8
0
 10
835.51778735900928
 20
569.30128056673425
 30
0.0
 11
885.85324841853742
 21
596.70849693899129
 31
0.0
  0
ARC
  5
17F
  8
0
 10
882.02764881243309
 20
603.73450488474305
 30
0.0
 40
7.9999999999995959
 50
298.567903815835
 51
44.035599179033561
  0
ARC
  5
180
  8
0
 10
905.55254624551333
 20
562.98818728780145
 30
0.0
 40
8.0000000000003055
 50
15.964400820966469
 51
121.4320961841638
  0
ARC
  5
181
  8
0
 10
812.29356753798368
 20
536.30930255795363
 30
0.0
 40
28.6602540378444
 50
119.2408148570982
 51
60.759185142924707
  0
LINE
  5
182
  8
1
 10
812.29356753798368
 20
681.30930255795363
 30
0.0
 11
812.29356753798368
 21
391.30930255795357
 31
0.0
  0
LINE
  5
183
  8
1
 10
957.29356753798379
 20
536.30930255795363
 30
0.0
 11
667.29356753798379
 21
536.30930255795363
 31
0.0
  0
CIRCLE
  5
184
  8
0
 10
812.29356753798368
 20
536.30930255795363
 30
0.0
 40
125.0
  0
LINE
  5
185
  8
1
 10
158.637744423534
 20
536.30930255795363
 30
0.0
 11
43.637744423534052
 21
536.30930255795363
 31
0.0
  0
LINE
  5
186
  8
0
 10
133.637744423534
 20
411.30930255795352
 30
0.0
 11
116.637744423534
 21
411.30930255795352
 31
0.0
  0
LINE
  5
187
  8
0
 10
116.637744423534
 20
661.30930255795363
 30
0.0
 11
133.637744423534
 21
661.30930255795363
 31
0.0
  0
LINE
  5
188
  8
0
 10
138.637744423534
 20
656.30930255795363
 30
0.0
 11
138.637744423534
 21
416.3093025579534
 31
0.0
  0
ARC
  5
189
  8
0
 10
133.637744423534
 20
416.3093025579534
 30
0.0
 40
5.0
 50
270.00000000000011
 51
0.0000000000000254
  0
ARC
  5
18A
  8
0
 10
116.637744423534
 20
416.3093025579534
 30
0.0
 40
5.0
 50
180.0
 51
270.00000000000011
  0
ARC
  5
18B
  8
0
 10
133.637744423534
 20
656.30930255795363
 30
0.0
 40
5.0
 50
0.0000000000000763
 51
90.000000000000028
  0
LINE
  5
18C
  8
0
 10
81.637744423534045
 20
561.30930255795352
 30
0.0
 11
65.137744423534059
 21
561.30930255795352
 31
0.0
  0
LINE
  5
18D
  8
0
 10
63.637744423534059
 20
559.80930255795352
 30
0.0
 11
63.637744423534059
 21
512.80930255795352
 31
0.0
  0
LINE
  5
18E
  8
0
 10
65.137744423534059
 20
511.30930255795352
 30
0.0
 11
81.637744423534045
 21
511.30930255795352
 31
0.0
  0
ARC
  5
18F
  8
0
 10
65.137744423534059
 20
559.80930255795352
 30
0.0
 40
1.5
 50
90.000000000000028
 51
180.0
  0
ARC
  5
190
  8
0
 10
65.137744423534059
 20
512.80930255795352
 30
0.0
 40
1.5
 50
180.0
 51
270.00000000000011
  0
LINE
  5
191
  8
2
 10
103.637744423534
 20
507.6490485201146
 30
0.0
 11
103.6377444235345
 21
512.87071566335942
 31
0.0
  0
LINE
  5
192
  8
0
 10
111.6377444235343
 20
632.30930255795352
 30
0.0
 11
108.137744423534
 21
632.30930255795352
 31
0.0
  0
LINE
  5
193
  8
0
 10
108.137744423534
 20
632.30930255795352
 30
0.0
 11
108.137744423534
 21
650.30930255795352
 31
0.0
  0
LINE
  5
194
  8
0
 10
108.137744423534
 20
650.30930255795352
 30
0.0
 11
112.1460648497379
 21
658.50584862083133
 31
0.0
  0
LINE
  5
195
  8
2
 10
115.137744423534
 20
632.30930255795352
 30
0.0
 11
115.137744423534
 21
651.80930255795056
 31
0.0
  0
ARC
  5
196
  8
2
 10
98.637744423534059
 20
556.30930255795477
 30
0.0
 40
10.0
 50
59.999999999961538
 51
90.000000000000028
  0
LINE
  5
197
  8
0
 10
81.637744423534045
 20
561.30930255795363
 30
0.0
 11
83.094167449675766
 21
563.83190123654435
 31
0.0
  0
LINE
  5
198
  8
0
 10
81.637744423534045
 20
511.30930255795352
 30
0.0
 11
83.094167449674828
 21
508.78670387936432
 31
0.0
  0
LINE
  5
199
  8
0
 10
108.4603595418707
 20
446.9920053812582
 30
0.0
 11
88.233893680452184
 21
504.236708248978
 31
0.0
  0
LINE
  5
19A
  8
0
 10
111.6377444235345
 20
416.3093025579534
 30
0.0
 11
111.6377444235345
 21
656.30930255795352
 31
0.0
  0
ARC
  5
19B
  8
0
 10
81.633776617004074
 20
501.90465877505369
 30
0.0
 40
7.0
 50
19.460075036213141
 51
72.643538198780604
  0
ARC
  5
19C
  8
0
 10
98.637738945089936
 20
516.30930255794692
 30
0.0
 40
50.0
 50
102.04086584414939
 51
108.1117547424267
  0
LINE
  5
19D
  8
0
 10
101.90562192342389
 20
519.10089383944194
 30
0.0
 11
111.6377444235345
 21
484.09594632372711
 31
0.0
  0
LINE
  5
19E
  8
0
 10
88.500799336340151
 20
565.61237057987046
 30
0.0
 11
111.6377444235345
 21
598.15669554359408
 31
0.0
  0
LINE
  5
19F
  8
0
 10
111.6377444235345
 20
571.03167029421797
 30
0.0
 11
88.500799336333557
 21
538.03713499196476
 31
0.0
  0
LINE
  5
1A0
  8
0
 10
111.637744423534
 20
549.90164464008706
 30
0.0
 11
102.1503099850715
 21
535.14732027907655
 31
0.0
  0
ARC
  5
1A1
  8
0
 10
116.6377444235345
 20
656.30930255795352
 30
0.0
 40
5.0
 50
90.000000000000028
 51
180.0
  0
ARC
  5
1A2
  8
2
 10
98.637744423534059
 20
516.30930255795215
 30
0.0
 40
10.0
 50
270.00000000000011
 51
300.00000000003848
  0
ARC
  5
1A3
  8
2
 10
98.637738945089936
 20
556.30930255796
 30
0.0
 40
50.0
 50
252.64356994676871
 51
270.00000627783447
  0
LINE
  5
1A4
  8
0
 10
83.094167449675766
 20
563.8319012365447
 30
0.0
 11
83.094167449674387
 21
508.78670387936461
 31
0.0
  0
LINE
  5
1A5
  8
0
 10
81.637744423534045
 20
511.30930255795352
 30
0.0
 11
81.637744423533846
 21
561.30930255795352
 31
0.0
  0
LINE
  5
1A6
  8
0
 10
139.8377444235341
 20
652.30930255795352
 30
0.0
 11
139.8377444235341
 21
630.30930255794715
 31
0.0
  0
LINE
  5
1A7
  8
0
 10
139.137744423534
 20
651.80930255795363
 30
0.0
 11
138.637744423534
 21
652.30930255795363
 31
0.0
  0
LINE
  5
1A8
  8
0
 10
139.137744423534
 20
651.60930255795358
 30
0.0
 11
139.8377444235341
 21
652.30930255795352
 31
0.0
  0
LINE
  5
1A9
  8
0
 10
139.8377444235341
 20
630.30930255794715
 30
0.0
 11
139.137744423534
 21
631.00930255794719
 31
0.0
  0
LINE
  5
1AA
  8
1
 10
255.1377444235338
 20
641.3093025579534
 30
0.0
 11
88.137744423534045
 21
641.3093025579534
 31
0.0
  0
LINE
  5
1AB
  8
0
 10
139.8377444235341
 20
652.30930255795352
 30
0.0
 11
142.22318594172691
 21
652.30930255795352
 31
0.0
  0
ARC
  5
1AC
  8
0
 10
137.137744423534
 20
633.80930255795352
 30
0.0
 40
2.0
 50
318.5903778921471
 51
0.0000000000000254
  0
LINE
  5
1AD
  8
2
 10
115.637744423534
 20
631.80930255795352
 30
0.0
 11
137.137744423534
 21
631.80930255795352
 31
0.0
  0
LINE
  5
1AE
  8
0
 10
172.137744423534
 20
627.30930255795352
 30
0.0
 11
172.13775777497449
 21
655.30930255794715
 31
0.0
  0
ARC
  5
1AF
  8
0
 10
144.637744423534
 20
630.95730508908605
 30
0.0
 40
2.5
 50
180.0
 51
267.61405596962311
  0
ARC
  5
1B0
  8
0
 10
144.637744423534
 20
651.66129998237955
 30
0.0
 40
2.5
 50
92.38594296975684
 51
180.0
  0
LINE
  5
1B1
  8
0
 10
144.5336681079923
 20
654.15913266703717
 30
0.0
 11
172.13775777497449
 21
655.30930255794715
 31
0.0
  0
LINE
  5
1B2
  8
0
 10
142.137744423534
 20
630.95730508908605
 30
0.0
 11
142.137744423534
 21
651.66129998237955
 31
0.0
  0
LINE
  5
1B3
  8
0
 10
172.137744423534
 20
627.30930255795352
 30
0.0
 11
144.5336680617541
 21
628.45947240635519
 31
0.0
  0
LINE
  5
1B4
  8
0
 10
233.1377444235323
 20
627.30930255794726
 30
0.0
 11
233.13774442353599
 21
655.30930255794715
 31
0.0
  0
LINE
  5
1B5
  8
0
 10
172.13775777497449
 20
655.30930255794715
 30
0.0
 11
233.13774442353599
 21
655.30930255794715
 31
0.0
  0
LINE
  5
1B6
  8
0
 10
172.137744423534
 20
627.30930255795352
 30
0.0
 11
233.1377444235323
 21
627.30930255794726
 31
0.0
  0
ARC
  5
1B7
  8
0
 10
185.13774442353409
 20
641.3093025579534
 30
0.0
 40
50.0
 50
343.73979529168048
 51
16.26020470830446
  0
LINE
  5
1B8
  8
0
 10
139.8377444235341
 20
630.30930255794715
 30
0.0
 11
142.137744423534
 21
630.30930255794715
 31
0.0
  0
LINE
  5
1B9
  8
0
 10
139.137744423534
 20
631.00930255794719
 30
0.0
 11
139.137744423534
 21
651.80930255795363
 31
0.0
  0
LINE
  5
1BA
  8
2
 10
115.637744423534
 20
652.30930255795067
 30
0.0
 11
138.637744423534
 21
652.30930255795374
 31
0.0
  0
LINE
  5
1BB
  8
2
 10
115.637744423534
 20
652.30930255795067
 30
0.0
 11
115.137744423534
 21
651.80930255795056
 31
0.0
  0
LINE
  5
1BC
  8
2
 10
115.137744423534
 20
632.30930255795352
 30
0.0
 11
115.637744423534
 21
631.80930255795352
 31
0.0
  0
ARC
  5
1BD
  8
2
 10
137.137744423534
 20
633.80930255795352
 30
0.0
 40
2.0
 50
270.00000000000011
 51
318.5903778921471
  0
LINE
  5
1BE
  8
2
 10
113.8377444235352
 20
644.63280255795326
 30
0.0
 11
122.7142444235312
 21
644.63280255795326
 31
0.0
  0
LINE
  5
1BF
  8
2
 10
113.8377444235352
 20
645.30930255794885
 30
0.0
 11
113.8377444235352
 21
637.30930255795795
 31
0.0
  0
LINE
  5
1C0
  8
2
 10
113.8377444235352
 20
637.98580255795343
 30
0.0
 11
122.7142444235312
 21
637.98580255795343
 31
0.0
  0
LINE
  5
1C1
  8
2
 10
123.2377444235351
 20
644.10930255794983
 30
0.0
 11
122.037744423535
 21
645.30930255794965
 31
0.0
  0
LINE
  5
1C2
  8
2
 10
123.23774442353491
 20
638.50930255795708
 30
0.0
 11
122.037744423535
 21
637.30930255795715
 31
0.0
  0
LINE
  5
1C3
  8
2
 10
122.037744423535
 20
645.30930255794965
 30
0.0
 11
122.037744423535
 21
637.30930255795727
 31
0.0
  0
LINE
  5
1C4
  8
2
 10
122.037744423535
 20
645.30930255794965
 30
0.0
 11
112.6377444235345
 21
645.30930255794965
 31
0.0
  0
LINE
  5
1C5
  8
2
 10
122.037744423535
 20
637.30930255795715
 30
0.0
 11
112.6377444235343
 21
637.30930255795715
 31
0.0
  0
LINE
  5
1C6
  8
2
 10
123.2377444235351
 20
644.10930255794983
 30
0.0
 11
123.23774442353491
 21
638.50930255795708
 31
0.0
  0
LINE
  5
1C7
  8
2
 10
112.6377444235352
 20
645.30930255794885
 30
0.0
 11
112.6377444235352
 21
637.30930255795795
 31
0.0
  0
LINE
  5
1C8
  8
2
 10
108.6377444235349
 20
633.30930255795795
 30
0.0
 11
112.6377444235352
 21
637.30930255795795
 31
0.0
  0
LINE
  5
1C9
  8
2
 10
108.6377444235349
 20
649.30930255794897
 30
0.0
 11
112.6377444235352
 21
645.30930255794885
 31
0.0
  0
LINE
  5
1CA
  8
2
 10
108.2377444235353
 20
649.30930255794885
 30
0.0
 11
108.2377444235351
 21
633.30930255795784
 31
0.0
  0
LINE
  5
1CB
  8
2
 10
108.6377444235352
 20
649.30930255794885
 30
0.0
 11
108.2377444235353
 21
649.30930255794885
 31
0.0
  0
LINE
  5
1CC
  8
2
 10
108.6377444235349
 20
633.30930255795795
 30
0.0
 11
108.2377444235351
 21
633.30930255795795
 31
0.0
  0
LINE
  5
1CD
  8
2
 10
108.6377444235352
 20
649.30930255794885
 30
0.0
 11
108.6377444235349
 21
633.30930255795784
 31
0.0
  0
ARC
  5
1CE
  8
0
 10
103.83253666319931
 20
519.63661726214798
 30
0.0
 40
2.0
 50
95.589247077549558
 51
195.53706575153569
  0
ARC
  5
1CF
  8
0
 10
103.83253666319931
 20
534.06560247696939
 30
0.0
 40
2.0
 50
147.2578728793338
 51
264.41075292249451
  0
ARC
  5
1D0
  8
0
 10
77.038210608854115
 20
546.07511108453104
 30
0.0
 40
14.0
 50
298.51654498050431
 51
324.96049146903448
  0
ARC
  5
1D1
  8
0
 10
77.038210608854115
 20
573.65034667244174
 30
0.0
 40
14.0
 50
298.51654498050431
 51
324.96049146903448
  0
ARC
  5
1D2
  8
2
 10
98.637738945089936
 20
516.30930255794692
 30
0.0
 40
50.0
 50
89.999993722165627
 51
102.04086584414939
  0
LINE
  5
1D3
  8
2
 10
103.637744423534
 20
537.46049464809698
 30
0.0
 11
103.637744423534
 21
564.96955659578566
 31
0.0
  0
LINE
  5
1D4
  8
0
 10
103.637744423534
 20
512.8707156633601
 30
0.0
 11
103.637744423534
 21
537.46049464809732
 31
0.0
  0
ARC
  5
1D5
  8
0
 10
98.637738945089936
 20
556.30930255796
 30
0.0
 40
50.0
 50
251.88824525757329
 51
252.64356994676871
  0
LINE
  5
1D6
  8
0
 10
89.745708635762639
 20
514.30572576813131
 30
0.0
 11
111.6377444235345
 21
435.56344074711939
 31
0.0
  0
ARC
  5
1D7
  8
0
 10
80.111134936885037
 20
511.62710865460099
 30
0.0
 40
10.0
 50
15.53706575153698
 51
68.833150575837251
  0
LINE
  5
1D8
  8
0
 10
1041.326093886006
 20
631.10930255795358
 30
0.0
 11
1039.8260938860069
 21
631.10930255795358
 31
0.0
  0
LINE
  5
1D9
  8
0
 10
1041.3260938860069
 20
628.8093025579534
 30
0.0
 11
1040.474096417139
 21
628.8093025579534
 31
0.0
  0
ARC
  5
1DA
  8
0
 10
1050.8260938860069
 20
585.80930255795352
 30
0.0
 40
50.0
 50
253.73979529168
 51
259.04721580110839
  0
LINE
  5
1DB
  8
0
 10
1041.3260938860069
 20
537.80930255795477
 30
0.0
 11
1036.8260938860001
 21
537.80930255795704
 31
0.0
  0
LINE
  5
1DC
  8
0
 10
1041.3260938860069
 20
598.80930041218642
 30
0.0
 11
1036.8260938860069
 21
598.80930041218687
 31
0.0
  0
ARC
  5
1DD
  8
0
 10
1309.248562184808
 20
631.81206547528882
 30
0.0
 40
7.0
 50
4.0733713802544944
 51
105.6693633501464
  0
ARC
  5
1DE
  8
0
 10
1331.2308795138631
 20
536.30930255795386
 30
0.0
 40
104.9999999999994
 50
103.1426880273744
 51
135.9644008209662
  0
ARC
  5
1DF
  8
0
 10
1261.4967982394139
 20
603.73450488474316
 30
0.0
 40
7.9999999999995959
 50
135.9644008209664
 51
241.432096184165
  0
LINE
  5
1E0
  8
0
 10
1308.0066596928409
 20
569.30128056673288
 30
0.0
 11
1257.67119863331
 21
596.70849693899129
 31
0.0
  0
LINE
  5
1E1
  8
0
 10
1354.4550993348889
 20
569.30128056673425
 30
0.0
 11
1404.7905603944171
 21
596.7084969389914
 31
0.0
  0
ARC
  5
1E2
  8
0
 10
1400.964960788313
 20
603.73450488474316
 30
0.0
 40
7.9999999999995959
 50
298.567903815835
 51
44.035599179033589
  0
ARC
  5
1E3
  8
0
 10
1331.2308795138631
 20
536.30930255795386
 30
0.0
 40
104.9999999999994
 50
44.035599179033831
 51
76.857311972625581
  0
ARC
  5
1E4
  8
0
 10
1353.2131968429189
 20
631.81206547528882
 30
0.0
 40
7.0
 50
74.330636649853574
 51
175.92662861974549
  0
ARC
  5
1E5
  8
0
 10
1340.109100811997
 20
595.64881036330485
 30
0.0
 40
30.0
 50
261.4906760697699
 51
298.567903815835
  0
ARC
  5
1E6
  8
0
 10
1331.2308795138631
 20
536.30930255795363
 30
0.0
 40
30.0
 50
81.490676069770075
 51
98.509323930227737
  0
ARC
  5
1E7
  8
0
 10
1322.3526582157331
 20
595.64881036330348
 30
0.0
 40
30.0
 50
241.43209618416549
 51
278.50932393022788
  0
CIRCLE
  5
1E8
  8
0
 10
1331.2308795138631
 20
536.30930255795363
 30
0.0
 40
27.522598678588739
  0
ARC
  5
1E9
  8
0
 10
1390.7308795138631
 20
516.57215042072187
 30
0.0
 40
30.0
 50
121.4320961841677
 51
180.0
  0
ARC
  5
1EA
  8
0
 10
1271.7308795138631
 20
516.57215042072187
 30
0.0
 40
30.0
 50
0.0000000000000763
 51
58.567903815832302
  0
LINE
  5
1EB
  8
0
 10
1420.317956656233
 20
569.81425770427245
 30
0.0
 11
1375.086248644511
 21
542.16991448248541
 31
0.0
  0
LINE
  5
1EC
  8
0
 10
1360.7308795138631
 20
516.57215581551861
 30
0.0
 11
1360.7308795138631
 21
446.85120641670778
 31
0.0
  0
LINE
  5
1ED
  8
0
 10
1242.1438023714941
 20
569.81425770427234
 30
0.0
 11
1287.3755103832159
 21
542.16991448248541
 31
0.0
  0
LINE
  5
1EE
  8
0
 10
1301.7308795138631
 20
516.57215976478381
 30
0.0
 11
1301.7308795138631
 21
446.8512118115043
 31
0.0
  0
ARC
  5
1EF
  8
0
 10
1237.9719008063339
 20
562.98818728780168
 30
0.0
 40
8.0000000000003055
 50
58.56790381583621
 51
164.03559917903351
  0
ARC
  5
1F0
  8
0
 10
1331.2308795138631
 20
536.30930255795374
 30
0.0
 40
105.0
 50
164.0355991790334
 51
247.25702189969931
  0
ARC
  5
1F1
  8
0
 10
1293.7308795138631
 20
446.85121181150441
 30
0.0
 40
8.0000000000000568
 50
247.25702189969931
 51
0.0
  0
ARC
  5
1F2
  8
0
 10
1368.7308795138631
 20
446.85121181150441
 30
0.0
 40
8.0000000000000568
 50
180.0
 51
292.74297810030077
  0
ARC
  5
1F3
  8
0
 10
1331.2308795138631
 20
536.30930255795374
 30
0.0
 40
105.0
 50
292.74297810030077
 51
15.96440082096667
  0
ARC
  5
1F4
  8
0
 10
1424.489858221393
 20
562.98818728780168
 30
0.0
 40
8.0000000000003055
 50
15.964400820966491
 51
121.4320961841638
  0
CIRCLE
  5
1F5
  8
0
 10
1331.2308795138631
 20
536.30930255795363
 30
0.0
 40
125.0
  0
LINE
  5
1F6
  8
1
 10
1476.2308795138631
 20
536.30930255795363
 30
0.0
 11
1186.2308795138631
 21
536.30930255795363
 31
0.0
  0
LINE
  5
1F7
  8
1
 10
1331.2308795138631
 20
681.30930255795363
 30
0.0
 11
1331.2308795138631
 21
391.30930255795369
 31
0.0
  0
ARC
  5
1F9
  8
0
 10
1221.7313901983321
 20
531.47011838596802
 30
0.0
 40
4.6063678068598222
 50
290.75895966355682
 51
76.045571392748002
  0
ARC
  5
1FA
  8
0
 10
1224.210021792059
 20
559.97556285192309
 30
0.0
 40
4.6063678068598222
 50
275.75895966355682
 51
347.53037783806752
  0
POLYLINE
  5
1FB
  8
0
 66
     1
 10
0.0
 20
0.0
 30
0.0
  0
VERTEX
  5
1FC
  8
0
 10
1222.8422161368719
 20
535.94054231513155
 30
0.0
 42
-0.026208576244656
  0
VERTEX
  5
1FD
  8
0
 10
1221.1559919946051
 20
536.45468863824249
 30
0.0
 42
-0.0870842337394132
  0
VERTEX
  5
1FE
  8
0
 10
1217.1651617692889
 20
538.75077659900705
 30
0.0
 42
-0.105658500619103
 70
     2
 50
140.13241406842749
  0
VERTEX
  5
1FF
  8
0
 10
1214.2213270577099
 20
542.50929374079897
 30
0.0
 42
-0.1449457769526317
  0
VERTEX
  5
200
  8
0
 10
1213.640615128144
 20
545.97499799239984
 30
0.0
 42
-0.1239995065677658
  0
VERTEX
  5
201
  8
0
 10
1214.7151657201259
 20
549.62492045499084
 30
0.0
 42
-0.1056585006191176
  0
VERTEX
  5
202
  8
0
 10
1217.725329506429
 20
552.89792455666395
 30
0.0
 42
-0.0870842337393992
 70
     2
 50
35.332609731474911
  0
VERTEX
  5
203
  8
0
 10
1221.88521172777
 20
554.87127848220177
 30
0.0
 42
-0.0421991320163738
  0
VERTEX
  5
204
  8
0
 10
1224.672241547436
 20
555.39244412449261
 30
0.0
 42
-0.0142133061433492
  0
SEQEND
  5
205
  8
0
  0
ARC
  5
206
  8
0
 10
1226.714967844996
 20
503.29445632420379
 30
0.0
 40
4.6063678068598222
 50
305.75895966355671
 51
91.045571392748016
  0
ARC
  5
207
  8
0
 10
1238.8211321511831
 20
477.36870147365659
 30
0.0
 40
4.6063678068598222
 50
320.75895966355682
 51
106.045571392748
  0
ARC
  5
208
  8
0
 10
1257.224868025809
 20
455.45965118305548
 30
0.0
 40
4.6063678068598222
 50
335.75895966355671
 51
121.045571392748
  0
ARC
  5
209
  8
0
 10
1280.6719912826291
 20
439.0603710232877
 30
0.0
 40
4.6063678068598222
 50
62.530377783064552
 51
136.045571392748
  0
POLYLINE
  5
20A
  8
0
 66
     1
 10
0.0
 20
0.0
 30
0.0
  0
VERTEX
  5
20B
  8
0
 10
1226.630912454998
 20
507.90005716051968
 30
0.0
 42
-0.026208576244723
  0
VERTEX
  5
20C
  8
0
 10
1224.869074146676
 20
507.96025745018579
 30
0.0
 42
-0.0870842337394132
  0
VERTEX
  5
20D
  8
0
 10
1220.419956870232
 20
509.14520524283711
 30
0.0
 42
-0.105658500619103
 70
     2
 50
155.13241406842749
  0
VERTEX
  5
20E
  8
0
 10
1216.603655076352
 20
512.01373352965368
 30
0.0
 42
-0.1449457769526317
  0
VERTEX
  5
20F
  8
0
 10
1215.145740160943
 20
515.21104746546484
 30
0.0
 42
-0.1239995065677658
  0
VERTEX
  5
210
  8
0
 10
1215.2390068829261
 20
519.01471599416504
 30
0.0
 42
-0.1056585006191176
  0
VERTEX
  5
211
  8
0
 10
1217.299486029264
 20
522.95528290229436
 30
0.0
 42
-0.0870842337393992
 70
     2
 50
50.332609731474911
  0
VERTEX
  5
212
  8
0
 10
1220.8068821225211
 20
525.93805316764656
 30
0.0
 42
-0.0421991320163643
  0
VERTEX
  5
213
  8
0
 10
1223.364058610096
 20
527.16279691790703
 30
0.0
 42
-0.0142133061433492
  0
SEQEND
  5
214
  8
0
  0
POLYLINE
  5
215
  8
0
 66
     1
 10
0.0
 20
0.0
 30
0.0
  0
VERTEX
  5
216
  8
0
 10
1237.5479236685619
 20
481.79561513126509
 30
0.0
 42
-0.0262085762446784
  0
VERTEX
  5
217
  8
0
 10
1235.830537563327
 20
481.39776683721152
 30
0.0
 42
-0.0870842337394132
  0
VERTEX
  5
218
  8
0
 10
1231.22633322563
 20
481.39082222789909
 30
0.0
 42
-0.105658500619103
 70
     2
 50
170.13241406842749
  0
VERTEX
  5
219
  8
0
 10
1226.7976390099641
 20
483.1738761974608
 30
0.0
 42
-0.1449457769526317
  0
VERTEX
  5
21A
  8
0
 10
1224.5618756008789
 20
485.88490815656797
 30
0.0
 42
-0.1239995065677658
  0
VERTEX
  5
21B
  8
0
 10
1223.667502479891
 20
489.58310902700589
 30
0.0
 42
-0.1056585006191176
  0
VERTEX
  5
21C
  8
0
 10
1224.637878737545
 20
493.92269561889708
 30
0.0
 42
-0.0870842337393992
 70
     2
 50
65.332609731474903
  0
VERTEX
  5
21D
  8
0
 10
1227.2537654552079
 20
497.71161135974103
 30
0.0
 42
-0.0421991320163296
  0
VERTEX
  5
21E
  8
0
 10
1229.406821259
 20
499.55646895537109
 30
0.0
 42
-0.0142133061433492
  0
SEQEND
  5
21F
  8
0
  0
POLYLINE
  5
220
  8
0
 66
     1
 10
0.0
 20
0.0
 30
0.0
  0
VERTEX
  5
221
  8
0
 10
1254.8492735045891
 20
459.40619081199583
 30
0.0
 42
-0.0262085762447268
  0
VERTEX
  5
222
  8
0
 10
1253.293376627387
 20
458.57740663800229
 30
0.0
 42
-0.0870842337394132
  0
VERTEX
  5
223
  8
0
 10
1248.847854145245
 20
457.37904289037431
 30
0.0
 42
-0.105658500619103
 70
     2
 50
185.13241406842749
  0
VERTEX
  5
224
  8
0
 10
1244.108575699828
 20
457.95511036129159
 30
0.0
 42
-0.1449457769526317
  0
VERTEX
  5
225
  8
0
 10
1241.247327378622
 20
459.99510799587381
 30
0.0
 42
-0.1239995065677658
  0
VERTEX
  5
226
  8
0
 10
1239.426264464837
 20
463.33581493029487
 30
0.0
 42
-0.1056585006191176
  0
VERTEX
  5
227
  8
0
 10
1239.2404082954699
 20
467.7786855512166
 30
0.0
 42
-0.0870842337393992
 70
     2
 50
80.332609731474889
  0
VERTEX
  5
228
  8
0
 10
1240.786517280688
 20
472.11553842129291
 30
0.0
 42
-0.0421991320163259
  0
VERTEX
  5
229
  8
0
 10
1242.3887252057609
 20
474.45478586592668
 30
0.0
 42
-0.0142133061433492
  0
SEQEND
  5
22A
  8
0
  0
POLYLINE
  5
22B
  8
0
 66
     1
 10
0.0
 20
0.0
 30
0.0
  0
VERTEX
  5
22C
  8
0
 10
1277.355903563566
 20
442.25758646982342
 30
0.0
 42
-0.0262085762447065
  0
VERTEX
  5
22D
  8
0
 10
1276.067527715348
 20
441.05434668770619
 30
0.0
 42
-0.0870842337394132
  0
VERTEX
  5
22E
  8
0
 10
1272.0836420993439
 20
438.74623031077368
 30
0.0
 42
-0.105658500619103
 70
     2
 50
200.13241406842749
  0
VERTEX
  5
22F
  8
0
 10
1267.356753418203
 20
438.0760532368999
 30
0.0
 42
-0.1449457769526317
  0
VERTEX
  5
230
  8
0
 10
1264.06500952953
 20
439.30599407941588
 30
0.0
 42
-0.1239995065677658
  0
VERTEX
  5
231
  8
0
 10
1261.4413592510739
 20
442.06154342101883
 30
0.0
 42
-0.1056585006191176
  0
VERTEX
  5
232
  8
0
 10
1260.111936445486
 20
446.30492378034592
 30
0.0
 42
-0.0870842337393992
 70
     2
 50
95.332609731474889
  0
VERTEX
  5
233
  8
0
 10
1260.482902925982
 20
450.89416442354701
 30
0.0
 42
-0.0421991320164036
  0
VERTEX
  5
234
  8
0
 10
1261.4250751500069
 20
453.56838586963192
 30
0.0
 42
-0.0142133061433492
  0
SEQEND
  5
235
  8
0
  0
POLYLINE
  5
236
  8
0
 66
     1
 10
0.0
 20
0.0
 30
0.0
  0
VERTEX
  5
237
  8
0
 10
1285.089640725462
 20
634.38694739019502
 30
0.0
 42
-0.026208576244656
 50
295.0
  0
VERTEX
  5
238
  8
0
 10
1284.842986425864
 20
636.13247308637335
 30
0.0
 42
-0.0870842337394132
 50
295.0
  0
VERTEX
  5
239
  8
0
 10
1285.2373510917009
 20
640.71976229910081
 30
0.0
 42
-0.105658500619103
 70
     2
 50
75.132414068427508
  0
VERTEX
  5
23A
  8
0
 10
1287.399606136358
 20
644.97620060314046
 30
0.0
 42
-0.1449457769526317
 50
295.0
  0
VERTEX
  5
23B
  8
0
 10
1290.295181420905
 20
646.96717425344968
 30
0.0
 42
-0.1239995065677658
 50
295.0
  0
VERTEX
  5
23C
  8
0
 10
1294.0572592741671
 20
647.53582457100083
 30
0.0
 42
-0.1056585006191176
 50
295.0
  0
VERTEX
  5
23D
  8
0
 10
1298.2957585654381
 20
646.19092099533759
 30
0.0
 42
-0.0870842337393992
 70
     2
 50
330.33260973147492
  0
VERTEX
  5
23E
  8
0
 10
1301.8422667881609
 20
643.25476275079131
 30
0.0
 42
-0.0421991320163738
 50
295.0
  0
VERTEX
  5
23F
  8
0
 10
1303.492452965912
 20
640.94911004034873
 30
0.0
 42
-0.0142133061433492
 50
295.0
  0
SEQEND
  5
240
  8
0
  0
ARC
  5
241
  8
0
 10
1307.450826647937
 20
643.30493307390668
 30
0.0
 40
4.6063678068598222
 50
210.75895966355671
 51
282.53037783806752
  0
POLYLINE
  5
242
  8
0
 66
     1
 10
0.0
 20
0.0
 30
0.0
  0
VERTEX
  5
243
  8
0
 10
1261.277502929782
 20
619.10280131995205
 30
0.0
 42
-0.026208576244723
 50
295.0
  0
VERTEX
  5
244
  8
0
 10
1260.587477877757
 20
620.72501084005842
 30
0.0
 42
-0.0870842337394132
 50
295.0
  0
VERTEX
  5
245
  8
0
 10
1259.781127079817
 20
625.25806104952301
 30
0.0
 42
-0.105658500619103
 70
     2
 50
90.132414068427494
  0
VERTEX
  5
246
  8
0
 10
1260.768057773086
 20
629.92909752132709
 30
0.0
 42
-0.1449457769526317
 50
295.0
  0
VERTEX
  5
247
  8
0
 10
1263.049666823397
 20
632.60166041979073
 30
0.0
 42
-0.1239995065677658
 50
295.0
  0
VERTEX
  5
248
  8
0
 10
1266.536377450187
 20
634.12463184522335
 30
0.0
 42
-0.1056585006191176
 50
295.0
  0
VERTEX
  5
249
  8
0
 10
1270.9785400395419
 20
633.92255908685661
 30
0.0
 42
-0.0870842337393992
 70
     2
 50
345.33260973147492
  0
VERTEX
  5
24A
  8
0
 10
1275.164137598141
 20
632.00435188003098
 30
0.0
 42
-0.0421991320163643
 50
295.0
  0
VERTEX
  5
24B
  8
0
 10
1277.3548418782691
 20
630.20436199132769
 30
0.0
 42
-0.0142133061433492
 50
295.0
  0
SEQEND
  5
24C
  8
0
  0
ARC
  5
24D
  8
0
 10
1280.568605379864
 20
633.50441479814879
 30
0.0
 40
4.6063678068598222
 50
225.75895966355671
 51
11.045571392748
  0
ARC
  5
24E
  8
0
 10
1257.1389343706569
 20
617.08021024573895
 30
0.0
 40
4.6063678068598222
 50
312.53038029813109
 51
26.045571392747998
  0
ARC
  5
24F
  8
0
 10
1405.3228246570691
 20
617.08021024573895
 30
0.0
 40
4.6063678068598222
 50
153.954428607252
 51
227.46961970186891
  0
POLYLINE
  5
250
  8
0
 66
     1
 10
0.0
 20
0.0
 30
0.0
  0
VERTEX
  5
251
  8
0
 10
1401.1842560979451
 20
619.10280131995205
 30
0.0
 42
0.026208576244723
  0
VERTEX
  5
252
  8
0
 10
1401.8742811499701
 20
620.72501084005842
 30
0.0
 42
0.0870842337394132
  0
VERTEX
  5
253
  8
0
 10
1402.680631947909
 20
625.25806104952301
 30
0.0
 42
0.105658500619103
 70
     2
 50
89.867585931572535
  0
VERTEX
  5
254
  8
0
 10
1401.69370125464
 20
629.92909752132709
 30
0.0
 42
0.1449457769526317
  0
VERTEX
  5
255
  8
0
 10
1399.4120922043301
 20
632.60166041979073
 30
0.0
 42
0.1239995065677658
  0
VERTEX
  5
256
  8
0
 10
1395.9253815775401
 20
634.12463184522335
 30
0.0
 42
0.1056585006191176
  0
VERTEX
  5
257
  8
0
 10
1391.4832189881849
 20
633.92255908685661
 30
0.0
 42
0.0870842337393992
 70
     2
 50
194.66739026852511
  0
VERTEX
  5
258
  8
0
 10
1387.2976214295859
 20
632.00435188003098
 30
0.0
 42
0.0421991320163643
  0
VERTEX
  5
259
  8
0
 10
1385.106917149458
 20
630.20436199132769
 30
0.0
 42
0.0142133061433492
  0
SEQEND
  5
25A
  8
0
  0
ARC
  5
25B
  8
0
 10
1381.8931536478631
 20
633.50441479814879
 30
0.0
 40
4.6063678068598222
 50
168.954428607252
 51
314.24104033644329
  0
POLYLINE
  5
25C
  8
0
 66
     1
 10
0.0
 20
0.0
 30
0.0
  0
VERTEX
  5
25D
  8
0
 10
1377.372118302264
 20
634.38694739019502
 30
0.0
 42
0.026208576244656
  0
VERTEX
  5
25E
  8
0
 10
1377.6187726018629
 20
636.13247308637335
 30
0.0
 42
0.0870842337394132
  0
VERTEX
  5
25F
  8
0
 10
1377.224407936026
 20
640.71976229910081
 30
0.0
 42
0.105658500619103
 70
     2
 50
104.86758593157251
  0
VERTEX
  5
260
  8
0
 10
1375.062152891368
 20
644.97620060314046
 30
0.0
 42
0.1449457769526317
  0
VERTEX
  5
261
  8
0
 10
1372.1665776068221
 20
646.96717425344968
 30
0.0
 42
0.1239995065677658
  0
VERTEX
  5
262
  8
0
 10
1368.40449975356
 20
647.53582457100083
 30
0.0
 42
0.1056585006191176
  0
VERTEX
  5
263
  8
0
 10
1364.166000462289
 20
646.19092099533759
 30
0.0
 42
0.0870842337393992
 70
     2
 50
209.66739026852511
  0
VERTEX
  5
264
  8
0
 10
1360.619492239565
 20
643.25476275079131
 30
0.0
 42
0.0421991320163738
  0
VERTEX
  5
265
  8
0
 10
1358.9693060618149
 20
640.94911004034873
 30
0.0
 42
0.0142133061433492
  0
SEQEND
  5
266
  8
0
  0
ARC
  5
267
  8
0
 10
1355.0109323797899
 20
643.30493307390668
 30
0.0
 40
4.6063678068598222
 50
257.46962216193248
 51
329.24104033644329
  0
POLYLINE
  5
268
  8
0
 66
     1
 10
0.0
 20
0.0
 30
0.0
  0
VERTEX
  5
269
  8
0
 10
1385.1058554641611
 20
442.25758646982342
 30
0.0
 42
0.0262085762447065
  0
VERTEX
  5
26A
  8
0
 10
1386.3942313123789
 20
441.05434668770619
 30
0.0
 42
0.0870842337394132
  0
VERTEX
  5
26B
  8
0
 10
1390.378116928383
 20
438.74623031077368
 30
0.0
 42
0.105658500619103
 70
     2
 50
339.86758593157259
  0
VERTEX
  5
26C
  8
0
 10
1395.1050056095239
 20
438.0760532368999
 30
0.0
 42
0.1449457769526317
  0
VERTEX
  5
26D
  8
0
 10
1398.3967494981971
 20
439.30599407941588
 30
0.0
 42
0.1239995065677658
  0
VERTEX
  5
26E
  8
0
 10
1401.020399776653
 20
442.06154342101883
 30
0.0
 42
0.1056585006191176
  0
VERTEX
  5
26F
  8
0
 10
1402.3498225822409
 20
446.30492378034592
 30
0.0
 42
0.0870842337393992
 70
     2
 50
84.667390268525125
  0
VERTEX
  5
270
  8
0
 10
1401.978856101744
 20
450.89416442354701
 30
0.0
 42
0.0421991320164036
  0
VERTEX
  5
271
  8
0
 10
1401.03668387772
 20
453.56838586963192
 30
0.0
 42
0.0142133061433492
  0
SEQEND
  5
272
  8
0
  0
POLYLINE
  5
273
  8
0
 66
     1
 10
0.0
 20
0.0
 30
0.0
  0
VERTEX
  5
274
  8
0
 10
1407.612485523138
 20
459.40619081199583
 30
0.0
 42
0.0262085762447268
  0
VERTEX
  5
275
  8
0
 10
1409.1683824003401
 20
458.57740663800229
 30
0.0
 42
0.0870842337394132
  0
VERTEX
  5
276
  8
0
 10
1413.6139048824821
 20
457.37904289037431
 30
0.0
 42
0.105658500619103
 70
     2
 50
354.86758593157248
  0
VERTEX
  5
277
  8
0
 10
1418.3531833278989
 20
457.95511036129159
 30
0.0
 42
0.1449457769526317
  0
VERTEX
  5
278
  8
0
 10
1421.2144316491051
 20
459.99510799587381
 30
0.0
 42
0.1239995065677658
  0
VERTEX
  5
279
  8
0
 10
1423.0354945628901
 20
463.33581493029487
 30
0.0
 42
0.1056585006191176
  0
VERTEX
  5
27A
  8
0
 10
1423.221350732257
 20
467.7786855512166
 30
0.0
 42
0.0870842337393992
 70
     2
 50
99.667390268525111
  0
VERTEX
  5
27B
  8
0
 10
1421.6752417470391
 20
472.11553842129291
 30
0.0
 42
0.0421991320163259
  0
VERTEX
  5
27C
  8
0
 10
1420.073033821966
 20
474.45478586592668
 30
0.0
 42
0.0142133061433492
  0
SEQEND
  5
27D
  8
0
  0
POLYLINE
  5
27E
  8
0
 66
     1
 10
0.0
 20
0.0
 30
0.0
  0
VERTEX
  5
27F
  8
0
 10
1424.913835359165
 20
481.79561513126509
 30
0.0
 42
0.0262085762446784
  0
VERTEX
  5
280
  8
0
 10
1426.6312214643999
 20
481.39776683721152
 30
0.0
 42
0.0870842337394132
  0
VERTEX
  5
281
  8
0
 10
1431.2354258020971
 20
481.39082222789909
 30
0.0
 42
0.105658500619103
 70
     2
 50
9.8675859315725223
  0
VERTEX
  5
282
  8
0
 10
1435.664120017763
 20
483.1738761974608
 30
0.0
 42
0.1449457769526317
  0
VERTEX
  5
283
  8
0
 10
1437.899883426848
 20
485.88490815656797
 30
0.0
 42
0.1239995065677658
  0
VERTEX
  5
284
  8
0
 10
1438.7942565478361
 20
489.58310902700589
 30
0.0
 42
0.1056585006191176
  0
VERTEX
  5
285
  8
0
 10
1437.8238802901819
 20
493.92269561889708
 30
0.0
 42
0.0870842337393992
 70
     2
 50
114.6673902685251
  0
VERTEX
  5
286
  8
0
 10
1435.207993572518
 20
497.71161135974103
 30
0.0
 42
0.0421991320163296
  0
VERTEX
  5
287
  8
0
 10
1433.0549377687271
 20
499.55646895537109
 30
0.0
 42
0.0142133061433492
  0
SEQEND
  5
288
  8
0
  0
POLYLINE
  5
289
  8
0
 66
     1
 10
0.0
 20
0.0
 30
0.0
  0
VERTEX
  5
28A
  8
0
 10
1435.8308465727289
 20
507.90005716051968
 30
0.0
 42
0.026208576244723
  0
VERTEX
  5
28B
  8
0
 10
1437.5926848810509
 20
507.96025745018579
 30
0.0
 42
0.0870842337394132
  0
VERTEX
  5
28C
  8
0
 10
1442.0418021574951
 20
509.14520524283711
 30
0.0
 42
0.105658500619103
 70
     2
 50
24.867585931572531
  0
VERTEX
  5
28D
  8
0
 10
1445.8581039513749
 20
512.01373352965368
 30
0.0
 42
0.1449457769526317
  0
VERTEX
  5
28E
  8
0
 10
1447.3160188667839
 20
515.21104746546484
 30
0.0
 42
0.1239995065677658
  0
VERTEX
  5
28F
  8
0
 10
1447.222752144801
 20
519.01471599416504
 30
0.0
 42
0.1056585006191176
  0
VERTEX
  5
290
  8
0
 10
1445.162272998462
 20
522.95528290229436
 30
0.0
 42
0.0870842337393992
 70
     2
 50
129.66739026852511
  0
VERTEX
  5
291
  8
0
 10
1441.654876905206
 20
525.93805316764656
 30
0.0
 42
0.0421991320163643
  0
VERTEX
  5
292
  8
0
 10
1439.0977004176309
 20
527.16279691790703
 30
0.0
 42
0.0142133061433492
  0
SEQEND
  5
293
  8
0
  0
ARC
  5
294
  8
0
 10
1381.7897677450981
 20
439.0603710232877
 30
0.0
 40
4.6063678068598222
 50
43.954428607252026
 51
117.46962221693541
  0
ARC
  5
295
  8
0
 10
1405.2368910019179
 20
455.45965118305548
 30
0.0
 40
4.6063678068598222
 50
58.954428607252041
 51
204.24104033644329
  0
ARC
  5
296
  8
0
 10
1423.640626876544
 20
477.36870147365659
 30
0.0
 40
4.6063678068598222
 50
73.954428607252012
 51
219.24104033644329
  0
ARC
  5
297
  8
0
 10
1435.7467911827309
 20
503.29445632420379
 30
0.0
 40
4.6063678068598222
 50
88.954428607252026
 51
234.24104033644329
  0
POLYLINE
  5
298
  8
0
 66
     1
 10
0.0
 20
0.0
 30
0.0
  0
VERTEX
  5
299
  8
0
 10
1439.619542890855
 20
535.94054231513155
 30
0.0
 42
0.026208576244656
  0
VERTEX
  5
29A
  8
0
 10
1441.305767033122
 20
536.45468863824249
 30
0.0
 42
0.0870842337394132
  0
VERTEX
  5
29B
  8
0
 10
1445.2965972584379
 20
538.75077659900705
 30
0.0
 42
0.105658500619103
 70
     2
 50
39.867585931572513
  0
VERTEX
  5
29C
  8
0
 10
1448.240431970017
 20
542.50929374079897
 30
0.0
 42
0.1449457769526317
  0
VERTEX
  5
29D
  8
0
 10
1448.821143899582
 20
545.97499799239984
 30
0.0
 42
0.1239995065677658
  0
VERTEX
  5
29E
  8
0
 10
1447.746593307601
 20
549.62492045499084
 30
0.0
 42
0.1056585006191176
  0
VERTEX
  5
29F
  8
0
 10
1444.7364295212981
 20
552.89792455666395
 30
0.0
 42
0.0870842337393992
 70
     2
 50
144.66739026852511
  0
VERTEX
  5
2A0
  8
0
 10
1440.5765472999569
 20
554.87127848220177
 30
0.0
 42
0.0421991320163738
  0
VERTEX
  5
2A1
  8
0
 10
1437.7895174802909
 20
555.39244412449261
 30
0.0
 42
0.0142133061433492
  0
SEQEND
  5
2A2
  8
0
  0
ARC
  5
2A3
  8
0
 10
1438.2517372356681
 20
559.97556285192309
 30
0.0
 40
4.6063678068598222
 50
192.46962216193251
 51
264.24104033644329
  0
ARC
  5
2A4
  8
0
 10
1440.730368829395
 20
531.47011838596802
 30
0.0
 40
4.6063678068598222
 50
103.954428607252
 51
249.24104033644329
  0
CIRCLE
  5
2A5
  8
0
 10
1331.2308795138631
 20
536.30930255795363
 30
0.0
 40
24.99999999999989
  0
LINE
  5
2A6
  8
0
 10
417.13410908109779
 20
824.8056672155177
 30
0.0
 11
438.13410908109807
 21
824.8056672155177
 31
0.0
  0
LINE
  5
2A7
  8
0
 10
416.63410908109171
 20
824.10566721551766
 30
0.0
 11
416.63410908109171
 21
821.80566721551759
 31
0.0
  0
ARC
  5
2A8
  8
0
 10
427.63410908109802
 20
778.80566721551759
 30
0.0
 40
50.0
 50
253.73979529168051
 51
286.2602047083044
  0
LINE
  5
2A9
  8
0
 10
413.6341090810979
 20
791.80566721551759
 30
0.0
 11
413.63410908109171
 21
730.80566721551952
 31
0.0
  0
LINE
  5
2AA
  8
0
 10
441.63410908109171
 20
791.80565386407716
 30
0.0
 11
441.63410908109171
 21
730.80566721551565
 31
0.0
  0
LINE
  5
2AB
  8
0
 10
413.63410908109171
 20
730.80566721551952
 30
0.0
 11
441.63410908109171
 21
730.80566721551565
 31
0.0
  0
LINE
  5
2AC
  8
0
 10
413.6341090810979
 20
791.80566721551759
 30
0.0
 11
414.78427892949969
 21
819.4097435772976
 31
0.0
  0
LINE
  5
2AD
  8
0
 10
417.28211161223049
 20
821.80566721551759
 30
0.0
 11
437.98610650552422
 21
821.80566721551759
 31
0.0
  0
LINE
  5
2AE
  8
0
 10
440.48393919018162
 20
819.40974353105935
 30
0.0
 11
441.63410908109171
 21
791.80565386407716
 31
0.0
  0
ARC
  5
2AF
  8
0
 10
437.98610650552422
 20
819.30566721551759
 30
0.0
 40
2.5
 50
2.3859429697567962
 51
89.999999999999986
  0
ARC
  5
2B0
  8
0
 10
417.28211161223049
 20
819.30566721551759
 30
0.0
 40
2.5
 50
89.999999999999986
 51
177.61405596962311
  0
LINE
  5
2B1
  8
0
 10
413.6341090810979
 20
791.80566721551759
 30
0.0
 11
441.63410908109171
 21
791.80565386407716
 31
0.0
  0
LINE
  5
2B2
  8
0
 10
438.6341090810979
 20
824.10566721551766
 30
0.0
 11
438.6341090810979
 21
821.72022569732485
 31
0.0
  0
LINE
  5
2B3
  8
0
 10
416.63410908109171
 20
824.10566721551766
 30
0.0
 11
417.33410908109158
 21
824.8056672155177
 31
0.0
  0
LINE
  5
2B4
  8
0
 10
437.93410908109809
 20
824.8056672155177
 30
0.0
 11
438.6341090810979
 21
824.10566721551766
 31
0.0
  0
LINE
  5
2B5
  8
0
 10
438.13410908109807
 20
824.8056672155177
 30
0.0
 11
438.63410908109807
 21
825.30566721551759
 31
0.0
  0
LINE
  5
2B6
  8
0
 10
438.6341090810979
 20
824.10566721551766
 30
0.0
 11
416.63410908109159
 21
824.10566721551766
 31
0.0
  0
LINE
  5
2B7
  8
0
 10
402.63410908109779
 20
882.3056672155177
 30
0.0
 11
452.6341090810979
 21
882.30566721551781
 31
0.0
  0
LINE
  5
2B8
  8
0
 10
455.15670775968908
 20
880.84924418937601
 30
0.0
 11
400.111510402509
 21
880.84924418937737
 31
0.0
  0
LINE
  5
2B9
  8
0
 10
307.6341090810979
 20
852.30566721551725
 30
0.0
 11
547.63410908109779
 21
852.30566721551725
 31
0.0
  0
LINE
  5
2BA
  8
2
 10
398.97385504325899
 20
860.30566721551759
 30
0.0
 11
408.56225397347799
 21
860.30566721551759
 31
0.0
  0
LINE
  5
2BB
  8
0
 10
451.1341090810979
 20
900.30566721551759
 30
0.0
 11
404.1341090810979
 21
900.30566721551759
 31
0.0
  0
ARC
  5
2BC
  8
0
 10
307.6341090810979
 20
847.3056672155177
 30
0.0
 40
5.0
 50
89.999999999999986
 51
180.0
  0
ARC
  5
2BD
  8
0
 10
307.6341090810979
 20
830.3056672155177
 30
0.0
 40
5.0
 50
180.00000000000011
 51
270.0
  0
LINE
  5
2BE
  8
0
 10
547.63410908109802
 20
825.30566721551759
 30
0.0
 11
307.6341090810979
 21
825.30566721551759
 31
0.0
  0
LINE
  5
2BF
  8
0
 10
302.6341090810979
 20
830.3056672155177
 30
0.0
 11
302.6341090810979
 21
847.3056672155177
 31
0.0
  0
LINE
  5
2C0
  8
0
 10
417.13410908109779
 20
824.8056672155177
 30
0.0
 11
416.63410908109779
 21
825.30566721551759
 31
0.0
  0
LINE
  5
2C1
  8
1
 10
427.6341090810979
 20
910.30566721551759
 30
0.0
 11
427.63410908109802
 21
718.80566721551759
 31
0.0
  0
LINE
  5
2C2
  8
0
 10
404.40988926007537
 20
569.30128056673266
 30
0.0
 11
354.0744282005445
 21
596.70849693899095
 31
0.0
  0
LINE
  5
2C3
  8
0
 10
450.85832890212362
 20
569.30128056673414
 30
0.0
 11
501.1937899616517
 21
596.70849693899129
 31
0.0
  0
ARC
  5
2C4
  8
0
 10
436.51233037923112
 20
595.64881036330473
 30
0.0
 40
30.0
 50
261.4906760697699
 51
298.567903815835
  0
ARC
  5
2C5
  8
0
 10
427.63410908109819
 20
536.3093025579534
 30
0.0
 40
30.0
 50
81.490676069770075
 51
98.509323930227737
  0
ARC
  5
2C6
  8
0
 10
418.7558877829677
 20
595.64881036330326
 30
0.0
 40
30.0
 50
241.43209618416549
 51
278.50932393022788
  0
CIRCLE
  5
2C7
  8
0
 10
427.63410908109802
 20
536.3093025579534
 30
0.0
 40
28.6602540378444
  0
CIRCLE
  5
2C8
  8
0
 10
427.63410908109802
 20
641.30930255795363
 30
0.0
 40
14.0
  0
LINE
  5
2C9
  8
0
 10
416.91030378633712
 20
632.30930255795363
 30
0.0
 11
412.6341090810962
 21
632.30930255795363
 31
0.0
  0
LINE
  5
2CA
  8
1
 10
461.63410908109893
 20
641.30930255795363
 30
0.0
 11
393.63410908109807
 21
641.30930255795363
 31
0.0
  0
POLYLINE
  5
2CB
  8
2
 66
     1
 10
0.0
 20
0.0
 30
0.0
  0
VERTEX
  5
2CC
  8
2
 10
479.39436064774492
 20
444.95353449836477
 30
0.0
 42
0.0773499965443019
  0
VERTEX
  5
2CD
  8
2
 10
482.79746087961308
 20
441.05434668770602
 30
0.0
 42
0.0870842337394132
  0
VERTEX
  5
2CE
  8
2
 10
486.78134649561707
 20
438.74623031077351
 30
0.0
 42
0.105658500619103
 70
     2
 50
339.86758593157259
  0
VERTEX
  5
2CF
  8
2
 10
491.50823517675781
 20
438.07605323689978
 30
0.0
 42
0.1449457769526317
  0
VERTEX
  5
2D0
  8
2
 10
494.79997906543048
 20
439.3059940794156
 30
0.0
 42
0.1239995065677658
  0
VERTEX
  5
2D1
  8
2
 10
497.42362934388711
 20
442.0615434210186
 30
0.0
 42
0.1056585006191176
  0
VERTEX
  5
2D2
  8
2
 10
498.75305214947508
 20
446.3049237803458
 30
0.0
 42
0.0870842337393992
 70
     2
 50
84.667390268525125
  0
VERTEX
  5
2D3
  8
2
 10
498.38208566897828
 20
450.89416442354678
 30
0.0
 42
0.0773499965443061
  0
VERTEX
  5
2D4
  8
2
 10
496.32490914816952
 20
455.64314131685478
 30
0.0
 42
0.0142133061433492
  0
VERTEX
  5
2D5
  8
2
 10
495.79148410265969
 20
456.43707816066899
 30
0.0
 42
0.0870842337394245
  0
SEQEND
  5
2D6
  8
2
  0
POLYLINE
  5
2D7
  8
2
 66
     1
 10
0.0
 20
0.0
 30
0.0
  0
VERTEX
  5
2D8
  8
2
 10
501.27528549833158
 20
461.46294569346878
 30
0.0
 42
0.0773499965443019
  0
VERTEX
  5
2D9
  8
2
 10
505.57161196757352
 20
458.57740663800217
 30
0.0
 42
0.0870842337394132
  0
VERTEX
  5
2DA
  8
2
 10
510.01713444971642
 20
457.37904289037408
 30
0.0
 42
0.105658500619103
 70
     2
 50
354.86758593157259
  0
VERTEX
  5
2DB
  8
2
 10
514.75641289513328
 20
457.95511036129147
 30
0.0
 42
0.1449457769526317
  0
VERTEX
  5
2DC
  8
2
 10
517.617661216339
 20
459.99510799587352
 30
0.0
 42
0.1239995065677658
  0
VERTEX
  5
2DD
  8
2
 10
519.43872413012411
 20
463.33581493029482
 30
0.0
 42
0.1056585006191176
  0
VERTEX
  5
2DE
  8
2
 10
519.62458029949153
 20
467.77868555121643
 30
0.0
 42
0.0870842337393992
 70
     2
 50
99.667390268525153
  0
VERTEX
  5
2DF
  8
2
 10
518.07847131427286
 20
472.11553842129268
 30
0.0
 42
0.0773499965443061
  0
VERTEX
  5
2E0
  8
2
 10
514.86226571884845
 20
476.1702613882656
 30
0.0
 42
0.0142133061433492
  0
VERTEX
  5
2E1
  8
2
 10
514.14153071521332
 20
476.79908492923568
 30
0.0
 42
0.0870842337394245
  0
SEQEND
  5
2E2
  8
2
  0
POLYLINE
  5
2E3
  8
2
 66
     1
 10
0.0
 20
0.0
 30
0.0
  0
VERTEX
  5
2E4
  8
2
 10
518.13768587388176
 20
483.07301241943429
 30
0.0
 42
0.0773499965443019
  0
VERTEX
  5
2E5
  8
2
 10
523.03445103163381
 20
481.39776683721141
 30
0.0
 42
0.0870842337394132
  0
VERTEX
  5
2E6
  8
2
 10
527.63865536933099
 20
481.39082222789881
 30
0.0
 42
0.105658500619103
 70
     2
 50
9.8675859315725472
  0
VERTEX
  5
2E7
  8
2
 10
532.06734958499658
 20
483.17387619746057
 30
0.0
 42
0.1449457769526317
  0
VERTEX
  5
2E8
  8
2
 10
534.30311299408163
 20
485.88490815656769
 30
0.0
 42
0.1239995065677658
  0
VERTEX
  5
2E9
  8
2
 10
535.19748611506975
 20
489.58310902700561
 30
0.0
 42
0.1056585006191176
  0
VERTEX
  5
2EA
  8
2
 10
534.22710985741571
 20
493.92269561889691
 30
0.0
 42
0.0870842337393992
 70
     2
 50
114.6673902685251
  0
VERTEX
  5
2EB
  8
2
 10
531.61122313975227
 20
497.7116113597408
 30
0.0
 42
0.0773499965443061
  0
VERTEX
  5
2EC
  8
2
 10
527.4551675660091
 20
500.7957577309262
 30
0.0
 42
0.0142133061433492
  0
VERTEX
  5
2ED
  8
2
 10
526.59623950367563
 20
501.21661468391488
 30
0.0
 42
0.0870842337394245
  0
SEQEND
  5
2EE
  8
2
  0
POLYLINE
  5
2EF
  8
2
 66
     1
 10
0.0
 20
0.0
 30
0.0
  0
VERTEX
  5
2F0
  8
2
 10
528.83241705523608
 20
508.3110443412109
 30
0.0
 42
0.0773499965443019
  0
VERTEX
  5
2F1
  8
2
 10
533.99591444828445
 20
507.96025745018568
 30
0.0
 42
0.0870842337394132
  0
VERTEX
  5
2F2
  8
2
 10
538.44503172472889
 20
509.14520524283688
 30
0.0
 42
0.105658500619103
 70
     2
 50
24.86758593157256
  0
VERTEX
  5
2F3
  8
2
 10
542.26133351860949
 20
512.01373352965356
 30
0.0
 42
0.1449457769526317
  0
VERTEX
  5
2F4
  8
2
 10
543.71924843401791
 20
515.21104746546473
 30
0.0
 42
0.1239995065677658
  0
VERTEX
  5
2F5
  8
2
 10
543.62598171203513
 20
519.01471599416493
 30
0.0
 42
0.1056585006191176
  0
VERTEX
  5
2F6
  8
2
 10
541.56550256569653
 20
522.95528290229424
 30
0.0
 42
0.0870842337393992
 70
     2
 50
129.66739026852511
  0
VERTEX
  5
2F7
  8
2
 10
538.05810647243959
 20
525.93805316764644
 30
0.0
 42
0.0773499965443061
  0
VERTEX
  5
2F8
  8
2
 10
533.24542923952185
 20
527.84144346464097
 30
0.0
 42
0.0142133061433492
  0
VERTEX
  5
2F9
  8
2
 10
532.30684264649221
 20
528.02565312380113
 30
0.0
 42
0.0870842337394245
  0
SEQEND
  5
2FA
  8
2
  0
POLYLINE
  5
2FB
  8
2
 66
     1
 10
0.0
 20
0.0
 30
0.0
  0
VERTEX
  5
2FC
  8
2
 10
532.63065078626414
 20
535.45711129114898
 30
0.0
 42
0.0773499965443019
  0
VERTEX
  5
2FD
  8
2
 10
537.70899660035548
 20
536.45468863824237
 30
0.0
 42
0.0870842337394132
  0
VERTEX
  5
2FE
  8
2
 10
541.69982682567183
 20
538.75077659900683
 30
0.0
 42
0.105658500619103
 70
     2
 50
39.867585931572542
  0
VERTEX
  5
2FF
  8
2
 10
544.64366153725064
 20
542.50929374079885
 30
0.0
 42
0.1449457769526317
  0
VERTEX
  5
300
  8
2
 10
545.22437346681625
 20
545.97499799239961
 30
0.0
 42
0.1239995065677658
  0
VERTEX
  5
301
  8
2
 10
544.14982287483508
 20
549.62492045499073
 30
0.0
 42
0.1056585006191176
  0
VERTEX
  5
302
  8
2
 10
541.13965908853174
 20
552.89792455666372
 30
0.0
 42
0.0870842337393992
 70
     2
 50
144.66739026852511
  0
VERTEX
  5
303
  8
2
 10
536.97977686719105
 20
554.87127848220155
 30
0.0
 42
0.0773499965443061
  0
VERTEX
  5
304
  8
2
 10
531.8384539751969
 20
555.46419980176631
 30
0.0
 42
0.0142133061433492
  0
VERTEX
  5
305
  8
2
 10
530.88417197669833
 20
555.39920858324695
 30
0.0
 42
0.0870842337394245
  0
SEQEND
  5
306
  8
2
  0
POLYLINE
  5
307
  8
2
 66
     1
 10
0.0
 20
0.0
 30
0.0
  0
VERTEX
  5
308
  8
2
 10
495.77740153352482
 20
616.19354189052149
 30
0.0
 42
0.0773499965443019
  0
VERTEX
  5
309
  8
2
 10
498.277510717204
 20
620.72501084005819
 30
0.0
 42
0.0870842337394132
  0
VERTEX
  5
30A
  8
2
 10
499.08386151514378
 20
625.25806104952301
 30
0.0
 42
0.105658500619103
 70
     2
 50
89.867585931572563
  0
VERTEX
  5
30B
  8
2
 10
498.09693082187459
 20
629.92909752132709
 30
0.0
 42
0.1449457769526317
  0
VERTEX
  5
30C
  8
2
 10
495.81532177156402
 20
632.60166041979062
 30
0.0
 42
0.1239995065677658
  0
VERTEX
  5
30D
  8
2
 10
492.32861114477407
 20
634.12463184522346
 30
0.0
 42
0.1056585006191176
  0
VERTEX
  5
30E
  8
2
 10
487.88644855541889
 20
633.9225590868565
 30
0.0
 42
0.0870842337393992
 70
     2
 50
194.66739026852511
  0
VERTEX
  5
30F
  8
2
 10
483.70085099682052
 20
632.00435188003075
 30
0.0
 42
0.0773499965443061
  0
VERTEX
  5
310
  8
2
 10
479.94186826238962
 20
628.44699252607325
 30
0.0
 42
0.0142133061433492
  0
VERTEX
  5
311
  8
2
 10
479.37825377940612
 20
627.67419455395259
 30
0.0
 42
0.0870842337394245
  0
SEQEND
  5
312
  8
2
  0
POLYLINE
  5
313
  8
2
 66
     1
 10
0.0
 20
0.0
 30
0.0
  0
VERTEX
  5
314
  8
2
 10
472.7799126064694
 20
631.10833432541688
 30
0.0
 42
0.0773499965443019
  0
VERTEX
  5
315
  8
2
 10
474.02200216909688
 20
636.13247308637335
 30
0.0
 42
0.0870842337394132
  0
VERTEX
  5
316
  8
2
 10
473.6276375032603
 20
640.71976229910081
 30
0.0
 42
0.105658500619103
 70
     2
 50
104.86758593157251
  0
VERTEX
  5
317
  8
2
 10
471.46538245860279
 20
644.97620060314023
 30
0.0
 42
0.1449457769526317
  0
VERTEX
  5
318
  8
2
 10
468.56980717405611
 20
646.96717425344957
 30
0.0
 42
0.1239995065677658
  0
VERTEX
  5
319
  8
2
 10
464.80772932079429
 20
647.5358245710006
 30
0.0
 42
0.1056585006191176
  0
VERTEX
  5
31A
  8
2
 10
460.56923002952288
 20
646.19092099533748
 30
0.0
 42
0.0870842337393992
 70
     2
 50
209.6673902685252
  0
VERTEX
  5
31B
  8
2
 10
457.0227218067995
 20
643.25476275079097
 30
0.0
 42
0.0773499965443061
  0
VERTEX
  5
31C
  8
2
 10
454.31253565411578
 20
638.8457211555301
 30
0.0
 42
0.0142133061433492
  0
VERTEX
  5
31D
  8
2
 10
453.96814070213298
 20
637.95338147346308
 30
0.0
 42
0.0870842337394245
  0
SEQEND
  5
31E
  8
2
  0
POLYLINE
  5
31F
  8
2
 66
     1
 10
0.0
 20
0.0
 30
0.0
  0
VERTEX
  5
320
  8
2
 10
359.49081662867081
 20
616.19354189052149
 30
0.0
 42
-0.0773499965443019
  0
VERTEX
  5
321
  8
2
 10
356.99070744499147
 20
620.72501084005819
 30
0.0
 42
-0.0870842337394132
  0
VERTEX
  5
322
  8
2
 10
356.1843566470518
 20
625.25806104952301
 30
0.0
 42
-0.105658500619103
 70
     2
 50
90.132414068427494
  0
VERTEX
  5
323
  8
2
 10
357.17128734032087
 20
629.92909752132709
 30
0.0
 42
-0.1449457769526317
  0
VERTEX
  5
324
  8
2
 10
359.45289639063162
 20
632.60166041979062
 30
0.0
 42
-0.1239995065677658
  0
VERTEX
  5
325
  8
2
 10
362.93960701742151
 20
634.12463184522346
 30
0.0
 42
-0.1056585006191176
  0
VERTEX
  5
326
  8
2
 10
367.38176960677669
 20
633.9225590868565
 30
0.0
 42
-0.0870842337393992
 70
     2
 50
345.33260973147492
  0
VERTEX
  5
327
  8
2
 10
371.56736716537512
 20
632.00435188003075
 30
0.0
 42
-0.0773499965443061
  0
VERTEX
  5
328
  8
2
 10
375.32634989980602
 20
628.44699252607325
 30
0.0
 42
-0.0142133061433492
  0
VERTEX
  5
329
  8
2
 10
375.88996438278963
 20
627.67419455395259
 30
0.0
 42
-0.0870842337394245
  0
SEQEND
  5
32A
  8
2
  0
POLYLINE
  5
32B
  8
2
 66
     1
 10
0.0
 20
0.0
 30
0.0
  0
VERTEX
  5
32C
  8
2
 10
382.48830555572607
 20
631.10833432541688
 30
0.0
 42
-0.0773499965443019
  0
VERTEX
  5
32D
  8
2
 10
381.2462159930987
 20
636.13247308637335
 30
0.0
 42
-0.0870842337394132
  0
VERTEX
  5
32E
  8
2
 10
381.64058065893522
 20
640.71976229910081
 30
0.0
 42
-0.105658500619103
 70
     2
 50
75.132414068427494
  0
VERTEX
  5
32F
  8
2
 10
383.80283570359268
 20
644.97620060314023
 30
0.0
 42
-0.1449457769526317
  0
VERTEX
  5
330
  8
2
 10
386.69841098813953
 20
646.96717425344957
 30
0.0
 42
-0.1239995065677658
  0
VERTEX
  5
331
  8
2
 10
390.46048884140117
 20
647.5358245710006
 30
0.0
 42
-0.1056585006191176
  0
VERTEX
  5
332
  8
2
 10
394.69898813267281
 20
646.19092099533748
 30
0.0
 42
-0.0870842337393992
 70
     2
 50
330.33260973147492
  0
VERTEX
  5
333
  8
2
 10
398.2454963553962
 20
643.25476275079097
 30
0.0
 42
-0.0773499965443061
  0
VERTEX
  5
334
  8
2
 10
400.9556825080798
 20
638.8457211555301
 30
0.0
 42
-0.0142133061433492
  0
VERTEX
  5
335
  8
2
 10
401.30007746006271
 20
637.95338147346308
 30
0.0
 42
-0.0870842337394245
  0
SEQEND
  5
336
  8
2
  0
POLYLINE
  5
337
  8
2
 66
     1
 10
0.0
 20
0.0
 30
0.0
  0
VERTEX
  5
338
  8
2
 10
375.87385751445072
 20
444.95353449836477
 30
0.0
 42
-0.0773499965443019
  0
VERTEX
  5
339
  8
2
 10
372.4707572825825
 20
441.05434668770602
 30
0.0
 42
-0.0870842337394132
  0
VERTEX
  5
33A
  8
2
 10
368.48687166657851
 20
438.74623031077351
 30
0.0
 42
-0.105658500619103
 70
     2
 50
200.13241406842749
  0
VERTEX
  5
33B
  8
2
 10
363.75998298543772
 20
438.07605323689978
 30
0.0
 42
-0.1449457769526317
  0
VERTEX
  5
33C
  8
2
 10
360.46823909676499
 20
439.3059940794156
 30
0.0
 42
-0.1239995065677658
  0
VERTEX
  5
33D
  8
2
 10
357.84458881830841
 20
442.0615434210186
 30
0.0
 42
-0.1056585006191176
  0
VERTEX
  5
33E
  8
2
 10
356.51516601272039
 20
446.3049237803458
 30
0.0
 42
-0.0870842337393992
 70
     2
 50
95.332609731474889
  0
VERTEX
  5
33F
  8
2
 10
356.88613249321719
 20
450.89416442354678
 30
0.0
 42
-0.0773499965443061
  0
VERTEX
  5
340
  8
2
 10
358.94330901402611
 20
455.64314131685478
 30
0.0
 42
-0.0142133061433492
  0
VERTEX
  5
341
  8
2
 10
359.47673405953589
 20
456.43707816066899
 30
0.0
 42
-0.0870842337394245
  0
SEQEND
  5
342
  8
2
  0
POLYLINE
  5
343
  8
2
 66
     1
 10
0.0
 20
0.0
 30
0.0
  0
VERTEX
  5
344
  8
2
 10
353.992932663864
 20
461.46294569346878
 30
0.0
 42
-0.0773499965443019
  0
VERTEX
  5
345
  8
2
 10
349.69660619462201
 20
458.57740663800217
 30
0.0
 42
-0.0870842337394132
  0
VERTEX
  5
346
  8
2
 10
345.2510837124791
 20
457.37904289037408
 30
0.0
 42
-0.105658500619103
 70
     2
 50
185.13241406842749
  0
VERTEX
  5
347
  8
2
 10
340.51180526706241
 20
457.95511036129147
 30
0.0
 42
-0.1449457769526317
  0
VERTEX
  5
348
  8
2
 10
337.65055694585658
 20
459.99510799587352
 30
0.0
 42
-0.1239995065677658
  0
VERTEX
  5
349
  8
2
 10
335.82949403207141
 20
463.33581493029482
 30
0.0
 42
-0.1056585006191176
  0
VERTEX
  5
34A
  8
2
 10
335.64363786270411
 20
467.77868555121643
 30
0.0
 42
-0.0870842337393992
 70
     2
 50
80.332609731474889
  0
VERTEX
  5
34B
  8
2
 10
337.18974684792261
 20
472.11553842129268
 30
0.0
 42
-0.0773499965443061
  0
VERTEX
  5
34C
  8
2
 10
340.40595244334719
 20
476.1702613882656
 30
0.0
 42
-0.0142133061433492
  0
VERTEX
  5
34D
  8
2
 10
341.1266874469822
 20
476.79908492923568
 30
0.0
 42
-0.0870842337394245
  0
SEQEND
  5
34E
  8
2
  0
POLYLINE
  5
34F
  8
2
 66
     1
 10
0.0
 20
0.0
 30
0.0
  0
VERTEX
  5
350
  8
2
 10
337.13053228831382
 20
483.07301241943429
 30
0.0
 42
-0.0773499965443019
  0
VERTEX
  5
351
  8
2
 10
332.23376713056172
 20
481.39776683721141
 30
0.0
 42
-0.0870842337394132
  0
VERTEX
  5
352
  8
2
 10
327.6295627928647
 20
481.39082222789881
 30
0.0
 42
-0.105658500619103
 70
     2
 50
170.13241406842749
  0
VERTEX
  5
353
  8
2
 10
323.20086857719878
 20
483.17387619746057
 30
0.0
 42
-0.1449457769526317
  0
VERTEX
  5
354
  8
2
 10
320.96510516811389
 20
485.88490815656769
 30
0.0
 42
-0.1239995065677658
  0
VERTEX
  5
355
  8
2
 10
320.07073204712589
 20
489.58310902700561
 30
0.0
 42
-0.1056585006191176
  0
VERTEX
  5
356
  8
2
 10
321.04110830477981
 20
493.92269561889691
 30
0.0
 42
-0.0870842337393992
 70
     2
 50
65.332609731474903
  0
VERTEX
  5
357
  8
2
 10
323.65699502244308
 20
497.7116113597408
 30
0.0
 42
-0.0773499965443061
  0
VERTEX
  5
358
  8
2
 10
327.81305059618637
 20
500.7957577309262
 30
0.0
 42
-0.0142133061433492
  0
VERTEX
  5
359
  8
2
 10
328.67197865852
 20
501.21661468391488
 30
0.0
 42
-0.0870842337394245
  0
SEQEND
  5
35A
  8
2
  0
POLYLINE
  5
35B
  8
2
 66
     1
 10
0.0
 20
0.0
 30
0.0
  0
VERTEX
  5
35C
  8
2
 10
326.4358011069595
 20
508.3110443412109
 30
0.0
 42
-0.0773499965443019
  0
VERTEX
  5
35D
  8
2
 10
321.27230371391113
 20
507.96025745018568
 30
0.0
 42
-0.0870842337394132
  0
VERTEX
  5
35E
  8
2
 10
316.82318643746652
 20
509.14520524283688
 30
0.0
 42
-0.105658500619103
 70
     2
 50
155.13241406842749
  0
VERTEX
  5
35F
  8
2
 10
313.00688464358609
 20
512.01373352965356
 30
0.0
 42
-0.1449457769526317
  0
VERTEX
  5
360
  8
2
 10
311.5489697281775
 20
515.21104746546473
 30
0.0
 42
-0.1239995065677658
  0
VERTEX
  5
361
  8
2
 10
311.6422364501604
 20
519.01471599416493
 30
0.0
 42
-0.1056585006191176
  0
VERTEX
  5
362
  8
2
 10
313.7027155964991
 20
522.95528290229424
 30
0.0
 42
-0.0870842337393992
 70
     2
 50
50.332609731474911
  0
VERTEX
  5
363
  8
2
 10
317.21011168975582
 20
525.93805316764644
 30
0.0
 42
-0.0773499965443061
  0
VERTEX
  5
364
  8
2
 10
322.02278892267373
 20
527.84144346464097
 30
0.0
 42
-0.0142133061433492
  0
VERTEX
  5
365
  8
2
 10
322.96137551570331
 20
528.02565312380113
 30
0.0
 42
-0.0870842337394245
  0
SEQEND
  5
366
  8
2
  0
POLYLINE
  5
367
  8
2
 66
     1
 10
0.0
 20
0.0
 30
0.0
  0
VERTEX
  5
368
  8
2
 10
322.6375673759315
 20
535.45711129114898
 30
0.0
 42
-0.0773499965443019
  0
VERTEX
  5
369
  8
2
 10
317.55922156184022
 20
536.45468863824237
 30
0.0
 42
-0.0870842337394132
  0
VERTEX
  5
36A
  8
2
 10
313.5683913365238
 20
538.75077659900683
 30
0.0
 42
-0.105658500619103
 70
     2
 50
140.13241406842749
  0
VERTEX
  5
36B
  8
2
 10
310.62455662494489
 20
542.50929374079885
 30
0.0
 42
-0.1449457769526317
  0
VERTEX
  5
36C
  8
2
 10
310.04384469537928
 20
545.97499799239961
 30
0.0
 42
-0.1239995065677658
  0
VERTEX
  5
36D
  8
2
 10
311.11839528736061
 20
549.62492045499073
 30
0.0
 42
-0.1056585006191176
  0
VERTEX
  5
36E
  8
2
 10
314.12855907366378
 20
552.89792455666372
 30
0.0
 42
-0.0870842337393992
 70
     2
 50
35.332609731474911
  0
VERTEX
  5
36F
  8
2
 10
318.28844129500447
 20
554.87127848220155
 30
0.0
 42
-0.0773499965443061
  0
VERTEX
  5
370
  8
2
 10
323.4297641869988
 20
555.46419980176631
 30
0.0
 42
-0.0142133061433492
  0
VERTEX
  5
371
  8
2
 10
324.38404618549731
 20
555.39920858324695
 30
0.0
 42
-0.0870842337394245
  0
SEQEND
  5
372
  8
2
  0
LINE
  5
373
  8
1
 10
406.81865909370879
 20
641.30930255795363
 30
0.0
 11
448.44955906848662
 21
641.30930255795363
 31
0.0
  0
ARC
  5
374
  8
0
 10
427.6341090810979
 20
536.30930255795363
 30
0.0
 40
104.9999999999994
 50
44.035599179033831
 51
76.857311972625581
  0
ARC
  5
375
  8
0
 10
427.63410908109802
 20
536.30930255795363
 30
0.0
 40
104.9999999999994
 50
103.1426880273744
 51
135.9644008209662
  0
ARC
  5
376
  8
0
 10
427.63410908109802
 20
536.30930255795363
 30
0.0
 40
110.0
 50
105.21986737831401
 51
74.780132621685937
  0
ARC
  5
377
  8
0
 10
453.62396185130149
 20
631.83692972927588
 30
0.0
 40
11.0
 50
74.780122943463084
 51
177.53879138466871
  0
ARC
  5
378
  8
0
 10
449.61642641015362
 20
631.81206547528859
 30
0.0
 40
7.0
 50
74.330636649853574
 51
175.92662861974549
  0
ARC
  5
379
  8
0
 10
405.65179175204241
 20
631.81206547528859
 30
0.0
 40
7.0
 50
4.0733713802544944
 51
105.6693633501464
  0
ARC
  5
37A
  8
0
 10
401.64425631089449
 20
631.83692972927588
 30
0.0
 40
11.0
 50
2.4612086153313211
 51
105.2198770565369
  0
ARC
  5
37B
  8
0
 10
427.63410908109802
 20
536.30930255795363
 30
0.0
 40
105.0
 50
292.74297810030077
 51
15.96440082096667
  0
ARC
  5
37C
  8
0
 10
427.63410908109802
 20
536.30930255795363
 30
0.0
 40
105.0
 50
164.0355991790334
 51
247.25702189969931
  0
LINE
  5
37D
  8
0
 10
442.63410908109802
 20
632.30930255795363
 30
0.0
 11
438.35791437586158
 21
632.30930255795363
 31
0.0
  0
ARC
  5
37E
  8
0
 10
520.89308778862755
 20
562.98818728780145
 30
0.0
 40
8.0000000000003055
 50
15.964400820966491
 51
121.4320961841638
  0
ARC
  5
37F
  8
0
 10
497.3681903555472
 20
603.73450488474293
 30
0.0
 40
7.9999999999995959
 50
298.567903815835
 51
44.035599179033589
  0
ARC
  5
380
  8
0
 10
465.13410908109819
 20
446.85121181150407
 30
0.0
 40
8.0000000000000568
 50
180.0
 51
292.74297810030077
  0
LINE
  5
381
  8
0
 10
516.72118622346716
 20
569.81425770427234
 30
0.0
 11
471.48947821174568
 21
542.16991448248518
 31
0.0
  0
LINE
  5
382
  8
0
 10
457.13410908109819
 20
516.57215581551827
 30
0.0
 11
457.13410908109807
 21
446.85120641670761
 31
0.0
  0
ARC
  5
383
  8
0
 10
487.13410908109807
 20
516.57215042072175
 30
0.0
 40
30.0
 50
121.4320961841677
 51
180.0
  0
ARC
  5
384
  8
0
 10
368.13410908109807
 20
516.57215042072175
 30
0.0
 40
30.0
 50
0.0000000000000763
 51
58.567903815832302
  0
LINE
  5
385
  8
0
 10
398.13410908109807
 20
516.57215976478346
 30
0.0
 11
398.13410908109807
 21
446.85121181150407
 31
0.0
  0
LINE
  5
386
  8
0
 10
338.54703193872882
 20
569.81425770427199
 30
0.0
 11
383.77873995045059
 21
542.16991448248518
 31
0.0
  0
ARC
  5
387
  8
0
 10
390.13410908109807
 20
446.85121181150407
 30
0.0
 40
8.0000000000000568
 50
247.25702189969931
 51
0.0
  0
ARC
  5
388
  8
0
 10
357.90002780664878
 20
603.73450488474293
 30
0.0
 40
7.9999999999995959
 50
135.9644008209664
 51
241.432096184165
  0
ARC
  5
389
  8
0
 10
334.3751303735686
 20
562.98818728780145
 30
0.0
 40
8.0000000000003055
 50
58.56790381583621
 51
164.03559917903351
  0
LINE
  5
38A
  8
1
 10
427.63410908109802
 20
681.30930255795363
 30
0.0
 11
427.63410908109802
 21
391.30930255795357
 31
0.0
  0
LINE
  5
38B
  8
1
 10
282.63410908109802
 20
536.30930255795363
 30
0.0
 11
572.63410908109813
 21
536.30930255795363
 31
0.0
  0
CIRCLE
  5
38C
  8
0
 10
427.63410908109802
 20
536.30930255795363
 30
0.0
 40
125.0
  0
ARC
  5
38D
  8
2
 10
407.63410908109648
 20
865.3056672155177
 30
0.0
 40
10.0
 50
180.0
 51
209.999999999995
  0
POLYLINE
  5
38E
  8
0
 66
     1
 10
0.0
 20
0.0
 30
0.0
  0
VERTEX
  5
38F
  8
0
 10
398.13410908109779
 20
853.75902933659972
 30
0.0
 42
-0.2001295648643838
 50
180.0
  0
VERTEX
  5
390
  8
0
 10
397.52811650393699
 20
852.30566721551725
 30
0.0
 42
-0.0978420083922087
 50
180.0
  0
SEQEND
  5
391
  8
0
  0
LINE
  5
392
  8
0
 10
398.13410908109779
 20
853.75902933659995
 30
0.0
 11
398.13410908109779
 21
856.32402849002312
 31
0.0
  0
LINE
  5
393
  8
0
 10
402.63410908109779
 20
882.3056672155177
 30
0.0
 11
402.63410908109779
 21
898.80566721551781
 31
0.0
  0
ARC
  5
394
  8
0
 10
404.1341090810979
 20
898.80566721551781
 30
0.0
 40
1.5
 50
89.999999999999986
 51
180.0
  0
LINE
  5
395
  8
0
 10
402.63410908109768
 20
882.3056672155177
 30
0.0
 11
400.11151040250689
 21
880.84924418937601
 31
0.0
  0
ARC
  5
396
  8
0
 10
447.6341090811045
 20
865.30567269396192
 30
0.0
 40
50.0
 50
161.8882452575732
 51
163.33253587458231
  0
LINE
  5
397
  8
0
 10
413.24484478838713
 20
862.09355807402596
 30
0.0
 11
387.60978568325493
 21
852.30566721551725
 31
0.0
  0
ARC
  5
398
  8
0
 10
407.63410908109159
 20
207.31293242194539
 30
0.0
 40
50.0
 50
341.88824525757332
 51
0.0000062778345027
  0
LINE
  5
399
  8
0
 10
452.6341090810983
 20
190.3129379003895
 30
0.0
 11
455.15670775968908
 21
191.76936092653119
 31
0.0
  0
ARC
  5
39A
  8
0
 10
451.13410908109807
 20
173.8129379003895
 30
0.0
 40
1.5
 50
270.0
 51
360.0
  0
LINE
  5
39B
  8
0
 10
452.63410908109819
 20
190.3129379003895
 30
0.0
 11
452.63410908109819
 21
173.8129379003895
 31
0.0
  0
LINE
  5
39C
  8
0
 10
457.1341090810983
 20
218.85957577930731
 30
0.0
 11
457.1341090810983
 21
200.25956443215841
 31
0.0
  0
POLYLINE
  5
39D
  8
0
 66
     1
 10
0.0
 20
0.0
 30
0.0
  0
VERTEX
  5
39E
  8
0
 10
457.1341090810983
 20
218.85957577930739
 30
0.0
 42
-0.2001295648643838
  0
VERTEX
  5
39F
  8
0
 10
457.74010165825911
 20
220.31293790039001
 30
0.0
 42
-0.0978420083922087
  0
SEQEND
  5
3A0
  8
0
  0
ARC
  5
3A1
  8
0
 10
447.6341090810995
 20
207.3129379003895
 30
0.0
 40
10.0
 50
360.0
 51
18.194872338781678
  0
ARC
  5
3A2
  8
2
 10
447.6341090810995
 20
207.3129379003895
 30
0.0
 40
10.0
 50
18.194872338781678
 51
29.99999999999503
  0
ARC
  5
3A3
  8
2
 10
407.63410908109682
 20
207.3129379003895
 30
0.0
 40
10.0
 50
150.00000000000489
 51
161.80512766121831
  0
ARC
  5
3A4
  8
0
 10
407.63410908109682
 20
207.3129379003895
 30
0.0
 40
10.0
 50
161.80512766121831
 51
180.0
  0
POLYLINE
  5
3A5
  8
0
 66
     1
 10
0.0
 20
0.0
 30
0.0
  0
VERTEX
  5
3A6
  8
0
 10
398.13410908109807
 20
218.85957577930739
 30
0.0
 42
0.2001295648643838
  0
VERTEX
  5
3A7
  8
0
 10
397.52811650393733
 20
220.31293790039001
 30
0.0
 42
0.0978420083922087
  0
SEQEND
  5
3A8
  8
0
  0
LINE
  5
3A9
  8
0
 10
398.13410908109807
 20
218.85957577930731
 30
0.0
 11
398.13410908109807
 21
200.25956443215841
 31
0.0
  0
LINE
  5
3AA
  8
1
 10
427.63410908109819
 20
162.3129379003895
 30
0.0
 11
427.63410908109802
 21
353.81293790038973
 31
0.0
  0
LINE
  5
3AB
  8
0
 10
438.1341090810983
 20
247.8129379003895
 30
0.0
 11
438.6341090810983
 21
247.3129379003895
 31
0.0
  0
ARC
  5
3AC
  8
0
 10
307.63410908109802
 20
225.3129379003895
 30
0.0
 40
5.0
 50
180.0
 51
270.0
  0
ARC
  5
3AD
  8
0
 10
307.63410908109802
 20
242.3129379003895
 30
0.0
 40
5.0
 50
89.999999999999986
 51
179.99999999999989
  0
LINE
  5
3AE
  8
0
 10
302.63410908109802
 20
242.3129379003895
 30
0.0
 11
302.63410908109802
 21
225.3129379003895
 31
0.0
  0
LINE
  5
3AF
  8
0
 10
552.63410908109813
 20
242.3129379003895
 30
0.0
 11
552.63410908109813
 21
225.3129379003895
 31
0.0
  0
LINE
  5
3B0
  8
0
 10
307.63410908109807
 20
247.3129379003895
 30
0.0
 11
547.63410908109813
 21
247.3129379003895
 31
0.0
  0
ARC
  5
3B1
  8
0
 10
547.63410908109813
 20
242.3129379003895
 30
0.0
 40
5.0
 50
0.0000000000000877
 51
90.000000000000028
  0
ARC
  5
3B2
  8
0
 10
547.63410908109813
 20
225.3129379003895
 30
0.0
 40
5.0
 50
270.0
 51
0.0000000000000368
  0
LINE
  5
3B3
  8
0
 10
402.63410908109819
 20
190.3129379003895
 30
0.0
 11
402.63410908109819
 21
173.8129379003895
 31
0.0
  0
LINE
  5
3B4
  8
0
 10
404.13410908109807
 20
172.3129379003895
 30
0.0
 11
451.13410908109807
 21
172.3129379003895
 31
0.0
  0
ARC
  5
3B5
  8
0
 10
404.13410908109807
 20
173.8129379003895
 30
0.0
 40
1.5
 50
180.0
 51
270.0
  0
LINE
  5
3B6
  8
2
 10
456.29436311893699
 20
212.3129379003895
 30
0.0
 11
398.97385504325069
 21
212.3129379003895
 31
0.0
  0
LINE
  5
3B7
  8
0
 10
402.63410908109802
 20
190.3129379003895
 30
0.0
 11
400.11151040250718
 21
191.76936092653119
 31
0.0
  0
LINE
  5
3B8
  8
0
 10
547.63410908109813
 20
220.31293790039001
 30
0.0
 11
307.63410908109819
 21
220.31293790039001
 31
0.0
  0
ARC
  5
3B9
  8
0
 10
447.63410908110478
 20
207.31293242194539
 30
0.0
 40
50.0
 50
179.9999937221655
 51
198.11175474242671
  0
LINE
  5
3BA
  8
0
 10
400.11151040250689
 20
191.76936092653119
 30
0.0
 11
455.15670775968698
 21
191.7693609265298
 31
0.0
  0
LINE
  5
3BB
  8
0
 10
452.63410908109819
 20
190.3129379003895
 30
0.0
 11
402.63410908109819
 21
190.3129379003893
 31
0.0
  0
LINE
  5
3BC
  8
0
 10
416.63410908109807
 20
248.5129379003896
 30
0.0
 11
438.63410908110438
 21
248.5129379003896
 31
0.0
  0
LINE
  5
3BD
  8
0
 10
417.13410908109802
 20
247.8129379003895
 30
0.0
 11
416.6341090810979
 21
247.3129379003895
 31
0.0
  0
LINE
  5
3BE
  8
0
 10
417.33410908109789
 20
247.8129379003895
 30
0.0
 11
416.63410908109807
 21
248.5129379003896
 31
0.0
  0
LINE
  5
3BF
  8
0
 10
438.63410908110421
 20
248.5129379003896
 30
0.0
 11
437.9341090811044
 21
247.8129379003895
 31
0.0
  0
LINE
  5
3C0
  8
0
 10
416.63410908109807
 20
248.5129379003896
 30
0.0
 11
416.63410908109807
 21
250.89837941858241
 31
0.0
  0
LINE
  5
3C1
  8
0
 10
441.63410908109807
 20
280.8129379003895
 30
0.0
 11
413.63410908110421
 21
280.81295125182999
 31
0.0
  0
ARC
  5
3C2
  8
0
 10
437.98610654996548
 20
253.3129379003895
 30
0.0
 40
2.5
 50
270.0
 51
357.61405596962311
  0
ARC
  5
3C3
  8
0
 10
417.28211165667187
 20
253.3129379003895
 30
0.0
 40
2.5
 50
182.3859429697568
 51
270.0
  0
LINE
  5
3C4
  8
0
 10
414.78427897201442
 20
253.2088615848478
 30
0.0
 11
413.63410908110421
 21
280.81295125182999
 31
0.0
  0
LINE
  5
3C5
  8
0
 10
437.98610654996548
 20
250.8129379003895
 30
0.0
 11
417.28211165667187
 21
250.8129379003895
 31
0.0
  0
LINE
  5
3C6
  8
0
 10
441.63410908109807
 20
280.8129379003895
 30
0.0
 11
440.48393923269629
 21
253.2088615386096
 31
0.0
  0
LINE
  5
3C7
  8
0
 10
441.63410908110433
 20
341.81293790038779
 30
0.0
 11
413.63410908110421
 21
341.81293790039149
 31
0.0
  0
LINE
  5
3C8
  8
0
 10
413.63410908110421
 20
280.81295125182999
 30
0.0
 11
413.63410908110421
 21
341.81293790039149
 31
0.0
  0
LINE
  5
3C9
  8
0
 10
441.63410908109807
 20
280.8129379003895
 30
0.0
 11
441.63410908110433
 21
341.81293790038779
 31
0.0
  0
ARC
  5
3CA
  8
0
 10
427.63410908109802
 20
293.81293790038973
 30
0.0
 40
50.0
 50
73.739795291680537
 51
106.2602047083044
  0
LINE
  5
3CB
  8
0
 10
438.63410908110421
 20
248.5129379003896
 30
0.0
 11
438.63410908110421
 21
250.8129379003895
 31
0.0
  0
LINE
  5
3CC
  8
0
 10
438.1341090810983
 20
247.8129379003895
 30
0.0
 11
417.13410908109802
 21
247.8129379003895
 31
0.0
  0
LINE
  5
3CD
  8
0
 10
396.485438674036
 20
875.91236565385941
 30
0.0
 11
344.94475640767553
 21
852.30566721551725
 31
0.0
  0
ARC
  5
3CE
  8
2
 10
447.6341090811045
 20
865.30567269396192
 30
0.0
 40
50.0
 50
163.33253587458219
 51
180.0000062778345
  0
ARC
  5
3CF
  8
0
 10
393.98691993787799
 20
881.36740040398411
 30
0.0
 40
6.0
 50
294.60875924946657
 51
343.33253587458239
  0
LINE
  5
3D0
  8
0
 10
408.56225397347822
 20
860.30566721551759
 30
0.0
 11
446.70596418871747
 21
860.30566721551759
 31
0.0
  0
ARC
  5
3D1
  8
0
 10
413.95824532428043
 20
860.22512031070937
 30
0.0
 40
2.0
 50
2.3081230798982588
 51
110.8976859115776
  0
ARC
  5
3D2
  8
0
 10
441.30997283791538
 20
860.22512031070937
 30
0.0
 40
2.0
 50
69.102314088422375
 51
177.69187692010169
  0
ARC
  5
3D3
  8
0
 10
461.28129822431782
 20
881.36740040398411
 30
0.0
 40
6.0
 50
196.66746412541761
 51
245.3912407505334
  0
ARC
  5
3D4
  8
2
 10
407.6341090810912
 20
865.30567269396192
 30
0.0
 40
50.0
 50
359.99999372216553
 51
16.66746412541773
  0
LINE
  5
3D5
  8
0
 10
458.78277948815969
 20
875.91236565385941
 30
0.0
 11
510.32346175452028
 21
852.30566721551725
 31
0.0
  0
LINE
  5
3D6
  8
0
 10
440.1996721845955
 20
878.30192297978988
 30
0.0
 11
501.11319531688571
 21
852.30566721551725
 31
0.0
  0
LINE
  5
3D7
  8
0
 10
442.02337337380862
 20
862.09355807402596
 30
0.0
 11
467.65843247894082
 21
852.30566721551725
 31
0.0
  0
ARC
  5
3D8
  8
0
 10
407.6341090810912
 20
865.30567269396192
 30
0.0
 40
50.0
 50
16.667464125417631
 51
18.111754742426751
  0
LINE
  5
3D9
  8
0
 10
452.63410908109802
 20
882.3056672155177
 30
0.0
 11
455.1567077596888
 21
880.84924418937601
 31
0.0
  0
ARC
  5
3DA
  8
0
 10
451.1341090810979
 20
898.80566721551781
 30
0.0
 40
1.5
 50
360.0
 51
89.999999999999986
  0
LINE
  5
3DB
  8
0
 10
452.6341090810979
 20
882.3056672155177
 30
0.0
 11
452.6341090810979
 21
898.80566721551781
 31
0.0
  0
LINE
  5
3DC
  8
0
 10
457.13410908109802
 20
853.75902933659995
 30
0.0
 11
457.13410908109802
 21
856.32402849002312
 31
0.0
  0
POLYLINE
  5
3DD
  8
0
 66
     1
 10
0.0
 20
0.0
 30
0.0
  0
VERTEX
  5
3DE
  8
0
 10
457.13410908109802
 20
853.75902933659972
 30
0.0
 42
0.2001295648643838
 50
180.0
  0
VERTEX
  5
3DF
  8
0
 10
457.74010165825882
 20
852.30566721551725
 30
0.0
 42
0.0978420083922087
 50
180.0
  0
SEQEND
  5
3E0
  8
0
  0
ARC
  5
3E1
  8
2
 10
447.63410908109933
 20
865.3056672155177
 30
0.0
 40
10.0
 50
330.000000000005
 51
360.0
  0
LINE
  5
3E2
  8
2
 10
456.29436311893681
 20
860.30566721551759
 30
0.0
 11
446.7059641887177
 21
860.30566721551759
 31
0.0
  0
LINE
  5
3E3
  8
0
 10
552.6341090810979
 20
830.3056672155177
 30
0.0
 11
552.6341090810979
 21
847.3056672155177
 31
0.0
  0
ARC
  5
3E4
  8
0
 10
547.63410908109779
 20
830.3056672155177
 30
0.0
 40
5.0
 50
270.0
 51
359.99999999999989
  0
ARC
  5
3E5
  8
0
 10
547.63410908109779
 20
847.3056672155177
 30
0.0
 40
5.0
 50
360.0
 51
89.999999999999986
  0
ARC
  5
3E6
  8
0
 10
440.7735019760687
 20
879.64650100648169
 30
0.0
 40
1.461906528969696
 50
180.0
 51
246.88851220785369
  0
ARC
  5
3E7
  8
0
 10
414.49471618612699
 20
879.64650100648169
 30
0.0
 40
1.461906528969696
 50
293.11148779214642
 51
360.0
  0
LINE
  5
3E8
  8
0
 10
415.06854597760019
 20
878.30192297978988
 30
0.0
 11
354.15502284530999
 21
852.30566721551725
 31
0.0
  0
LINE
  5
3E9
  8
0
 10
438.11532316938781
 20
855.63724228461535
 30
0.0
 11
446.83208560061189
 21
852.58637543368707
 31
0.0
  0
LINE
  5
3EA
  8
0
 10
437.12427189520349
 20
855.80566721551725
 30
0.0
 11
418.14394626699232
 21
855.80566721551725
 31
0.0
  0
ARC
  5
3EB
  8
0
 10
448.4838377242524
 20
857.30566721551725
 30
0.0
 40
5.0
 50
250.7099537808125
 51
270.0
  0
ARC
  5
3EC
  8
0
 10
437.12427189520349
 20
852.80566721551725
 30
0.0
 40
3.0
 50
70.709953780812626
 51
89.999999999999915
  0
ARC
  5
3ED
  8
0
 10
418.14394626699232
 20
852.80566721551725
 30
0.0
 40
3.0
 50
90.000000000000085
 51
109.2900462191873
  0
ARC
  5
3EE
  8
0
 10
406.78438043794341
 20
857.30566721551725
 30
0.0
 40
5.0
 50
270.0
 51
289.2900462191875
  0
LINE
  5
3EF
  8
0
 10
417.15289499280811
 20
855.63724228461535
 30
0.0
 11
408.43613256158392
 21
852.58637543368707
 31
0.0
  0
LINE
  5
3F0
  8
0
 10
458.78277948816009
 20
196.70623946204799
 30
0.0
 11
510.32346175452051
 21
220.3129379003903
 31
0.0
  0
LINE
  5
3F1
  8
0
 10
457.13410908109819
 20
216.29457662588419
 30
0.0
 11
467.65843247894111
 21
220.31293790039021
 31
0.0
  0
LINE
  5
3F2
  8
0
 10
398.13410908109807
 20
216.2945766258843
 30
0.0
 11
387.60978568325521
 21
220.31293790039021
 31
0.0
  0
LINE
  5
3F3
  8
0
 10
396.48543867403629
 20
196.70623946204799
 30
0.0
 11
344.94475640767581
 21
220.3129379003903
 31
0.0
  0
ARC
  5
3F4
  8
0
 10
393.98691993787833
 20
191.25120471192329
 30
0.0
 40
6.0
 50
16.667464125417592
 51
65.391240750533427
  0
ARC
  5
3F5
  8
0
 10
461.28129822431799
 20
191.25120471192329
 30
0.0
 40
6.0
 50
114.6087592494666
 51
163.33253587458239
  0
LINE
  5
3F6
  8
0
 10
457.32626280096292
 20
209.77508254898959
 30
0.0
 11
484.14013687283563
 21
220.31293790039001
 31
0.0
  0
LINE
  5
3F7
  8
0
 10
397.9419553612334
 20
209.77508254898959
 30
0.0
 11
371.12808128936069
 21
220.31293790039001
 31
0.0
  0
LINE
  5
3F8
  8
0
 10
782.60141381811911
 20
209.77508254898959
 30
0.0
 11
755.78753974624635
 21
220.31293790039001
 31
0.0
  0
LINE
  5
3F9
  8
0
 10
841.98572125784858
 20
209.77508254898959
 30
0.0
 11
868.79959532972146
 21
220.31293790039001
 31
0.0
  0
ARC
  5
3FA
  8
0
 10
845.94075668120365
 20
191.25120471192329
 30
0.0
 40
6.0
 50
114.6087592494666
 51
163.33253587458239
  0
ARC
  5
3FB
  8
0
 10
778.64637839476404
 20
191.25120471192329
 30
0.0
 40
6.0
 50
16.667464125417592
 51
65.391240750533427
  0
LINE
  5
3FC
  8
0
 10
781.144897130922
 20
196.70623946204799
 30
0.0
 11
729.60421486456153
 21
220.3129379003903
 31
0.0
  0
LINE
  5
3FD
  8
0
 10
782.79356753798379
 20
216.2945766258843
 30
0.0
 11
772.26924414014093
 21
220.31293790039021
 31
0.0
  0
LINE
  5
3FE
  8
0
 10
841.7935675379839
 20
216.29457662588419
 30
0.0
 11
852.31789093582677
 21
220.31293790039021
 31
0.0
  0
LINE
  5
3FF
  8
0
 10
843.4422379450458
 20
196.70623946204799
 30
0.0
 11
894.98292021140628
 21
220.3129379003903
 31
0.0
  0
LINE
  5
400
  8
0
 10
822.7935675379839
 20
247.8129379003895
 30
0.0
 11
822.09152650911062
 21
247.8129379003895
 31
0.0
  0
LINE
  5
401
  8
0
 10
801.79356753798356
 20
247.8129379003895
 30
0.0
 11
801.29356753798356
 21
247.3129379003895
 31
0.0
  0
LINE
  5
402
  8
0
 10
837.2935675379839
 20
190.3129379003895
 30
0.0
 11
787.2935675379839
 21
190.3129379003893
 31
0.0
  0
LINE
  5
403
  8
0
 10
784.77096885939272
 20
191.76936092653119
 30
0.0
 11
839.81616621657281
 21
191.7693609265298
 31
0.0
  0
ARC
  5
404
  8
0
 10
832.2935675379905
 20
207.31293242194539
 30
0.0
 40
50.0
 50
179.9999937221655
 51
198.11175474242671
  0
LINE
  5
405
  8
0
 10
932.29356753798379
 20
220.31293790039001
 30
0.0
 11
692.2935675379839
 21
220.31293790039001
 31
0.0
  0
LINE
  5
406
  8
0
 10
787.29356753798379
 20
190.3129379003895
 30
0.0
 11
784.77096885939295
 21
191.76936092653119
 31
0.0
  0
LINE
  5
407
  8
2
 10
840.95382157582276
 20
212.3129379003895
 30
0.0
 11
783.63331350013641
 21
212.3129379003895
 31
0.0
  0
ARC
  5
408
  8
0
 10
788.79356753798379
 20
173.8129379003895
 30
0.0
 40
1.5
 50
180.0
 51
270.0
  0
LINE
  5
409
  8
0
 10
788.79356753798379
 20
172.3129379003895
 30
0.0
 11
835.79356753798379
 21
172.3129379003895
 31
0.0
  0
LINE
  5
40A
  8
0
 10
787.2935675379839
 20
190.3129379003895
 30
0.0
 11
787.2935675379839
 21
173.8129379003895
 31
0.0
  0
ARC
  5
40B
  8
0
 10
932.29356753798379
 20
225.3129379003895
 30
0.0
 40
5.0
 50
270.0
 51
0.0000000000000368
  0
ARC
  5
40C
  8
0
 10
932.29356753798379
 20
242.3129379003895
 30
0.0
 40
5.0
 50
0.0000000000000877
 51
90.000000000000028
  0
LINE
  5
40D
  8
0
 10
692.29356753798379
 20
247.3129379003895
 30
0.0
 11
932.29356753798379
 21
247.3129379003895
 31
0.0
  0
LINE
  5
40E
  8
0
 10
937.29356753798368
 20
242.3129379003895
 30
0.0
 11
937.29356753798368
 21
225.3129379003895
 31
0.0
  0
LINE
  5
40F
  8
0
 10
687.29356753798356
 20
242.3129379003895
 30
0.0
 11
687.29356753798356
 21
225.3129379003895
 31
0.0
  0
ARC
  5
410
  8
0
 10
692.29356753798368
 20
242.3129379003895
 30
0.0
 40
5.0
 50
89.999999999999986
 51
179.99999999999989
  0
ARC
  5
411
  8
0
 10
692.29356753798368
 20
225.3129379003895
 30
0.0
 40
5.0
 50
180.0
 51
270.0
  0
LINE
  5
412
  8
0
 10
822.7935675379839
 20
247.8129379003895
 30
0.0
 11
823.29356753798402
 21
247.3129379003895
 31
0.0
  0
LINE
  5
413
  8
1
 10
812.2935675379839
 20
162.3129379003895
 30
0.0
 11
812.2935675379839
 21
261.81293790038302
 31
0.0
  0
LINE
  5
414
  8
0
 10
782.79356753798379
 20
218.85957577930731
 30
0.0
 11
782.79356753798379
 21
200.25956443215841
 31
0.0
  0
POLYLINE
  5
415
  8
0
 66
     1
 10
0.0
 20
0.0
 30
0.0
  0
VERTEX
  5
416
  8
0
 10
782.79356753798379
 20
218.85957577930739
 30
0.0
 42
0.2001295648643838
  0
VERTEX
  5
417
  8
0
 10
782.18757496082299
 20
220.31293790039001
 30
0.0
 42
0.0978420083922087
  0
SEQEND
  5
418
  8
0
  0
ARC
  5
419
  8
0
 10
792.29356753798254
 20
207.3129379003895
 30
0.0
 40
10.0
 50
161.80512766121831
 51
180.0
  0
ARC
  5
41A
  8
2
 10
792.29356753798254
 20
207.3129379003895
 30
0.0
 40
10.0
 50
150.00000000000489
 51
161.80512766121831
  0
ARC
  5
41B
  8
2
 10
832.29356753798515
 20
207.3129379003895
 30
0.0
 40
10.0
 50
18.194872338781678
 51
29.99999999999503
  0
ARC
  5
41C
  8
0
 10
832.29356753798515
 20
207.3129379003895
 30
0.0
 40
10.0
 50
360.0
 51
18.194872338781678
  0
POLYLINE
  5
41D
  8
0
 66
     1
 10
0.0
 20
0.0
 30
0.0
  0
VERTEX
  5
41E
  8
0
 10
841.79356753798402
 20
218.85957577930739
 30
0.0
 42
-0.2001295648643838
  0
VERTEX
  5
41F
  8
0
 10
842.39956011514482
 20
220.31293790039001
 30
0.0
 42
-0.0978420083922087
  0
SEQEND
  5
420
  8
0
  0
LINE
  5
421
  8
0
 10
841.79356753798402
 20
218.85957577930731
 30
0.0
 11
841.79356753798402
 21
200.25956443215841
 31
0.0
  0
LINE
  5
422
  8
0
 10
837.2935675379839
 20
190.3129379003895
 30
0.0
 11
837.2935675379839
 21
173.8129379003895
 31
0.0
  0
ARC
  5
423
  8
0
 10
835.79356753798379
 20
173.8129379003895
 30
0.0
 40
1.5
 50
270.0
 51
360.0
  0
LINE
  5
424
  8
0
 10
837.29356753798402
 20
190.3129379003895
 30
0.0
 11
839.81616621657474
 21
191.76936092653119
 31
0.0
  0
ARC
  5
425
  8
0
 10
792.29356753797731
 20
207.31293242194539
 30
0.0
 40
50.0
 50
341.88824525757332
 51
0.0000062778345027
  0
LINE
  5
426
  8
0
 10
801.81235344969377
 20
855.63724228461535
 30
0.0
 11
793.09559101846969
 21
852.58637543368707
 31
0.0
  0
ARC
  5
427
  8
0
 10
791.44383889482924
 20
857.30566721551725
 30
0.0
 40
5.0
 50
270.0
 51
289.2900462191875
  0
ARC
  5
428
  8
0
 10
802.80340472387809
 20
852.80566721551725
 30
0.0
 40
3.0
 50
90.000000000000085
 51
109.2900462191873
  0
ARC
  5
429
  8
0
 10
821.78373035208926
 20
852.80566721551725
 30
0.0
 40
3.0
 50
70.709953780812626
 51
89.999999999999915
  0
ARC
  5
42A
  8
0
 10
833.14329618113823
 20
857.30566721551725
 30
0.0
 40
5.0
 50
250.7099537808125
 51
270.0
  0
LINE
  5
42B
  8
0
 10
821.78373035208926
 20
855.80566721551725
 30
0.0
 11
802.80340472387809
 21
855.80566721551725
 31
0.0
  0
LINE
  5
42C
  8
0
 10
822.77478162627358
 20
855.63724228461535
 30
0.0
 11
831.49154405749755
 21
852.58637543368707
 31
0.0
  0
LINE
  5
42D
  8
0
 10
799.72800443448591
 20
878.30192297978988
 30
0.0
 11
738.81448130219565
 21
852.30566721551725
 31
0.0
  0
ARC
  5
42E
  8
0
 10
799.15417464301277
 20
879.64650100648169
 30
0.0
 40
1.461906528969696
 50
293.11148779214642
 51
360.0
  0
ARC
  5
42F
  8
0
 10
825.43296043295436
 20
879.64650100648169
 30
0.0
 40
1.461906528969696
 50
180.0
 51
246.88851220785369
  0
ARC
  5
430
  8
0
 10
932.29356753798356
 20
847.3056672155177
 30
0.0
 40
5.0
 50
360.0
 51
89.999999999999986
  0
ARC
  5
431
  8
0
 10
932.29356753798356
 20
830.3056672155177
 30
0.0
 40
5.0
 50
270.0
 51
359.99999999999989
  0
LINE
  5
432
  8
0
 10
937.29356753798345
 20
830.3056672155177
 30
0.0
 11
937.29356753798345
 21
847.3056672155177
 31
0.0
  0
LINE
  5
433
  8
2
 10
840.95382157582253
 20
860.30566721551759
 30
0.0
 11
831.36542264560353
 21
860.30566721551759
 31
0.0
  0
ARC
  5
434
  8
2
 10
832.29356753798493
 20
865.3056672155177
 30
0.0
 40
10.0
 50
330.000000000005
 51
360.0
  0
POLYLINE
  5
435
  8
0
 66
     1
 10
0.0
 20
0.0
 30
0.0
  0
VERTEX
  5
436
  8
0
 10
841.79356753798368
 20
853.75902933659972
 30
0.0
 42
0.2001295648643838
 50
180.0
  0
VERTEX
  5
437
  8
0
 10
842.3995601151446
 20
852.30566721551725
 30
0.0
 42
0.0978420083922087
 50
180.0
  0
SEQEND
  5
438
  8
0
  0
LINE
  5
439
  8
0
 10
841.79356753798368
 20
853.75902933659995
 30
0.0
 11
841.79356753798368
 21
856.32402849002312
 31
0.0
  0
LINE
  5
43A
  8
0
 10
837.29356753798345
 20
882.3056672155177
 30
0.0
 11
837.29356753798345
 21
898.80566721551781
 31
0.0
  0
ARC
  5
43B
  8
0
 10
835.79356753798345
 20
898.80566721551781
 30
0.0
 40
1.5
 50
360.0
 51
89.999999999999986
  0
LINE
  5
43C
  8
0
 10
837.29356753798368
 20
882.3056672155177
 30
0.0
 11
839.81616621657463
 21
880.84924418937601
 31
0.0
  0
ARC
  5
43D
  8
0
 10
792.29356753797686
 20
865.30567269396192
 30
0.0
 40
50.0
 50
16.667464125417631
 51
18.111754742426751
  0
LINE
  5
43E
  8
0
 10
826.68283183069434
 20
862.09355807402596
 30
0.0
 11
852.31789093582665
 21
852.30566721551725
 31
0.0
  0
LINE
  5
43F
  8
0
 10
824.85913064148122
 20
878.30192297978988
 30
0.0
 11
885.77265377377148
 21
852.30566721551725
 31
0.0
  0
LINE
  5
440
  8
0
 10
843.44223794504535
 20
875.91236565385941
 30
0.0
 11
894.98292021140594
 21
852.30566721551725
 31
0.0
  0
ARC
  5
441
  8
2
 10
792.29356753797686
 20
865.30567269396192
 30
0.0
 40
50.0
 50
359.99999372216553
 51
16.66746412541773
  0
ARC
  5
442
  8
0
 10
845.94075668120365
 20
881.36740040398411
 30
0.0
 40
6.0
 50
196.66746412541761
 51
245.3912407505334
  0
ARC
  5
443
  8
0
 10
825.96943129480098
 20
860.22512031070937
 30
0.0
 40
2.0
 50
69.102314088422375
 51
177.69187692010169
  0
ARC
  5
444
  8
0
 10
798.61770378116603
 20
860.22512031070937
 30
0.0
 40
2.0
 50
2.3081230798982588
 51
110.8976859115776
  0
LINE
  5
445
  8
0
 10
793.22171243036382
 20
860.30566721551759
 30
0.0
 11
831.36542264560342
 21
860.30566721551759
 31
0.0
  0
ARC
  5
446
  8
0
 10
778.64637839476359
 20
881.36740040398411
 30
0.0
 40
6.0
 50
294.60875924946657
 51
343.33253587458239
  0
ARC
  5
447
  8
2
 10
832.29356753799016
 20
865.30567269396192
 30
0.0
 40
50.0
 50
163.33253587458219
 51
180.0000062778345
  0
LINE
  5
448
  8
0
 10
781.14489713092155
 20
875.91236565385941
 30
0.0
 11
729.6042148645613
 21
852.30566721551725
 31
0.0
  0
LINE
  5
449
  8
0
 10
797.90430324527279
 20
862.09355807402596
 30
0.0
 11
772.2692441401407
 21
852.30566721551725
 31
0.0
  0
ARC
  5
44A
  8
0
 10
832.29356753799016
 20
865.30567269396192
 30
0.0
 40
50.0
 50
161.8882452575732
 51
163.33253587458231
  0
LINE
  5
44B
  8
0
 10
787.29356753798345
 20
882.3056672155177
 30
0.0
 11
784.77096885939272
 21
880.84924418937601
 31
0.0
  0
ARC
  5
44C
  8
0
 10
788.79356753798356
 20
898.80566721551781
 30
0.0
 40
1.5
 50
89.999999999999986
 51
180.0
  0
LINE
  5
44D
  8
0
 10
787.29356753798345
 20
882.3056672155177
 30
0.0
 11
787.29356753798345
 21
898.80566721551781
 31
0.0
  0
LINE
  5
44E
  8
0
 10
782.79356753798345
 20
853.75902933659995
 30
0.0
 11
782.79356753798345
 21
856.32402849002312
 31
0.0
  0
POLYLINE
  5
44F
  8
0
 66
     1
 10
0.0
 20
0.0
 30
0.0
  0
VERTEX
  5
450
  8
0
 10
782.79356753798345
 20
853.75902933659972
 30
0.0
 42
-0.2001295648643838
 50
180.0
  0
VERTEX
  5
451
  8
0
 10
782.18757496082264
 20
852.30566721551725
 30
0.0
 42
-0.0978420083922087
 50
180.0
  0
SEQEND
  5
452
  8
0
  0
ARC
  5
453
  8
2
 10
792.2935675379822
 20
865.3056672155177
 30
0.0
 40
10.0
 50
180.0
 51
209.999999999995
  0
LINE
  5
454
  8
1
 10
812.29356753798345
 20
910.30566721551759
 30
0.0
 11
812.29356753798368
 21
810.80566721551793
 31
0.0
  0
LINE
  5
455
  8
0
 10
801.79356753798345
 20
824.8056672155177
 30
0.0
 11
801.29356753798356
 21
825.30566721551759
 31
0.0
  0
LINE
  5
456
  8
0
 10
687.29356753798345
 20
830.3056672155177
 30
0.0
 11
687.29356753798345
 21
847.3056672155177
 31
0.0
  0
LINE
  5
457
  8
0
 10
932.29356753798379
 20
825.30566721551759
 30
0.0
 11
692.29356753798345
 21
825.30566721551759
 31
0.0
  0
ARC
  5
458
  8
0
 10
692.29356753798345
 20
830.3056672155177
 30
0.0
 40
5.0
 50
180.00000000000011
 51
270.0
  0
ARC
  5
459
  8
0
 10
692.29356753798345
 20
847.3056672155177
 30
0.0
 40
5.0
 50
89.999999999999986
 51
180.0
  0
LINE
  5
45A
  8
0
 10
835.79356753798345
 20
900.30566721551759
 30
0.0
 11
788.79356753798356
 21
900.30566721551759
 31
0.0
  0
LINE
  5
45B
  8
2
 10
783.63331350014471
 20
860.30566721551759
 30
0.0
 11
793.22171243036382
 21
860.30566721551759
 31
0.0
  0
LINE
  5
45C
  8
0
 10
692.29356753798345
 20
852.30566721551725
 30
0.0
 11
932.29356753798356
 21
852.30566721551725
 31
0.0
  0
LINE
  5
45D
  8
0
 10
839.81616621657474
 20
880.84924418937601
 30
0.0
 11
784.77096885939477
 21
880.84924418937737
 31
0.0
  0
LINE
  5
45E
  8
0
 10
787.29356753798345
 20
882.3056672155177
 30
0.0
 11
837.29356753798345
 21
882.30566721551781
 31
0.0
  0
LINE
  5
45F
  8
0
 10
822.79356753798368
 20
824.8056672155177
 30
0.0
 11
823.29356753798379
 21
825.30566721551759
 31
0.0
  0
LINE
  5
460
  8
0
 10
801.79356753798345
 20
824.8056672155177
 30
0.0
 11
822.79356753798368
 21
824.8056672155177
 31
0.0
  0
ARC
  5
461
  8
0
 10
812.2935675379839
 20
237.8129379003895
 30
0.0
 40
13.999999999995561
 50
42.732110042617848
 51
137.2678899573821
  0
ARC
  5
462
  8
2
 10
812.2935675379839
 20
237.8129379003895
 30
0.0
 40
13.999999999995561
 50
137.2678899573821
 51
42.732110042617848
  0
LINE
  5
463
  8
0
 10
802.49560856685696
 20
247.8129379003895
 30
0.0
 11
801.79356753798356
 21
247.8129379003895
 31
0.0
  0
LINE
  5
464
  8
1
 10
836.29356753797936
 20
237.8129379003895
 30
0.0
 11
788.29356753798834
 21
237.8129379003895
 31
0.0
  0
ARC
  5
465
  8
2
 10
812.29356753798345
 20
834.8056672155177
 30
0.0
 40
13.999999999993969
 50
314.41530859717551
 51
225.58469140282421
  0
ARC
  5
466
  8
0
 10
812.29356753798345
 20
834.8056672155177
 30
0.0
 40
13.999999999993969
 50
225.58469140282421
 51
314.41530859717551
  0
LINE
  5
467
  8
1
 10
836.29356753797754
 20
834.8056672155177
 30
0.0
 11
788.29356753798947
 21
834.8056672155177
 31
0.0
  0
ARC
  5
468
  8
0
 10
812.29356753798345
 20
834.8056672155177
 30
0.0
 40
10.999999999999879
 50
245.3800226712826
 51
294.61997732871743
  0
LINE
  5
4F9
  8
0
 10
1331.5648738613729
 20
466.28217605173381
 30
0.0
 11
1331.5969887024789
 21
470.04205486463479
 31
0.0
  0
TEXT
  5
4FA
  8
0
 10
1327.4463959651389
 20
483.43612475987521
 30
0.0
 40
7.9999660338699794
  1
S
 50
269.51062249585971
 41
0.8460071838822658
 51
359.94303876400568
  7
K90
 72
     1
 11
1327.4188689584771
 21
480.21337149168181
 31
0.0
  0
TEXT
  5
4FB
  8
0
 10
1327.385575017154
 20
476.31544828034959
 30
0.0
 40
7.9999660338697494
  1
Y
 50
269.5106224958443
 41
0.8460071838822921
 51
359.94303876399027
  7
K90
 72
     1
 11
1327.360800711157
 21
473.41497033897571
 31
0.0
  0
TEXT
  5
4FC
  8
0
 10
1327.6440925873831
 20
452.44755974368098
 30
0.0
 40
7.499968156752848
  1
0
 50
269.5106224958443
 41
0.8460071838822969
 51
359.94303876398988
  7
K90
 72
     1
 11
1327.618286018637
 21
449.42622855474968
 31
0.0
  0
TEXT
  5
4FD
  8
0
 10
1327.7018993013751
 20
459.2153416068856
 30
0.0
 40
7.499968156752848
  1
5
 50
269.5106224958443
 41
0.8460071838822969
 51
359.94303876399039
  7
K90
 72
     1
 11
1327.6760927326279
 21
456.1940104179543
 31
0.0
  0
TEXT
  5
4FE
  8
0
 10
1327.7597060153671
 20
465.98312347008948
 30
0.0
 40
7.499968156752848
  1
2
 50
269.5106224958443
 41
0.8460071838822969
 51
359.94303876398988
  7
K90
 72
     1
 11
1327.7338994466199
 21
462.9617922811583
 31
0.0
  0
TEXT
  5
5AC
  8
0
 62
     3
 10
0.0
 20
0.0
 30
0.0
 40
10.0
  1
SY250
  7
STANDARD1
  0
ENDSEC
  0
EOF
