  0
SECTION
  2
HEADER
  9
$ACADVER
  1
AC1009
  9
$INSBASE
 10
82.638099999999994
 20
103.82319099999999
 30
0.0
  9
$EXTMIN
 10
0.0
 20
-1.4802182810368341
 30
0.0
  9
$EXTMAX
 10
145.0
 20
85.0
 30
0.0
  9
$LIMMIN
 10
0.0
 20
0.0
  9
$LIMMAX
 10
187.5
 20
135.0
  9
$ORTHOMODE
 70
     1
  9
$REGENMODE
 70
     1
  9
$FILLMODE
 70
     1
  9
$QTEXTMODE
 70
     0
  9
$MIRRTEXT
 70
     0
  9
$DRAGMODE
 70
     2
  9
$LTSCALE
 40
5.0
  9
$OSMODE
 70
    55
  9
$ATTMODE
 70
     1
  9
$TEXTSIZE
 40
0.06
  9
$TRACEWID
 40
0.05
  9
$TEXTSTYLE
  7
STANDARD
  9
$CLAYER
  8
0
  9
$CELTYPE
  6
BYLAYER
  9
$CECOLOR
 62
   256
  9
$DIMSCALE
 40
0.5
  9
$DIMASZ
 40
3.0
  9
$DIMEXO
 40
2.0
  9
$DIMDLI
 40
10.0
  9
$DIMRND
 40
0.0
  9
$DIMDLE
 40
0.0
  9
$DIMEXE
 40
2.0
  9
$DIMTP
 40
0.0
  9
$DIMTM
 40
0.0
  9
$DIMTXT
 40
3.0
  9
$DIMCEN
 40
0.0
  9
$DIMTSZ
 40
0.0
  9
$DIMTOL
 70
     0
  9
$DIMLIM
 70
     0
  9
$DIMTIH
 70
     0
  9
$DIMTOH
 70
     0
  9
$DIMSE1
 70
     0
  9
$DIMSE2
 70
     0
  9
$DIMTAD
 70
     1
  9
$DIMZIN
 70
     0
  9
$DIMBLK
  1

  9
$DIMASO
 70
     0
  9
$DIMSHO
 70
     0
  9
$DIMPOST
  1

  9
$DIMAPOST
  1

  9
$DIMALT
 70
     0
  9
$DIMALTD
 70
     2
  9
$DIMALTF
 40
25.399999999999999
  9
$DIMLFAC
 40
1.0
  9
$DIMTOFL
 70
     1
  9
$DIMTVP
 40
1.6000000000000001
  9
$DIMTIX
 70
     1
  9
$DIMSOXD
 70
     0
  9
$DIMSAH
 70
     0
  9
$DIMBLK1
  1

  9
$DIMBLK2
  1

  9
$DIMSTYLE
  2
STANDARD
  9
$DIMCLRD
 70
     0
  9
$DIMCLRE
 70
     0
  9
$DIMCLRT
 70
     0
  9
$DIMTFAC
 40
1.0
  9
$DIMGAP
 40
0.09
  9
$LUNITS
 70
     2
  9
$LUPREC
 70
     4
  9
$SKETCHINC
 40
0.1
  9
$FILLETRAD
 40
0.4
  9
$AUNITS
 70
     0
  9
$AUPREC
 70
     4
  9
$MENU
  1
E:\r13\win\SUPPORT\ACAD
  9
$ELEVATION
 40
0.0
  9
$PELEVATION
 40
0.0
  9
$THICKNESS
 40
0.0
  9
$LIMCHECK
 70
     0
  9
$BLIPMODE
 70
     0
  9
$CHAMFERA
 40
0.0
  9
$CHAMFERB
 40
0.0
  9
$SKPOLY
 70
     0
  9
$TDCREATE
 40
2449840.591215278
  9
$TDUPDATE
 40
2456598.427976077
  9
$TDINDWG
 40
0.0185703125
  9
$TDUSRTIMER
 40
0.0185703125
  9
$USRTIMER
 70
     1
  9
$ANGBASE
 50
0.0
  9
$ANGDIR
 70
     0
  9
$PDMODE
 70
     0
  9
$PDSIZE
 40
0.0
  9
$PLINEWID
 40
0.0
  9
$COORDS
 70
     1
  9
$SPLFRAME
 70
     0
  9
$SPLINETYPE
 70
     6
  9
$SPLINESEGS
 70
     8
  9
$ATTDIA
 70
     0
  9
$ATTREQ
 70
     1
  9
$HANDLING
 70
     1
  9
$HANDSEED
  5
32D
  9
$SURFTAB1
 70
     6
  9
$SURFTAB2
 70
     6
  9
$SURFTYPE
 70
     6
  9
$SURFU
 70
     6
  9
$SURFV
 70
     6
  9
$UCSNAME
  2

  9
$UCSORG
 10
0.0
 20
0.0
 30
0.0
  9
$UCSXDIR
 10
1.0
 20
0.0
 30
0.0
  9
$UCSYDIR
 10
0.0
 20
1.0
 30
0.0
  9
$PUCSNAME
  2

  9
$PUCSORG
 10
0.0
 20
0.0
 30
0.0
  9
$PUCSXDIR
 10
1.0
 20
0.0
 30
0.0
  9
$PUCSYDIR
 10
0.0
 20
1.0
 30
0.0
  9
$USERI1
 70
     3
  9
$USERI2
 70
     1
  9
$USERI3
 70
     0
  9
$USERI4
 70
     0
  9
$USERI5
 70
     0
  9
$USERR1
 40
0.5
  9
$USERR2
 40
3.0
  9
$USERR3
 40
3.0
  9
$USERR4
 40
3.0
  9
$USERR5
 40
10.0
  9
$WORLDVIEW
 70
     1
  9
$SHADEDGE
 70
     3
  9
$SHADEDIF
 70
    70
  9
$TILEMODE
 70
     1
  9
$MAXACTVP
 70
    16
  9
$PLIMCHECK
 70
     0
  9
$PEXTMIN
 10
1.0000000000000000E+020
 20
1.0000000000000000E+020
 30
1.0000000000000000E+020
  9
$PEXTMAX
 10
-1.0000000000000000E+020
 20
-1.0000000000000000E+020
 30
-1.0000000000000000E+020
  9
$PLIMMIN
 10
0.0
 20
0.0
  9
$PLIMMAX
 10
12.0
 20
9.0
  9
$UNITMODE
 70
     0
  9
$VISRETAIN
 70
     0
  9
$PLINEGEN
 70
     0
  9
$PSLTSCALE
 70
     0
  0
ENDSEC
  0
SECTION
  2
TABLES
  0
TABLE
  2
VPORT
 70
     1
  0
VPORT
  2
*ACTIVE
 70
     0
 10
0.0
 20
0.0
 11
1.0
 21
1.0
 12
93.747139195326184
 22
98.525452793007162
 13
0.0
 23
0.0
 14
5.0
 24
5.0
 15
10.0
 25
10.0
 16
0.0
 26
0.0
 36
1.0
 17
0.0
 27
0.0
 37
0.0
 40
201.7865794149663
 41
1.7807262569832401
 42
50.0
 43
0.0
 44
0.0
 50
0.0
 51
0.0
 71
     0
 72
   100
 73
     1
 74
     0
 75
     0
 76
     0
 77
     0
 78
     0
  0
ENDTAB
  0
TABLE
  2
LTYPE
 70
     3
  0
LTYPE
  2
CONTINUOUS
 70
     0
  3
Solid Line
 72
    65
 73
     0
 40
0.0
  0
LTYPE
  2
CENTER
 70
     0
  3
____ _ ____ _ ____ _ ____ _ ____ _ ____ _ ____
 72
    65
 73
     4
 40
2.0
 49
1.25
 49
-0.25
 49
0.25
 49
-0.25
  0
LTYPE
  2
PHANTOM2
 70
     0
  3
___ _ _ ___ _ _ ___ _ _ ___ _ _
 72
    65
 73
     6
 40
1.25
 49
0.625
 49
-0.125
 49
0.125
 49
-0.125
 49
0.125
 49
-0.125
  0
ENDTAB
  0
TABLE
  2
LAYER
 70
     3
  0
LAYER
  2
0
 70
     0
 62
     7
  6
CONTINUOUS
  0
LAYER
  2
1
 70
     0
 62
     1
  6
CENTER
  0
LAYER
  2
3
 70
     0
 62
     3
  6
CONTINUOUS
  0
ENDTAB
  0
TABLE
  2
STYLE
 70
     2
  0
STYLE
  2
STANDARD
 70
     0
 40
0.0
 41
1.0
 50
0.0
 71
     0
 42
0.06
  3
TXT
  4
BIGFONT
  0
STYLE
  2
STANDARD1
 70
     0
 40
0.0
 41
1.0
 50
0.0
 71
     0
 42
3.0
  3
txt
  4

  0
ENDTAB
  0
TABLE
  2
VIEW
 70
     0
  0
ENDTAB
  0
TABLE
  2
UCS
 70
     0
  0
ENDTAB
  0
TABLE
  2
APPID
 70
     4
  0
APPID
  2
ACAD
 70
     0
  0
APPID
  2
ACAD_MLEADERVER
 70
     0
  0
APPID
  2
ACAD_NAV_VCDISPLAY
 70
     0
  0
APPID
  2
ACAD_EXEMPT_FROM_CAD_STANDARDS
 70
     0
  0
ENDTAB
  0
TABLE
  2
DIMSTYLE
 70
     1
  0
DIMSTYLE
  2
STANDARD
 70
     0
  3

  4

  5

  6

  7

 40
1.0
 41
0.18
 42
0.0625
 43
0.38
 44
0.18
 45
0.0
 46
0.0
 47
0.0
 48
0.0
140
0.18
141
0.09
142
0.0
143
25.399999999999999
144
1.0
145
0.0
146
1.0
147
0.09
 71
     0
 72
     0
 73
     1
 74
     1
 75
     0
 76
     0
 77
     0
 78
     0
170
     0
171
     2
172
     0
173
     0
174
     0
175
     0
176
     0
177
     0
178
     0
  0
ENDTAB
  0
ENDSEC
  0
SECTION
  2
BLOCKS
  0
BLOCK
  8
0
  2
$MODEL_SPACE
 70
     0
 10
0.0
 20
0.0
 30
0.0
  3
$MODEL_SPACE
  1

  0
ENDBLK
  5
E2
  8
0
  0
BLOCK
 67
     1
  8
0
  2
$PAPER_SPACE
 70
     0
 10
0.0
 20
0.0
 30
0.0
  3
$PAPER_SPACE
  1

  0
ENDBLK
  5
E0
 67
     1
  8
0
  0
BLOCK
  8
0
  2
STDGX5
 70
     0
 10
0.0
 20
0.0
 30
0.0
  3
STDGX5
  1

  0
ENDBLK
  5
2B
  8
0
  0
BLOCK
  8
0
  2
A$C53233126
 70
     0
 10
0.0
 20
0.0
 30
0.0
  3
A$C53233126
  1

  0
LINE
  5
23C
  8
1
 10
53.5
 20
0.0
 30
0.0
 11
-2.0
 21
0.0
 31
0.0
  0
LINE
  5
23D
  8
0
 10
1.0
 20
6.0
 30
0.0
 11
49.0
 21
6.0
 31
0.0
  0
LINE
  5
23E
  8
0
 10
49.0
 20
6.0
 30
0.0
 11
50.0
 21
4.2679490000000007
 31
0.0
  0
LINE
  5
23F
  8
0
 10
1.0
 20
6.0
 30
0.0
 11
0.0
 21
4.2679490000000007
 31
0.0
  0
LINE
  5
240
  8
3
 10
0.4532489999999996
 20
5.0529999999999973
 30
0.0
 11
49.546751
 21
5.0529999999999973
 31
0.0
  0
LINE
  5
241
  8
3
 10
0.4532489999999996
 20
-5.0529999999999973
 30
0.0
 11
49.546751
 21
-5.0529999999999973
 31
0.0
  0
LINE
  5
242
  8
0
 10
1.0
 20
-6.0
 30
0.0
 11
0.0
 21
-4.2679490000000007
 31
0.0
  0
LINE
  5
243
  8
0
 10
49.0
 20
-6.0
 30
0.0
 11
50.0
 21
-4.2679490000000007
 31
0.0
  0
LINE
  5
244
  8
0
 10
49.0
 20
-6.0
 30
0.0
 11
49.0
 21
6.0
 31
0.0
  0
LINE
  5
245
  8
0
 10
50.0
 20
-4.2679490000000007
 30
0.0
 11
50.0
 21
4.2679490000000007
 31
0.0
  0
LINE
  5
246
  8
0
 10
1.0
 20
-6.0
 30
0.0
 11
1.0
 21
6.0
 31
0.0
  0
LINE
  5
247
  8
0
 10
1.0
 20
-6.0
 30
0.0
 11
49.0
 21
-6.0
 31
0.0
  0
LINE
  5
248
  8
0
 10
0.0
 20
-4.2679490000000007
 30
0.0
 11
0.0
 21
4.2679490000000007
 31
0.0
  0
LINE
  5
249
  8
0
 10
51.5
 20
3.0
 30
0.0
 11
50.0
 21
3.0
 31
0.0
  0
LINE
  5
24A
  8
0
 10
51.5
 20
-3.0
 30
0.0
 11
50.0
 21
-3.0
 31
0.0
  0
CIRCLE
  5
24B
  8
0
 10
80.0
 20
0.0
 30
0.0
 40
6.0
  0
LINE
  5
24C
  8
1
 10
88.0
 20
0.0
 30
0.0
 11
72.0
 21
0.0
 31
0.0
  0
LINE
  5
24D
  8
1
 10
80.0
 20
-8.0
 30
0.0
 11
80.0
 21
8.0
 31
0.0
  0
CIRCLE
  5
24E
  8
3
 10
80.0
 20
0.0
 30
0.0
 40
5.052999999999999
  0
CIRCLE
  5
24F
  8
0
 10
80.0
 20
0.0
 30
0.0
 40
3.5
  0
CIRCLE
  5
250
  8
0
 10
80.0
 20
0.0
 30
0.0
 40
3.0
  0
CIRCLE
  5
251
  8
0
 10
80.0
 20
0.0
 30
0.0
 40
4.2679489999999989
  0
CIRCLE
  5
252
  8
0
 10
-30.0
 20
0.0
 30
0.0
 40
4.2679489999999989
  0
CIRCLE
  5
253
  8
3
 10
-30.0
 20
0.0
 30
0.0
 40
5.052999999999999
  0
LINE
  5
254
  8
1
 10
-30.0
 20
-8.0
 30
0.0
 11
-30.0
 21
8.0
 31
0.0
  0
LINE
  5
255
  8
1
 10
-22.0
 20
0.0
 30
0.0
 11
-38.0
 21
0.0
 31
0.0
  0
CIRCLE
  5
256
  8
0
 10
-30.0
 20
0.0
 30
0.0
 40
6.0
  0
LINE
  5
257
  8
0
 10
-30.0
 20
-3.0
 30
0.0
 11
-31.732050999999998
 21
-3.0
 31
0.0
  0
LINE
  5
258
  8
0
 10
-31.732050999999998
 20
-3.0
 30
0.0
 11
-28.267949000000002
 21
-3.0
 31
0.0
  0
LINE
  5
259
  8
0
 10
-28.267949000000002
 20
-3.0
 30
0.0
 11
-26.535898
 21
0.0
 31
0.0
  0
LINE
  5
25A
  8
0
 10
-26.535898
 20
0.0
 30
0.0
 11
-28.267949000000002
 21
3.0
 31
0.0
  0
LINE
  5
25B
  8
0
 10
-28.267949000000002
 20
3.0
 30
0.0
 11
-31.732050999999998
 21
3.0
 31
0.0
  0
LINE
  5
25C
  8
0
 10
-31.732050999999998
 20
3.0
 30
0.0
 11
-33.464101999999997
 21
0.0
 31
0.0
  0
LINE
  5
25D
  8
0
 10
-33.464101999999997
 20
0.0
 30
0.0
 11
-31.732050999999998
 21
-3.0
 31
0.0
  0
LINE
  5
25E
  8
0
 10
51.5
 20
-3.0
 30
0.0
 11
51.5
 21
3.0
 31
0.0
  0
ENDBLK
  5
260
  8
0
  0
ENDSEC
  0
SECTION
  2
ENTITIES
  0
INSERT
  5
37
  8
0
  2
STDGX5
 10
0.0
 20
0.0
 30
0.0
  0
INSERT
  5
41
  8
0
  2
STDGX5
 10
0.0
 20
0.0
 30
0.0
  0
INSERT
  5
42
  8
0
  2
STDGX5
 10
0.0
 20
0.0
 30
0.0
  0
INSERT
  5
43
  8
0
  2
STDGX5
 10
0.0
 20
0.0
 30
0.0
  0
CIRCLE
  5
44
  8
0
 10
135.0
 20
75.0
 30
0.0
 40
4.25
  0
CIRCLE
  5
5C
  8
0
 10
135.0
 20
75.0
 30
0.0
 40
5.0
  0
INSERT
  5
5D
  8
0
  2
STDGX5
 10
0.0
 20
0.0
 30
0.0
  0
LINE
  5
5E
  8
1
 10
108.5
 20
75.0
 30
0.0
 11
78.0
 21
75.0
 31
0.0
  0
LINE
  5
5F
  8
0
 10
81.099999999999994
 20
83.0
 30
0.0
 11
103.90000000000001
 21
83.0
 31
0.0
  0
LINE
  5
60
  8
3
 10
80.475018000000006
 20
81.917500000000004
 30
0.0
 11
104.52498199999999
 21
81.917500000000004
 31
0.0
  0
LINE
  5
61
  8
0
 10
81.099999999999994
 20
83.0
 30
0.0
 11
80.0
 21
81.094743999999992
 31
0.0
  0
LINE
  5
62
  8
0
 10
103.90000000000001
 20
83.0
 30
0.0
 11
105.0
 21
81.094743999999992
 31
0.0
  0
LINE
  5
63
  8
0
 10
103.90000000000001
 20
67.0
 30
0.0
 11
105.0
 21
68.905256000000008
 31
0.0
  0
LINE
  5
64
  8
0
 10
103.90000000000001
 20
67.0
 30
0.0
 11
103.90000000000001
 21
83.0
 31
0.0
  0
LINE
  5
65
  8
0
 10
105.0
 20
68.905256000000008
 30
0.0
 11
105.0
 21
81.094743999999992
 31
0.0
  0
LINE
  5
66
  8
0
 10
81.099999999999994
 20
67.0
 30
0.0
 11
80.0
 21
68.905256000000008
 31
0.0
  0
LINE
  5
67
  8
3
 10
80.475018000000006
 20
68.082499999999996
 30
0.0
 11
104.52498199999999
 21
68.082499999999996
 31
0.0
  0
LINE
  5
68
  8
0
 10
81.099999999999994
 20
67.0
 30
0.0
 11
103.90000000000001
 21
67.0
 31
0.0
  0
LINE
  5
69
  8
0
 10
81.099999999999994
 20
67.0
 30
0.0
 11
81.099999999999994
 21
83.0
 31
0.0
  0
LINE
  5
6A
  8
0
 10
80.0
 20
68.905256000000008
 30
0.0
 11
80.0
 21
81.094743999999992
 31
0.0
  0
LINE
  5
72
  8
0
 10
106.5
 20
70.75
 30
0.0
 11
105.0
 21
70.75
 31
0.0
  0
LINE
  5
73
  8
0
 10
106.5
 20
79.25
 30
0.0
 11
105.0
 21
79.25
 31
0.0
  0
CIRCLE
  5
74
  8
0
 10
135.0
 20
75.0
 30
0.0
 40
8.0
  0
LINE
  5
75
  8
1
 10
145.0
 20
75.0
 30
0.0
 11
125.0
 21
75.0
 31
0.0
  0
LINE
  5
76
  8
1
 10
135.0
 20
65.0
 30
0.0
 11
135.0
 21
85.0
 31
0.0
  0
CIRCLE
  5
77
  8
3
 10
135.0
 20
75.0
 30
0.0
 40
6.9175000000000004
  0
CIRCLE
  5
78
  8
0
 10
135.0
 20
75.0
 30
0.0
 40
6.0947440000000004
  0
CIRCLE
  5
79
  8
0
 10
50.0
 20
75.0
 30
0.0
 40
6.0947440000000004
  0
CIRCLE
  5
7A
  8
3
 10
50.0
 20
75.0
 30
0.0
 40
6.9175000000000004
  0
LINE
  5
7B
  8
1
 10
50.0
 20
65.0
 30
0.0
 11
50.0
 21
85.0
 31
0.0
  0
LINE
  5
7C
  8
1
 10
60.0
 20
75.0
 30
0.0
 11
40.0
 21
75.0
 31
0.0
  0
CIRCLE
  5
7D
  8
0
 10
50.0
 20
75.0
 30
0.0
 40
8.0
  0
LINE
  5
7E
  8
0
 10
52.309401000000001
 20
71.0
 30
0.0
 11
47.690598999999999
 21
71.0
 31
0.0
  0
LINE
  5
7F
  8
0
 10
54.618802000000002
 20
75.0
 30
0.0
 11
52.309401000000001
 21
71.0
 31
0.0
  0
LINE
  5
80
  8
0
 10
52.309401000000001
 20
79.0
 30
0.0
 11
54.618802000000002
 21
75.0
 31
0.0
  0
LINE
  5
81
  8
0
 10
47.690598999999999
 20
79.0
 30
0.0
 11
52.309401000000001
 21
79.0
 31
0.0
  0
LINE
  5
82
  8
0
 10
45.381197999999991
 20
75.0
 30
0.0
 11
47.690598999999999
 21
79.0
 31
0.0
  0
LINE
  5
83
  8
0
 10
47.690598999999999
 20
71.0
 30
0.0
 11
45.381197999999991
 21
75.0
 31
0.0
  0
LINE
  5
21C
  8
0
 10
106.5
 20
70.75
 30
0.0
 11
106.5
 21
79.25
 31
0.0
  0
TEXT
  5
2D6
  8
0
 62
     3
 10
0.0
 20
0.0
 30
0.0
 40
5.0
  1
TBU-16025-F
  7
STANDARD1
  0
ENDSEC
  0
EOF
