  0
SECTION
  2
HEADER
  9
$ACADVER
  1
AC1009
  9
$INSBASE
 10
82.638099999999994
 20
103.82319099999999
 30
0.0
  9
$EXTMIN
 10
0.0
 20
-1.4802182810368341
 30
0.0
  9
$EXTMAX
 10
153.0
 20
93.0
 30
0.0
  9
$LIMMIN
 10
0.0
 20
0.0
  9
$LIMMAX
 10
187.5
 20
135.0
  9
$ORTHOMODE
 70
     1
  9
$REGENMODE
 70
     1
  9
$FILLMODE
 70
     1
  9
$QTEXTMODE
 70
     0
  9
$MIRRTEXT
 70
     0
  9
$DRAGMODE
 70
     2
  9
$LTSCALE
 40
5.0
  9
$OSMODE
 70
    55
  9
$ATTMODE
 70
     1
  9
$TEXTSIZE
 40
0.06
  9
$TRACEWID
 40
0.05
  9
$TEXTSTYLE
  7
STANDARD
  9
$CLAYER
  8
0
  9
$CELTYPE
  6
BYLAYER
  9
$CECOLOR
 62
   256
  9
$DIMSCALE
 40
0.5
  9
$DIMASZ
 40
3.0
  9
$DIMEXO
 40
2.0
  9
$DIMDLI
 40
10.0
  9
$DIMRND
 40
0.0
  9
$DIMDLE
 40
0.0
  9
$DIMEXE
 40
2.0
  9
$DIMTP
 40
0.0
  9
$DIMTM
 40
0.0
  9
$DIMTXT
 40
3.0
  9
$DIMCEN
 40
0.0
  9
$DIMTSZ
 40
0.0
  9
$DIMTOL
 70
     0
  9
$DIMLIM
 70
     0
  9
$DIMTIH
 70
     0
  9
$DIMTOH
 70
     0
  9
$DIMSE1
 70
     0
  9
$DIMSE2
 70
     0
  9
$DIMTAD
 70
     1
  9
$DIMZIN
 70
     0
  9
$DIMBLK
  1

  9
$DIMASO
 70
     0
  9
$DIMSHO
 70
     0
  9
$DIMPOST
  1

  9
$DIMAPOST
  1

  9
$DIMALT
 70
     0
  9
$DIMALTD
 70
     2
  9
$DIMALTF
 40
25.399999999999999
  9
$DIMLFAC
 40
1.0
  9
$DIMTOFL
 70
     1
  9
$DIMTVP
 40
1.6000000000000001
  9
$DIMTIX
 70
     1
  9
$DIMSOXD
 70
     0
  9
$DIMSAH
 70
     0
  9
$DIMBLK1
  1

  9
$DIMBLK2
  1

  9
$DIMSTYLE
  2
STANDARD
  9
$DIMCLRD
 70
     0
  9
$DIMCLRE
 70
     0
  9
$DIMCLRT
 70
     0
  9
$DIMTFAC
 40
1.0
  9
$DIMGAP
 40
0.09
  9
$LUNITS
 70
     2
  9
$LUPREC
 70
     4
  9
$SKETCHINC
 40
0.1
  9
$FILLETRAD
 40
0.4
  9
$AUNITS
 70
     0
  9
$AUPREC
 70
     4
  9
$MENU
  1
E:\r13\win\SUPPORT\ACAD
  9
$ELEVATION
 40
0.0
  9
$PELEVATION
 40
0.0
  9
$THICKNESS
 40
0.0
  9
$LIMCHECK
 70
     0
  9
$BLIPMODE
 70
     0
  9
$CHAMFERA
 40
0.0
  9
$CHAMFERB
 40
0.0
  9
$SKPOLY
 70
     0
  9
$TDCREATE
 40
2449840.5912731481
  9
$TDUPDATE
 40
2456598.42833213
  9
$TDINDWG
 40
0.0075286574
  9
$TDUSRTIMER
 40
0.0075286574
  9
$USRTIMER
 70
     1
  9
$ANGBASE
 50
0.0
  9
$ANGDIR
 70
     0
  9
$PDMODE
 70
     0
  9
$PDSIZE
 40
0.0
  9
$PLINEWID
 40
0.0
  9
$COORDS
 70
     1
  9
$SPLFRAME
 70
     0
  9
$SPLINETYPE
 70
     6
  9
$SPLINESEGS
 70
     8
  9
$ATTDIA
 70
     0
  9
$ATTREQ
 70
     1
  9
$HANDLING
 70
     1
  9
$HANDSEED
  5
2C5
  9
$SURFTAB1
 70
     6
  9
$SURFTAB2
 70
     6
  9
$SURFTYPE
 70
     6
  9
$SURFU
 70
     6
  9
$SURFV
 70
     6
  9
$UCSNAME
  2

  9
$UCSORG
 10
0.0
 20
0.0
 30
0.0
  9
$UCSXDIR
 10
1.0
 20
0.0
 30
0.0
  9
$UCSYDIR
 10
0.0
 20
1.0
 30
0.0
  9
$PUCSNAME
  2

  9
$PUCSORG
 10
0.0
 20
0.0
 30
0.0
  9
$PUCSXDIR
 10
1.0
 20
0.0
 30
0.0
  9
$PUCSYDIR
 10
0.0
 20
1.0
 30
0.0
  9
$USERI1
 70
     3
  9
$USERI2
 70
     1
  9
$USERI3
 70
     0
  9
$USERI4
 70
     0
  9
$USERI5
 70
     0
  9
$USERR1
 40
0.5
  9
$USERR2
 40
3.0
  9
$USERR3
 40
3.0
  9
$USERR4
 40
3.0
  9
$USERR5
 40
10.0
  9
$WORLDVIEW
 70
     1
  9
$SHADEDGE
 70
     3
  9
$SHADEDIF
 70
    70
  9
$TILEMODE
 70
     1
  9
$MAXACTVP
 70
    16
  9
$PLIMCHECK
 70
     0
  9
$PEXTMIN
 10
1.0000000000000000E+020
 20
1.0000000000000000E+020
 30
1.0000000000000000E+020
  9
$PEXTMAX
 10
-1.0000000000000000E+020
 20
-1.0000000000000000E+020
 30
-1.0000000000000000E+020
  9
$PLIMMIN
 10
0.0
 20
0.0
  9
$PLIMMAX
 10
12.0
 20
9.0
  9
$UNITMODE
 70
     0
  9
$VISRETAIN
 70
     0
  9
$PLINEGEN
 70
     0
  9
$PSLTSCALE
 70
     0
  0
ENDSEC
  0
SECTION
  2
TABLES
  0
TABLE
  2
VPORT
 70
     1
  0
VPORT
  2
*ACTIVE
 70
     0
 10
0.0
 20
0.0
 11
1.0
 21
1.0
 12
93.747139195326184
 22
98.525452793007162
 13
0.0
 23
0.0
 14
5.0
 24
5.0
 15
10.0
 25
10.0
 16
0.0
 26
0.0
 36
1.0
 17
0.0
 27
0.0
 37
0.0
 40
201.7865794149663
 41
1.7807262569832401
 42
50.0
 43
0.0
 44
0.0
 50
0.0
 51
0.0
 71
     0
 72
   100
 73
     1
 74
     0
 75
     0
 76
     0
 77
     0
 78
     2
  0
ENDTAB
  0
TABLE
  2
LTYPE
 70
     3
  0
LTYPE
  2
CONTINUOUS
 70
     0
  3
Solid Line
 72
    65
 73
     0
 40
0.0
  0
LTYPE
  2
CENTER
 70
     0
  3
____ _ ____ _ ____ _ ____ _ ____ _ ____ _ ____
 72
    65
 73
     4
 40
2.0
 49
1.25
 49
-0.25
 49
0.25
 49
-0.25
  0
LTYPE
  2
PHANTOM2
 70
     0
  3
___ _ _ ___ _ _ ___ _ _ ___ _ _
 72
    65
 73
     6
 40
1.25
 49
0.625
 49
-0.125
 49
0.125
 49
-0.125
 49
0.125
 49
-0.125
  0
ENDTAB
  0
TABLE
  2
LAYER
 70
     3
  0
LAYER
  2
0
 70
     0
 62
     7
  6
CONTINUOUS
  0
LAYER
  2
1
 70
     0
 62
     1
  6
CENTER
  0
LAYER
  2
3
 70
     0
 62
     3
  6
CONTINUOUS
  0
ENDTAB
  0
TABLE
  2
STYLE
 70
     2
  0
STYLE
  2
STANDARD
 70
     0
 40
0.0
 41
1.0
 50
0.0
 71
     0
 42
0.06
  3
TXT
  4
BIGFONT
  0
STYLE
  2
STANDARD1
 70
     0
 40
0.0
 41
1.0
 50
0.0
 71
     0
 42
3.0
  3
txt
  4

  0
ENDTAB
  0
TABLE
  2
VIEW
 70
     0
  0
ENDTAB
  0
TABLE
  2
UCS
 70
     0
  0
ENDTAB
  0
TABLE
  2
APPID
 70
     3
  0
APPID
  2
ACAD
 70
     0
  0
APPID
  2
ACAD_MLEADERVER
 70
     0
  0
APPID
  2
ACAD_NAV_VCDISPLAY
 70
     0
  0
ENDTAB
  0
TABLE
  2
DIMSTYLE
 70
     1
  0
DIMSTYLE
  2
STANDARD
 70
     0
  3

  4

  5

  6

  7

 40
1.0
 41
0.18
 42
0.0625
 43
0.38
 44
0.18
 45
0.0
 46
0.0
 47
0.0
 48
0.0
140
0.18
141
0.09
142
0.0
143
25.399999999999999
144
1.0
145
0.0
146
1.0
147
0.09
 71
     0
 72
     0
 73
     1
 74
     1
 75
     0
 76
     0
 77
     0
 78
     0
170
     0
171
     2
172
     0
173
     0
174
     0
175
     0
176
     0
177
     0
178
     0
  0
ENDTAB
  0
ENDSEC
  0
SECTION
  2
BLOCKS
  0
BLOCK
  8
0
  2
$MODEL_SPACE
 70
     0
 10
0.0
 20
0.0
 30
0.0
  3
$MODEL_SPACE
  1

  0
ENDBLK
  5
F3
  8
0
  0
BLOCK
 67
     1
  8
0
  2
$PAPER_SPACE
 70
     0
 10
0.0
 20
0.0
 30
0.0
  3
$PAPER_SPACE
  1

  0
ENDBLK
  5
F1
 67
     1
  8
0
  0
BLOCK
  8
0
  2
STDGX5
 70
     0
 10
0.0
 20
0.0
 30
0.0
  3
STDGX5
  1

  0
ENDBLK
  5
2B
  8
0
  0
ENDSEC
  0
SECTION
  2
ENTITIES
  0
INSERT
  5
37
  8
0
  2
STDGX5
 10
0.0
 20
0.0
 30
0.0
  0
INSERT
  5
41
  8
0
  2
STDGX5
 10
0.0
 20
0.0
 30
0.0
  0
INSERT
  5
42
  8
0
  2
STDGX5
 10
0.0
 20
0.0
 30
0.0
  0
CIRCLE
  5
43
  8
0
 10
140.0
 20
80.0
 30
0.0
 40
6.5
  0
LINE
  5
44
  8
3
 10
137.94606899999999
 20
79.767931000000004
 30
0.0
 11
135.511324
 21
82.202675999999997
 31
0.0
  0
LINE
  5
45
  8
3
 10
138.53841
 20
81.461590000000001
 30
0.0
 11
136.46446599999999
 21
83.535533999999998
 31
0.0
  0
LINE
  5
46
  8
3
 10
137.797324
 20
84.488675999999984
 30
0.0
 11
140.232069
 21
82.053931000000006
 31
0.0
  0
LINE
  5
47
  8
3
 10
144.29037
 20
82.567630000000008
 30
0.0
 11
142.56763000000001
 21
84.290369999999996
 31
0.0
  0
LINE
  5
48
  8
3
 10
144.98307299999999
 20
79.588926999999984
 30
0.0
 11
139.58892700000001
 21
84.983073000000005
 31
0.0
  0
LINE
  5
49
  8
3
 10
142.05393100000001
 20
80.232068999999996
 30
0.0
 11
144.488676
 21
77.797324000000003
 31
0.0
  0
LINE
  5
4A
  8
3
 10
143.53553400000001
 20
76.464466000000002
 30
0.0
 11
141.46159
 21
78.538409999999999
 31
0.0
  0
LINE
  5
4B
  8
3
 10
142.202676
 20
75.511324000000002
 30
0.0
 11
139.767931
 21
77.946068999999994
 31
0.0
  0
LINE
  5
4C
  8
3
 10
140.41107299999999
 20
75.016926999999995
 30
0.0
 11
135.01692700000001
 21
80.411073000000002
 31
0.0
  0
LINE
  5
4D
  8
3
 10
137.43236999999999
 20
75.709630000000004
 30
0.0
 11
135.70963
 21
77.432369999999992
 31
0.0
  0
LINE
  5
4E
  8
3
 10
137.94606899999999
 20
80.232068999999996
 30
0.0
 11
135.511324
 21
77.797324000000003
 31
0.0
  0
LINE
  5
4F
  8
3
 10
141.46159
 20
81.461590000000001
 30
0.0
 11
143.53553400000001
 21
83.535533999999998
 31
0.0
  0
LINE
  5
50
  8
3
 10
142.05393100000001
 20
79.767931000000004
 30
0.0
 11
144.488676
 21
82.202675999999997
 31
0.0
  0
LINE
  5
51
  8
3
 10
135.70963
 20
82.567630000000008
 30
0.0
 11
137.43236999999999
 21
84.290369999999996
 31
0.0
  0
LINE
  5
52
  8
3
 10
142.56763000000001
 20
75.709630000000004
 30
0.0
 11
144.29037
 21
77.432369999999992
 31
0.0
  0
LINE
  5
53
  8
3
 10
135.01692700000001
 20
79.588926999999984
 30
0.0
 11
140.41107299999999
 21
84.983073000000005
 31
0.0
  0
LINE
  5
54
  8
3
 10
142.202676
 20
84.488675999999984
 30
0.0
 11
139.767931
 21
82.053931000000006
 31
0.0
  0
LINE
  5
55
  8
3
 10
136.46446599999999
 20
76.464466000000002
 30
0.0
 11
138.53841
 21
78.538409999999999
 31
0.0
  0
LINE
  5
56
  8
3
 10
137.797324
 20
75.511324000000002
 30
0.0
 11
140.232069
 21
77.946068999999994
 31
0.0
  0
LINE
  5
57
  8
3
 10
139.58892700000001
 20
75.016926999999995
 30
0.0
 11
144.98307299999999
 21
80.411073000000002
 31
0.0
  0
LINE
  5
58
  8
3
 10
140.0
 20
82.067000000000007
 30
0.0
 11
140.0
 21
85.0
 31
0.0
  0
LINE
  5
59
  8
3
 10
135.428
 20
77.975941000000006
 30
0.0
 11
135.428
 21
82.024058999999994
 31
0.0
  0
LINE
  5
5A
  8
3
 10
137.714
 20
75.553179999999983
 30
0.0
 11
137.714
 21
84.446820000000002
 31
0.0
  0
LINE
  5
5B
  8
3
 10
140.0
 20
75.0
 30
0.0
 11
140.0
 21
77.933000000000007
 31
0.0
  0
LINE
  5
5C
  8
3
 10
142.286
 20
75.553179999999983
 30
0.0
 11
142.286
 21
84.446820000000002
 31
0.0
  0
LINE
  5
5D
  8
3
 10
144.572
 20
77.975941000000006
 30
0.0
 11
144.572
 21
82.024058999999994
 31
0.0
  0
LINE
  5
5E
  8
3
 10
142.06700000000001
 20
80.0
 30
0.0
 11
145.0
 21
80.0
 31
0.0
  0
LINE
  5
5F
  8
3
 10
137.97594100000001
 20
84.572000000000003
 30
0.0
 11
142.02405899999999
 21
84.572000000000003
 31
0.0
  0
LINE
  5
60
  8
3
 10
137.97594100000001
 20
75.427999999999983
 30
0.0
 11
142.02405899999999
 21
75.427999999999983
 31
0.0
  0
LINE
  5
61
  8
3
 10
135.55318
 20
77.713999999999984
 30
0.0
 11
144.44682
 21
77.713999999999984
 31
0.0
  0
LINE
  5
62
  8
3
 10
135.0
 20
80.0
 30
0.0
 11
137.93299999999999
 21
80.0
 31
0.0
  0
LINE
  5
63
  8
3
 10
135.55318
 20
82.286000000000001
 30
0.0
 11
144.44682
 21
82.286000000000001
 31
0.0
  0
CIRCLE
  5
64
  8
3
 10
140.0
 20
80.0
 30
0.0
 40
2.5
  0
CIRCLE
  5
65
  8
0
 10
140.0
 20
80.0
 30
0.0
 40
2.0669999999999988
  0
CIRCLE
  5
66
  8
0
 10
140.0
 20
80.0
 30
0.0
 40
5.0
  0
INSERT
  5
67
  8
0
  2
STDGX5
 10
0.0
 20
0.0
 30
0.0
  0
LINE
  5
68
  8
1
 10
112.0
 20
80.0
 30
0.0
 11
72.0
 21
80.0
 31
0.0
  0
LINE
  5
69
  8
0
 10
76.200000000000003
 20
90.0
 30
0.0
 11
103.8
 21
90.0
 31
0.0
  0
LINE
  5
6A
  8
3
 10
75.41884499999999
 20
88.647000000000006
 30
0.0
 11
104.581155
 21
88.647000000000006
 31
0.0
  0
LINE
  5
6B
  8
0
 10
76.200000000000003
 20
90.0
 30
0.0
 11
75.0
 21
87.921538999999996
 31
0.0
  0
LINE
  5
6C
  8
0
 10
103.8
 20
90.0
 30
0.0
 11
105.0
 21
87.921538999999996
 31
0.0
  0
LINE
  5
6D
  8
0
 10
103.8
 20
70.0
 30
0.0
 11
105.0
 21
72.078461000000004
 31
0.0
  0
LINE
  5
6E
  8
0
 10
103.8
 20
90.0
 30
0.0
 11
103.8
 21
70.0
 31
0.0
  0
LINE
  5
6F
  8
0
 10
76.200000000000003
 20
70.0
 30
0.0
 11
75.0
 21
72.078461000000004
 31
0.0
  0
LINE
  5
70
  8
0
 10
105.0
 20
87.921538999999996
 30
0.0
 11
105.0
 21
72.078461000000004
 31
0.0
  0
LINE
  5
71
  8
0
 10
76.200000000000003
 20
90.0
 30
0.0
 11
76.200000000000003
 21
70.0
 31
0.0
  0
LINE
  5
72
  8
3
 10
75.41884499999999
 20
71.352999999999994
 30
0.0
 11
104.581155
 21
71.352999999999994
 31
0.0
  0
LINE
  5
73
  8
0
 10
76.200000000000003
 20
70.0
 30
0.0
 11
103.8
 21
70.0
 31
0.0
  0
LINE
  5
74
  8
0
 10
75.0
 20
87.921538999999996
 30
0.0
 11
75.0
 21
72.078461000000004
 31
0.0
  0
LINE
  5
75
  8
0
 10
108.285
 20
75.0
 30
0.0
 11
106.5
 21
75.0
 31
0.0
  0
LINE
  5
76
  8
0
 10
108.285
 20
85.0
 30
0.0
 11
106.5
 21
85.0
 31
0.0
  0
LINE
  5
77
  8
0
 10
109.0
 20
78.856999999999985
 30
0.0
 11
107.857
 21
80.0
 31
0.0
  0
LINE
  5
78
  8
0
 10
107.857
 20
80.0
 30
0.0
 11
109.0
 21
81.143000000000001
 31
0.0
  0
LINE
  5
79
  8
0
 10
107.857
 20
77.713999999999984
 30
0.0
 11
109.0
 21
78.856999999999985
 31
0.0
  0
LINE
  5
7A
  8
0
 10
109.0
 20
76.570999999999984
 30
0.0
 11
107.857
 21
77.713999999999984
 31
0.0
  0
LINE
  5
7B
  8
0
 10
107.857
 20
75.427999999999983
 30
0.0
 11
109.0
 21
76.570999999999984
 31
0.0
  0
LINE
  5
7C
  8
0
 10
109.0
 20
83.429000000000002
 30
0.0
 11
107.857
 21
82.286000000000001
 31
0.0
  0
LINE
  5
7D
  8
0
 10
107.857
 20
82.286000000000001
 30
0.0
 11
109.0
 21
81.143000000000001
 31
0.0
  0
LINE
  5
7E
  8
0
 10
109.0
 20
81.143000000000001
 30
0.0
 11
107.857
 21
80.0
 31
0.0
  0
LINE
  5
7F
  8
0
 10
108.285
 20
75.0
 30
0.0
 11
107.857
 21
75.427999999999983
 31
0.0
  0
LINE
  5
80
  8
0
 10
108.285
 20
85.0
 30
0.0
 11
107.857
 21
84.572000000000003
 31
0.0
  0
LINE
  5
81
  8
0
 10
107.857
 20
84.572000000000003
 30
0.0
 11
109.0
 21
83.429000000000002
 31
0.0
  0
ARC
  5
82
  8
0
 10
102.59999999999999
 20
80.0
 30
0.0
 40
6.5
 50
53.130102000000001
 51
68.331815000000006
  0
LINE
  5
83
  8
0
 10
106.5
 20
85.200000000000017
 30
0.0
 11
106.5
 21
74.799999999999997
 31
0.0
  0
ARC
  5
84
  8
0
 10
102.59999999999999
 20
80.0
 30
0.0
 40
6.5
 50
291.66818499999999
 51
306.86989799999998
  0
CIRCLE
  5
85
  8
0
 10
140.0
 20
80.0
 30
0.0
 40
10.0
  0
CIRCLE
  5
86
  8
3
 10
140.0
 20
80.0
 30
0.0
 40
8.6470000000000002
  0
CIRCLE
  5
87
  8
0
 10
140.0
 20
80.0
 30
0.0
 40
7.9215390000000001
  0
LINE
  5
88
  8
1
 10
140.0
 20
93.0
 30
0.0
 11
140.0
 21
67.0
 31
0.0
  0
LINE
  5
89
  8
1
 10
153.0
 20
80.0
 30
0.0
 11
127.0
 21
80.0
 31
0.0
  0
LINE
  5
8A
  8
1
 10
58.0
 20
80.0
 30
0.0
 11
32.0
 21
80.0
 31
0.0
  0
LINE
  5
8B
  8
1
 10
45.0
 20
93.0
 30
0.0
 11
45.0
 21
67.0
 31
0.0
  0
CIRCLE
  5
8C
  8
0
 10
45.0
 20
80.0
 30
0.0
 40
7.9215390000000001
  0
CIRCLE
  5
8D
  8
3
 10
45.0
 20
80.0
 30
0.0
 40
8.6470000000000002
  0
CIRCLE
  5
8E
  8
0
 10
45.0
 20
80.0
 30
0.0
 40
10.0
  0
POLYLINE
  5
112
  8
0
 66
     1
 10
0.0
 20
0.0
 30
0.0
 70
     1
  0
VERTEX
  5
286
  8
0
 10
42.113248654051873
 20
85.0
 30
0.0
  0
VERTEX
  5
287
  8
0
 10
39.226497308103752
 20
80.0
 30
0.0
  0
VERTEX
  5
288
  8
0
 10
42.113248654051873
 20
75.0
 30
0.0
  0
VERTEX
  5
289
  8
0
 10
47.886751345948127
 20
75.0
 30
0.0
  0
VERTEX
  5
28A
  8
0
 10
50.773502691896262
 20
80.0
 30
0.0
  0
VERTEX
  5
28B
  8
0
 10
47.886751345948127
 20
85.0
 30
0.0
  0
SEQEND
  5
28C
  8
0
  0
TEXT
  5
229
  8
0
 62
     3
 10
0.0
 20
0.0
 30
0.0
 40
5.0
  1
TBU-20030-S
  7
STANDARD1
  0
ENDSEC
  0
EOF
