  0
SECTION
  2
HEADER
  9
$ACADVER
  1
AC1009
  9
$INSBASE
 10
0.0
 20
0.0
 30
0.0
  9
$EXTMIN
 10
0.0
 20
-2.960436562073669
 30
0.0
  9
$EXTMAX
 10
212.02872668149769
 20
93.391135348788893
 30
0.0
  9
$LIMMIN
 10
0.0
 20
0.0
  9
$LIMMAX
 10
375.0
 20
270.0
  9
$ORTHOMODE
 70
     1
  9
$REGENMODE
 70
     1
  9
$FILLMODE
 70
     1
  9
$QTEXTMODE
 70
     0
  9
$MIRRTEXT
 70
     0
  9
$DRAGMODE
 70
     2
  9
$LTSCALE
 40
10.0
  9
$OSMODE
 70
    55
  9
$ATTMODE
 70
     1
  9
$TEXTSIZE
 40
6.0
  9
$TRACEWID
 40
0.05
  9
$TEXTSTYLE
  7
STANDARD
  9
$CLAYER
  8
0
  9
$CELTYPE
  6
BYLAYER
  9
$CECOLOR
 62
   256
  9
$DIMSCALE
 40
1.0
  9
$DIMASZ
 40
3.0
  9
$DIMEXO
 40
2.0
  9
$DIMDLI
 40
0.3799999999999999
  9
$DIMRND
 40
0.0
  9
$DIMDLE
 40
0.0
  9
$DIMEXE
 40
2.0
  9
$DIMTP
 40
0.0
  9
$DIMTM
 40
0.0
  9
$DIMTXT
 40
3.2000000000000002
  9
$DIMCEN
 40
0.09
  9
$DIMTSZ
 40
0.0
  9
$DIMTOL
 70
     0
  9
$DIMLIM
 70
     0
  9
$DIMTIH
 70
     0
  9
$DIMTOH
 70
     0
  9
$DIMSE1
 70
     0
  9
$DIMSE2
 70
     0
  9
$DIMTAD
 70
     1
  9
$DIMZIN
 70
     8
  9
$DIMBLK
  1

  9
$DIMASO
 70
     0
  9
$DIMSHO
 70
     0
  9
$DIMPOST
  1

  9
$DIMAPOST
  1

  9
$DIMALT
 70
     0
  9
$DIMALTD
 70
     2
  9
$DIMALTF
 40
25.399999999999999
  9
$DIMLFAC
 40
1.0
  9
$DIMTOFL
 70
     0
  9
$DIMTVP
 40
0.0
  9
$DIMTIX
 70
     0
  9
$DIMSOXD
 70
     0
  9
$DIMSAH
 70
     0
  9
$DIMBLK1
  1

  9
$DIMBLK2
  1

  9
$DIMSTYLE
  2
STANDARD
  9
$DIMCLRD
 70
   256
  9
$DIMCLRE
 70
     0
  9
$DIMCLRT
 70
   256
  9
$DIMTFAC
 40
1.0
  9
$DIMGAP
 40
0.09
  9
$LUNITS
 70
     2
  9
$LUPREC
 70
     4
  9
$SKETCHINC
 40
0.1
  9
$FILLETRAD
 40
20.0
  9
$AUNITS
 70
     0
  9
$AUPREC
 70
     0
  9
$MENU
  1
E:\r13\win\SUPPORT\ACAD
  9
$ELEVATION
 40
0.0
  9
$PELEVATION
 40
0.0
  9
$THICKNESS
 40
0.0
  9
$LIMCHECK
 70
     0
  9
$BLIPMODE
 70
     0
  9
$CHAMFERA
 40
0.0
  9
$CHAMFERB
 40
0.0
  9
$SKPOLY
 70
     0
  9
$TDCREATE
 40
2449840.6320370371
  9
$TDUPDATE
 40
2456598.4291413892
  9
$TDINDWG
 40
0.0907428819
  9
$TDUSRTIMER
 40
0.0907428819
  9
$USRTIMER
 70
     1
  9
$ANGBASE
 50
0.0
  9
$ANGDIR
 70
     0
  9
$PDMODE
 70
     0
  9
$PDSIZE
 40
0.0
  9
$PLINEWID
 40
0.0
  9
$COORDS
 70
     1
  9
$SPLFRAME
 70
     0
  9
$SPLINETYPE
 70
     6
  9
$SPLINESEGS
 70
     8
  9
$ATTDIA
 70
     0
  9
$ATTREQ
 70
     1
  9
$HANDLING
 70
     1
  9
$HANDSEED
  5
91D
  9
$SURFTAB1
 70
     6
  9
$SURFTAB2
 70
     6
  9
$SURFTYPE
 70
     6
  9
$SURFU
 70
     6
  9
$SURFV
 70
     6
  9
$UCSNAME
  2

  9
$UCSORG
 10
0.0
 20
0.0
 30
0.0
  9
$UCSXDIR
 10
1.0
 20
0.0
 30
0.0
  9
$UCSYDIR
 10
0.0
 20
1.0
 30
0.0
  9
$PUCSNAME
  2

  9
$PUCSORG
 10
0.0
 20
0.0
 30
0.0
  9
$PUCSXDIR
 10
1.0
 20
0.0
 30
0.0
  9
$PUCSYDIR
 10
0.0
 20
1.0
 30
0.0
  9
$USERI1
 70
     0
  9
$USERI2
 70
     1
  9
$USERI3
 70
     0
  9
$USERI4
 70
     0
  9
$USERI5
 70
     0
  9
$USERR1
 40
0.0
  9
$USERR2
 40
0.0
  9
$USERR3
 40
0.0
  9
$USERR4
 40
0.0
  9
$USERR5
 40
0.0
  9
$WORLDVIEW
 70
     1
  9
$SHADEDGE
 70
     3
  9
$SHADEDIF
 70
    70
  9
$TILEMODE
 70
     1
  9
$MAXACTVP
 70
    16
  9
$PLIMCHECK
 70
     0
  9
$PEXTMIN
 10
1.0000000000000000E+020
 20
1.0000000000000000E+020
 30
1.0000000000000000E+020
  9
$PEXTMAX
 10
-1.0000000000000000E+020
 20
-1.0000000000000000E+020
 30
-1.0000000000000000E+020
  9
$PLIMMIN
 10
0.0
 20
0.0
  9
$PLIMMAX
 10
12.0
 20
9.0
  9
$UNITMODE
 70
     0
  9
$VISRETAIN
 70
     0
  9
$PLINEGEN
 70
     0
  9
$PSLTSCALE
 70
     0
  0
ENDSEC
  0
SECTION
  2
TABLES
  0
TABLE
  2
VPORT
 70
     1
  0
VPORT
  2
*ACTIVE
 70
     0
 10
0.0
 20
0.0
 11
1.0
 21
1.0
 12
187.4942783906524
 22
197.0509055860143
 13
0.0
 23
0.0
 14
10.0
 24
10.0
 15
10.0
 25
10.0
 16
0.0
 26
0.0
 36
1.0
 17
0.0
 27
0.0
 37
0.0
 40
403.57315882993248
 41
1.7807262569832401
 42
50.0
 43
0.0
 44
0.0
 50
0.0
 51
0.0
 71
     0
 72
   500
 73
     1
 74
     0
 75
     0
 76
     0
 77
     0
 78
     0
  0
ENDTAB
  0
TABLE
  2
LTYPE
 70
     3
  0
LTYPE
  2
CONTINUOUS
 70
     0
  3
Solid Line
 72
    65
 73
     0
 40
0.0
  0
LTYPE
  2
CENTER
 70
     0
  3
____ _ ____ _ ____ _ ____ _ ____ _ ____ _ ____
 72
    65
 73
     4
 40
2.0
 49
1.25
 49
-0.25
 49
0.25
 49
-0.25
  0
LTYPE
  2
PHANTOM2
 70
     0
  3
___ _ _ ___ _ _ ___ _ _ ___ _ _
 72
    65
 73
     6
 40
1.25
 49
0.625
 49
-0.125
 49
0.125
 49
-0.125
 49
0.125
 49
-0.125
  0
ENDTAB
  0
TABLE
  2
LAYER
 70
     4
  0
LAYER
  2
0
 70
     0
 62
     7
  6
CONTINUOUS
  0
LAYER
  2
1
 70
     0
 62
     1
  6
CENTER
  0
LAYER
  2
3
 70
     0
 62
     3
  6
CONTINUOUS
  0
LAYER
  2
DEFPOINTS
 70
     0
 62
     7
  6
CONTINUOUS
  0
ENDTAB
  0
TABLE
  2
STYLE
 70
     2
  0
STYLE
  2
STANDARD
 70
     0
 40
0.0
 41
1.0
 50
0.0
 71
     0
 42
6.0
  3
TXT
  4
BIGFONT
  0
STYLE
  2
STANDARD1
 70
     0
 40
0.0
 41
1.0
 50
0.0
 71
     0
 42
3.0
  3
txt
  4

  0
ENDTAB
  0
TABLE
  2
VIEW
 70
     1
  0
VIEW
  2
ALL
 70
     0
 40
270.0
 10
213.25689075630251
 20
135.0
 41
0.0
 11
0.0
 21
0.0
 31
1.0
 12
0.0
 22
0.0
 32
0.0
 42
0.0
 43
0.0
 44
0.0
 50
0.0
 71
     0
  0
ENDTAB
  0
TABLE
  2
UCS
 70
     0
  0
ENDTAB
  0
TABLE
  2
APPID
 70
     3
  0
APPID
  2
ACAD
 70
     0
  0
APPID
  2
ACAD_MLEADERVER
 70
     0
  0
APPID
  2
ACAD_NAV_VCDISPLAY
 70
     0
  0
ENDTAB
  0
TABLE
  2
DIMSTYLE
 70
     1
  0
DIMSTYLE
  2
STANDARD
 70
     0
  3

  4

  5

  6

  7

 40
1.0
 41
0.18
 42
0.0625
 43
0.38
 44
0.18
 45
0.0
 46
0.0
 47
0.0
 48
0.0
140
0.18
141
0.09
142
0.0
143
25.399999999999999
144
1.0
145
0.0
146
1.0
147
0.09
 71
     0
 72
     0
 73
     1
 74
     1
 75
     0
 76
     0
 77
     0
 78
     0
170
     0
171
     2
172
     0
173
     0
174
     0
175
     0
176
     0
177
     0
178
     0
  0
ENDTAB
  0
ENDSEC
  0
SECTION
  2
BLOCKS
  0
BLOCK
  8
0
  2
$MODEL_SPACE
 70
     0
 10
0.0
 20
0.0
 30
0.0
  3
$MODEL_SPACE
  1

  0
ENDBLK
  5
126
  8
0
  0
BLOCK
 67
     1
  8
0
  2
$PAPER_SPACE
 70
     0
 10
0.0
 20
0.0
 30
0.0
  3
$PAPER_SPACE
  1

  0
ENDBLK
  5
124
 67
     1
  8
0
  0
ENDSEC
  0
SECTION
  2
ENTITIES
  0
ARC
  5
490
  8
0
 10
56.070367634223317
 20
71.391135348788907
 30
0.0
 40
0.5
 50
0.0
 51
90.0
  0
ARC
  5
491
  8
0
 10
66.570367634223317
 20
58.3911353487889
 30
0.0
 40
4.5
 50
90.0
 51
270.0
  0
LINE
  5
492
  8
0
 10
66.570367634223317
 20
62.8911353487889
 30
0.0
 11
72.730947534151142
 21
62.8911353487889
 31
0.0
  0
LINE
  5
493
  8
0
 10
66.570367634223317
 20
53.891135348788907
 30
0.0
 11
72.730947534151142
 21
53.891135348788907
 31
0.0
  0
ARC
  5
494
  8
0
 10
56.070367634223317
 20
45.3911353487889
 30
0.0
 40
0.5
 50
270.0
 51
0.0
  0
LINE
  5
495
  8
0
 10
56.570367634223317
 20
45.3911353487889
 30
0.0
 11
56.570367634223317
 21
71.391135348788907
 31
0.0
  0
LINE
  5
496
  8
0
 10
47.570367634223309
 20
81.891135348788893
 30
0.0
 11
47.570367634223309
 21
88.051715248716718
 31
0.0
  0
LINE
  5
497
  8
0
 10
38.570367634223317
 20
81.891135348788893
 30
0.0
 11
38.570367634223317
 21
88.051715248716718
 31
0.0
  0
ARC
  5
498
  8
0
 10
43.070367634223309
 20
81.891135348788893
 30
0.0
 40
4.5
 50
180.0
 51
0.0
  0
LINE
  5
499
  8
0
 10
41.842445572865472
 20
69.891135348788907
 30
0.0
 11
44.298289695581268
 21
69.891135348788907
 31
0.0
  0
ARC
  5
49A
  8
0
 10
48.333823586498617
 20
69.391135348788964
 30
0.0
 40
2.5
 50
90.0
 51
225.00000005674531
  0
LINE
  5
49B
  8
0
 10
54.570367634223317
 20
59.619057410146858
 30
0.0
 11
54.570367634223317
 21
57.163213287431063
 31
0.0
  0
LINE
  5
49C
  8
0
 10
44.298289695581268
 20
69.891135348788964
 30
0.0
 11
54.570367634223317
 21
59.619057410146858
 31
0.0
  0
ARC
  5
49D
  8
0
 10
37.806911643107583
 20
69.391135348789135
 30
0.0
 40
2.5
 50
314.99999998026101
 51
90.0
  0
ARC
  5
49E
  8
0
 10
30.07036763422332
 20
71.391135348789021
 30
0.0
 40
0.5
 50
90.0
 51
180.0
  0
LINE
  5
4A0
  8
0
 10
32.070367634223317
 20
71.891135348789021
 30
0.0
 11
37.806911643107583
 21
71.891135348789021
 31
0.0
  0
ARC
  5
4A1
  8
0
 10
32.070367634223317
 20
63.654591343857298
 30
0.0
 40
2.5
 50
180.0
 51
314.99999998026328
  0
LINE
  5
4A2
  8
0
 10
31.57036763422332
 20
57.163213287431063
 30
0.0
 11
31.57036763422332
 21
59.619057410146752
 31
0.0
  0
LINE
  5
4A3
  8
0
 10
29.57036763422332
 20
69.391135348789021
 30
0.0
 11
29.57036763422332
 21
63.654591343857298
 31
0.0
  0
LINE
  5
4A4
  8
0
 10
39.574678595465002
 20
67.623368395213774
 30
0.0
 11
33.838134586580743
 21
61.886824390281959
 31
0.0
  0
LINE
  5
4A7
  8
0
 10
31.57036763422332
 20
59.619057410146752
 30
0.0
 11
41.842445572865472
 21
69.891135348788907
 31
0.0
  0
LINE
  5
4A8
  8
0
 10
41.842445572865472
 20
46.891135348788957
 30
0.0
 11
44.298289695581161
 21
46.891135348788907
 31
0.0
  0
ARC
  5
4A9
  8
0
 10
48.333823615578012
 20
47.391135348788907
 30
0.0
 40
2.5
 50
135.0000000643723
 51
270.0
  0
ARC
  5
4AA
  8
0
 10
37.806911690450079
 20
47.391135348788907
 30
0.0
 40
2.5
 50
270.0
 51
44.999999981795277
  0
ARC
  5
4AB
  8
0
 10
30.07036763422332
 20
45.3911353487889
 30
0.0
 40
0.5
 50
180.0
 51
270.0
  0
ARC
  5
4AD
  8
0
 10
43.070367634223309
 20
34.891135348788907
 30
0.0
 40
4.5
 50
0.0
 51
180.0
  0
LINE
  5
4AE
  8
0
 10
41.842445572865472
 20
46.891135348788957
 30
0.0
 11
31.57036763422332
 21
57.163213287431063
 31
0.0
  0
LINE
  5
4AF
  8
0
 10
54.570367634223317
 20
57.163213287431063
 30
0.0
 11
44.298289695581161
 21
46.891135348788907
 31
0.0
  0
ARC
  5
4B0
  8
0
 10
32.070367634223317
 20
53.127679408661272
 30
0.0
 40
2.5
 50
44.999999981795277
 51
180.0
  0
LINE
  5
4B1
  8
0
 10
29.57036763422332
 20
71.391135348789021
 30
0.0
 11
29.57036763422332
 21
45.3911353487889
 31
0.0
  0
ARC
  5
4B2
  8
0
 10
19.57036763422332
 20
58.3911353487889
 30
0.0
 40
4.5
 50
270.0
 51
90.0
  0
LINE
  5
4B3
  8
0
 10
19.57036763422332
 20
53.891135348788907
 30
0.0
 11
13.40978773429555
 21
53.891135348788907
 31
0.0
  0
LINE
  5
4B4
  8
0
 10
19.57036763422332
 20
62.8911353487889
 30
0.0
 11
13.40978773429555
 21
62.8911353487889
 31
0.0
  0
ARC
  5
4B5
  8
0
 10
43.070367634223309
 20
58.3911353487889
 30
0.0
 40
30.0
 50
98.626926558677141
 51
171.37307344131941
  0
ARC
  5
4B6
  8
0
 10
181.83216017803289
 20
87.391135348788964
 30
0.0
 40
1.0
 50
90.0
 51
180.0
  0
ARC
  5
4B7
  8
0
 10
179.83216017803289
 20
78.391283970325048
 30
0.0
 40
1.0
 50
270.98776039964122
 51
0.0
  0
LINE
  5
4B8
  8
0
 10
181.83216017803289
 20
88.391135348788964
 30
0.0
 11
190.83216017803289
 21
88.391135348788893
 31
0.0
  0
LINE
  5
4B9
  8
0
 10
207.02872668149769
 20
63.009937502305881
 30
0.0
 11
207.02872668149769
 21
53.772333195271919
 31
0.0
  0
ARC
  5
4BA
  8
0
 10
195.8620600148312
 20
58.3911353487889
 30
0.0
 40
11.16666666666643
 50
335.56730232054559
 51
24.432697679454421
  0
LINE
  5
4BB
  8
0
 10
207.02872668149769
 20
65.319338579064365
 30
0.0
 11
207.02872668149769
 21
63.009937502305881
 31
0.0
  0
ARC
  5
4BC
  8
0
 10
203.862060014831
 20
65.319338579064365
 30
0.0
 40
3.1666666666667309
 50
313.17355110725907
 51
46.826448892740878
  0
LINE
  5
4BD
  8
0
 10
197.8287266814977
 20
67.141135348788893
 30
0.0
 11
200.02872668149769
 21
67.141135348788893
 31
0.0
  0
POINT
  5
4BE
  8
0
 10
197.82872668149761
 20
63.3911353487889
 30
0.0
  0
POINT
  5
4BF
  8
0
 10
197.8287266814977
 20
53.3911353487889
 30
0.0
  0
POINT
  5
4C0
  8
0
 10
195.52360323026079
 20
53.3911353487889
 30
0.0
  0
LINE
  5
4C1
  8
0
 10
197.8287266814977
 20
58.452354887640688
 30
0.0
 11
200.02872668149769
 21
56.450854743424081
 31
0.0
  0
LINE
  5
4C2
  8
0
 10
197.8287266814977
 20
60.040700035857981
 30
0.0
 11
200.02872668149769
 21
58.039199891641431
 31
0.0
  0
LINE
  5
4C3
  8
0
 10
190.83216017803289
 20
63.3911353487889
 30
0.0
 11
197.82872668149761
 21
63.3911353487889
 31
0.0
  0
LINE
  5
4C4
  8
0
 10
190.83216017803289
 20
53.3911353487889
 30
0.0
 11
197.82872668149761
 21
53.3911353487889
 31
0.0
  0
LINE
  5
4C5
  8
3
 10
190.83216017803289
 20
62.579135348788981
 30
0.0
 11
197.82872668149761
 21
62.579135348788981
 31
0.0
  0
LINE
  5
4C6
  8
3
 10
190.83216017803289
 20
54.203135348788777
 30
0.0
 11
197.82872668149761
 21
54.203135348788777
 31
0.0
  0
LINE
  5
4C7
  8
0
 10
195.32872668149761
 20
63.3911353487889
 30
0.0
 11
194.02360323026079
 21
63.3911353487889
 31
0.0
  0
LINE
  5
4C8
  8
0
 10
195.3287266814977
 20
53.3911353487889
 30
0.0
 11
194.02360323026079
 21
53.3911353487889
 31
0.0
  0
LINE
  5
4C9
  8
0
 10
200.02872668149769
 20
67.628739655822983
 30
0.0
 11
206.02872668149769
 21
67.628739655822983
 31
0.0
  0
LINE
  5
4CA
  8
0
 10
200.02872668149769
 20
63.009937502305881
 30
0.0
 11
206.0287266814976
 21
63.009937502305881
 31
0.0
  0
LINE
  5
4CB
  8
0
 10
200.02872668149769
 20
53.772333195271919
 30
0.0
 11
206.02872668149769
 21
53.772333195271919
 31
0.0
  0
LINE
  5
4CC
  8
0
 10
197.8287266814977
 20
49.6411353487889
 30
0.0
 11
200.02872668149769
 21
49.6411353487889
 31
0.0
  0
LINE
  5
4CD
  8
0
 10
200.02872668149769
 20
49.153531041754889
 30
0.0
 11
206.02872668149769
 21
49.153531041754889
 31
0.0
  0
LINE
  5
4CE
  8
0
 10
200.02872668149769
 20
67.628739655822983
 30
0.0
 11
200.02872668149769
 21
49.153531041754889
 31
0.0
  0
LINE
  5
4CF
  8
0
 10
207.02872668149769
 20
53.772333195271919
 30
0.0
 11
207.02872668149769
 21
51.462932118513429
 31
0.0
  0
ARC
  5
4D0
  8
0
 10
203.862060014831
 20
51.462932118513429
 30
0.0
 40
3.1666666666666821
 50
313.17355110725907
 51
46.826448892743187
  0
LINE
  5
4D1
  8
0
 10
197.82872668149761
 20
67.141135348788893
 30
0.0
 11
197.8287266814977
 21
49.6411353487889
 31
0.0
  0
ARC
  5
4D2
  8
0
 10
179.83216017803289
 20
38.39098672725288
 30
0.0
 40
1.0
 50
0.0
 51
89.012239600358754
  0
LINE
  5
4D3
  8
0
 10
180.83216017803289
 20
62.8911353487889
 30
0.0
 11
190.83216017803289
 21
62.8911353487889
 31
0.0
  0
LINE
  5
4D4
  8
0
 10
180.83216017803289
 20
53.891135348788907
 30
0.0
 11
190.83216017803289
 21
53.891135348788907
 31
0.0
  0
LINE
  5
4D5
  8
0
 10
121.83216017803289
 20
69.891135348788964
 30
0.0
 11
120.83216017803289
 21
69.891135348788907
 31
0.0
  0
LINE
  5
4D6
  8
0
 10
121.83216017803289
 20
59.619057410146858
 30
0.0
 11
120.83216017803289
 21
59.619057410146858
 31
0.0
  0
LINE
  5
4D7
  8
0
 10
121.83216017803289
 20
57.16321328743112
 30
0.0
 11
120.83216017803289
 21
57.163213287431063
 31
0.0
  0
LINE
  5
4D8
  8
0
 10
121.83216017803289
 20
46.891135348788907
 30
0.0
 11
120.83216017803289
 21
46.891135348788907
 31
0.0
  0
LINE
  5
4D9
  8
0
 10
120.83216017803289
 20
69.891135348788907
 30
0.0
 11
120.83216017803289
 21
46.891135348788907
 31
0.0
1001
ACAD
1000
ASC_BOUNDS
1002
{
1070
    19
1005
0
1002
}
  0
LINE
  5
4DA
  8
0
 10
121.83216017803289
 20
76.391135348788964
 30
0.0
 11
121.83216017803289
 21
40.3911353487889
 31
0.0
1001
ACAD
1000
ASC_BOUNDS
1002
{
1070
    19
1005
0
1002
}
  0
LINE
  5
4DB
  8
1
 10
115.83216017803289
 20
58.3911353487889
 30
0.0
 11
212.02872668149769
 21
58.3911353487889
 31
0.0
  0
LINE
  5
4DC
  8
0
 10
121.83216017803289
 20
40.3911353487889
 30
0.0
 11
179.84939899528371
 21
39.390838127801892
 31
0.0
1001
ACAD
1000
ASC_BOUNDS
1002
{
1070
    19
1002
}
  0
LINE
  5
4DD
  8
0
 10
121.83216017803289
 20
76.391135348788964
 30
0.0
 11
179.84939899528371
 21
77.391432569776043
 31
0.0
1001
ACAD
1000
ASC_BOUNDS
1002
{
1070
    19
1002
}
  0
ARC
  5
4DE
  8
0
 10
181.83216017803289
 20
29.391135348788911
 30
0.0
 40
1.0
 50
180.0
 51
270.0
  0
LINE
  5
4DF
  8
0
 10
181.83216017803289
 20
28.391135348788911
 30
0.0
 11
190.83216017803289
 21
28.391135348788911
 31
0.0
  0
LINE
  5
4E0
  8
0
 10
47.570367634223309
 20
34.891135348788907
 30
0.0
 11
47.570367634223309
 21
28.730555448861139
 31
0.0
  0
LINE
  5
4E1
  8
0
 10
38.570367634223317
 20
34.891135348788907
 30
0.0
 11
38.570367634223317
 21
28.730555448861139
 31
0.0
  0
ARC
  5
4E2
  8
0
 10
43.070367634223309
 20
58.3911353487889
 30
0.0
 40
30.0
 50
188.6269265586773
 51
261.37307344132279
  0
LINE
  5
4E3
  8
1
 10
43.070367634223309
 20
23.391135348788911
 30
0.0
 11
43.070367634223309
 21
93.391135348788893
 31
0.0
  0
LINE
  5
4E4
  8
0
 10
180.83216017803289
 20
87.391135348788964
 30
0.0
 11
180.83216017803289
 21
29.391135348788911
 31
0.0
  0
LINE
  5
4E5
  8
0
 10
190.83216017803289
 20
88.391135348788893
 30
0.0
 11
190.83216017803289
 21
28.391135348788911
 31
0.0
1001
ACAD
1000
ASC_BOUNDS
1002
{
1070
    19
1005
0
1002
}
  0
ARC
  5
4E6
  8
0
 10
43.070367634223309
 20
58.3911353487889
 30
0.0
 40
30.0
 50
8.6269265586773152
 51
81.373073441322859
  0
ARC
  5
4E7
  8
0
 10
43.070367634223309
 20
58.3911353487889
 30
0.0
 40
30.0
 50
278.62692655867721
 51
351.37307344131938
  0
LINE
  5
4E8
  8
1
 10
8.0703676342233166
 20
58.3911353487889
 30
0.0
 11
78.070367634223317
 21
58.3911353487889
 31
0.0
  0
POLYLINE
  5
4EA
  8
0
 66
     1
 10
0.0
 20
0.0
 30
0.0
 70
     1
  0
VERTEX
  5
8DC
  8
0
 10
24.07036763422332
 20
72.391135348788964
 30
0.0
  0
VERTEX
  5
8DD
  8
0
 10
24.07036763422332
 20
44.391135348788907
 30
0.0
 42
0.4142135623730948
  0
VERTEX
  5
8DE
  8
0
 10
29.07036763422332
 20
39.391135348788907
 30
0.0
  0
VERTEX
  5
8DF
  8
0
 10
57.070367634223317
 20
39.391135348788907
 30
0.0
 42
0.4142135623730953
  0
VERTEX
  5
8E0
  8
0
 10
62.070367634223317
 20
44.391135348788907
 30
0.0
  0
VERTEX
  5
8E1
  8
0
 10
62.070367634223317
 20
72.391135348788907
 30
0.0
 42
0.4142135623730951
  0
VERTEX
  5
8E2
  8
0
 10
57.070367634223317
 20
77.391135348788907
 30
0.0
  0
VERTEX
  5
8E3
  8
0
 10
29.07036763422332
 20
77.391135348788964
 30
0.0
 42
0.4142135623730951
  0
SEQEND
  5
8E4
  8
0
  0
ARC
  5
4EB
  8
0
 10
54.070367634223317
 20
63.654591312427222
 30
0.0
 40
2.5
 50
225.00000005674531
 51
0.0
  0
ARC
  5
4EC
  8
0
 10
54.070367634223317
 20
53.127679380324139
 30
0.0
 40
2.5
 50
0.0
 51
135.0000000643723
  0
LINE
  5
4EE
  8
0
 10
30.07036763422332
 20
44.891135348788907
 30
0.0
 11
56.070367634223317
 21
44.891135348788907
 31
0.0
  0
LINE
  5
4EF
  8
0
 10
56.070367634223317
 20
71.891135348788907
 30
0.0
 11
30.07036763422332
 21
71.891135348789021
 31
0.0
  0
LINE
  5
67F
  8
1
 10
37.070367634223317
 20
64.391135348788907
 30
0.0
 11
49.070367634223317
 21
64.391135348788907
 31
0.0
  0
LINE
  5
680
  8
1
 10
37.070367634223317
 20
52.391135348788907
 30
0.0
 11
49.070367634223317
 21
52.391135348788907
 31
0.0
  0
CIRCLE
  5
681
  8
3
 10
43.070367634223309
 20
64.391135348788907
 30
0.0
 40
3.0
  0
CIRCLE
  5
682
  8
0
 10
43.070367634223309
 20
64.391135348788907
 30
0.0
 40
2.4585000000001278
  0
CIRCLE
  5
683
  8
3
 10
43.070367634223309
 20
52.391135348788907
 30
0.0
 40
3.0
  0
CIRCLE
  5
684
  8
0
 10
43.070367634223309
 20
52.391135348788907
 30
0.0
 40
2.4585000000001278
  0
TEXT
  5
87D
  8
0
 62
     3
 10
0.0
 20
0.0
 30
0.0
 40
10.0
  1
TC-CEP30
  7
STANDARD1
  0
ENDSEC
  0
EOF
