  0
SECTION
  2
HEADER
  9
$ACADVER
  1
AC1009
  9
$INSBASE
 10
0.0
 20
0.0
 30
0.0
  9
$EXTMIN
 10
0.0
 20
-2.960436562073669
 30
0.0
  9
$EXTMAX
 10
128.7307273652674
 20
44.345846237440497
 30
0.0
  9
$LIMMIN
 10
0.0
 20
0.0
  9
$LIMMAX
 10
279.39999999999998
 20
215.90000000000001
  9
$ORTHOMODE
 70
     1
  9
$REGENMODE
 70
     1
  9
$FILLMODE
 70
     1
  9
$QTEXTMODE
 70
     0
  9
$MIRRTEXT
 70
     1
  9
$DRAGMODE
 70
     2
  9
$LTSCALE
 40
1.0
  9
$OSMODE
 70
    37
  9
$ATTMODE
 70
     1
  9
$TEXTSIZE
 40
2.5
  9
$TRACEWID
 40
1.0
  9
$TEXTSTYLE
  7
STANDARD
  9
$CLAYER
  8
0
  9
$CELTYPE
  6
BYLAYER
  9
$CECOLOR
 62
   256
  9
$DIMSCALE
 40
1.0
  9
$DIMASZ
 40
6.0
  9
$DIMEXO
 40
1.0
  9
$DIMDLI
 40
3.75
  9
$DIMRND
 40
0.0
  9
$DIMDLE
 40
0.0
  9
$DIMEXE
 40
1.0
  9
$DIMTP
 40
0.0
  9
$DIMTM
 40
0.0
  9
$DIMTXT
 40
3.5
  9
$DIMCEN
 40
2.5
  9
$DIMTSZ
 40
0.0
  9
$DIMTOL
 70
     0
  9
$DIMLIM
 70
     0
  9
$DIMTIH
 70
     1
  9
$DIMTOH
 70
     1
  9
$DIMSE1
 70
     0
  9
$DIMSE2
 70
     0
  9
$DIMTAD
 70
     1
  9
$DIMZIN
 70
     0
  9
$DIMBLK
  1

  9
$DIMASO
 70
     1
  9
$DIMSHO
 70
     1
  9
$DIMPOST
  1

  9
$DIMAPOST
  1

  9
$DIMALT
 70
     0
  9
$DIMALTD
 70
     3
  9
$DIMALTF
 40
0.0393700787401575
  9
$DIMLFAC
 40
1.0
  9
$DIMTOFL
 70
     1
  9
$DIMTVP
 40
0.0
  9
$DIMTIX
 70
     0
  9
$DIMSOXD
 70
     0
  9
$DIMSAH
 70
     0
  9
$DIMBLK1
  1

  9
$DIMBLK2
  1

  9
$DIMSTYLE
  2
ISO-25
  9
$DIMCLRD
 70
     0
  9
$DIMCLRE
 70
     0
  9
$DIMCLRT
 70
     0
  9
$DIMTFAC
 40
1.0
  9
$DIMGAP
 40
1.524
  9
$LUNITS
 70
     2
  9
$LUPREC
 70
     2
  9
$SKETCHINC
 40
1.0
  9
$FILLETRAD
 40
10.0
  9
$AUNITS
 70
     0
  9
$AUPREC
 70
     0
  9
$MENU
  1
.
  9
$ELEVATION
 40
0.0
  9
$PELEVATION
 40
0.0
  9
$THICKNESS
 40
0.0
  9
$LIMCHECK
 70
     0
  9
$BLIPMODE
 70
     0
  9
$CHAMFERA
 40
10.0
  9
$CHAMFERB
 40
10.0
  9
$SKPOLY
 70
     0
  9
$TDCREATE
 40
2454615.6522238431
  9
$TDUPDATE
 40
2456842.6551322229
  9
$TDINDWG
 40
0.1142128819
  9
$TDUSRTIMER
 40
0.1142128819
  9
$USRTIMER
 70
     1
  9
$ANGBASE
 50
0.0
  9
$ANGDIR
 70
     0
  9
$PDMODE
 70
     0
  9
$PDSIZE
 40
-1.0
  9
$PLINEWID
 40
0.0
  9
$COORDS
 70
     1
  9
$SPLFRAME
 70
     0
  9
$SPLINETYPE
 70
     6
  9
$SPLINESEGS
 70
     8
  9
$ATTDIA
 70
     0
  9
$ATTREQ
 70
     1
  9
$HANDLING
 70
     1
  9
$HANDSEED
  5
68F
  9
$SURFTAB1
 70
     6
  9
$SURFTAB2
 70
     6
  9
$SURFTYPE
 70
     6
  9
$SURFU
 70
     6
  9
$SURFV
 70
     6
  9
$UCSNAME
  2

  9
$UCSORG
 10
0.0
 20
0.0
 30
0.0
  9
$UCSXDIR
 10
1.0
 20
0.0
 30
0.0
  9
$UCSYDIR
 10
0.0
 20
1.0
 30
0.0
  9
$PUCSNAME
  2

  9
$PUCSORG
 10
0.0
 20
0.0
 30
0.0
  9
$PUCSXDIR
 10
1.0
 20
0.0
 30
0.0
  9
$PUCSYDIR
 10
0.0
 20
1.0
 30
0.0
  9
$USERI1
 70
     0
  9
$USERI2
 70
     0
  9
$USERI3
 70
     0
  9
$USERI4
 70
     0
  9
$USERI5
 70
     0
  9
$USERR1
 40
0.0
  9
$USERR2
 40
0.0
  9
$USERR3
 40
0.0
  9
$USERR4
 40
0.0
  9
$USERR5
 40
0.0
  9
$WORLDVIEW
 70
     1
  9
$SHADEDGE
 70
     3
  9
$SHADEDIF
 70
    70
  9
$TILEMODE
 70
     1
  9
$MAXACTVP
 70
    64
  9
$PLIMCHECK
 70
     0
  9
$PEXTMIN
 10
1.0000000000000000E+020
 20
1.0000000000000000E+020
 30
1.0000000000000000E+020
  9
$PEXTMAX
 10
-1.0000000000000000E+020
 20
-1.0000000000000000E+020
 30
-1.0000000000000000E+020
  9
$PLIMMIN
 10
0.0
 20
0.0
  9
$PLIMMAX
 10
420.0
 20
297.0
  9
$UNITMODE
 70
     0
  9
$VISRETAIN
 70
     1
  9
$PLINEGEN
 70
     0
  9
$PSLTSCALE
 70
     1
  0
ENDSEC
  0
SECTION
  2
TABLES
  0
TABLE
  2
VPORT
 70
     1
  0
VPORT
  2
*ACTIVE
 70
     0
 10
0.0
 20
0.0
 11
1.0
 21
1.0
 12
157.0931849791377
 22
90.0
 13
0.0
 23
0.0
 14
10.0
 24
10.0
 15
10.0
 25
10.0
 16
0.0
 26
0.0
 36
1.0
 17
0.0
 27
0.0
 37
0.0
 40
180.0
 41
1.7454798331015291
 42
50.0
 43
0.0
 44
0.0
 50
0.0
 51
0.0
 71
     0
 72
  2000
 73
     1
 74
     3
 75
     0
 76
     0
 77
     0
 78
     0
  0
ENDTAB
  0
TABLE
  2
LTYPE
 70
     2
  0
LTYPE
  2
CONTINUOUS
 70
     0
  3
Solid line
 72
    65
 73
     0
 40
0.0
  0
LTYPE
  2
CENTER
 70
     0
  3
Center ____ _ ____ _ ____ _ ____ _ ____ _ ____
 72
    65
 73
     4
 40
10.16
 49
6.3499999999999988
 49
-1.27
 49
1.27
 49
-1.27
  0
ENDTAB
  0
TABLE
  2
LAYER
 70
     4
  0
LAYER
  2
0
 70
     0
 62
     7
  6
CONTINUOUS
  0
LAYER
  2
1
 70
     0
 62
     1
  6
CENTER
  0
LAYER
  2
3
 70
     0
 62
     3
  6
CONTINUOUS
  0
LAYER
  2
DEFPOINTS
 70
     0
 62
     7
  6
CONTINUOUS
  0
ENDTAB
  0
TABLE
  2
STYLE
 70
     2
  0
STYLE
  2
STANDARD
 70
     0
 40
0.0
 41
1.0
 50
0.0
 71
     0
 42
2.5
  3
txt
  4
bigfont
  0
STYLE
  2
STANDARD1
 70
     0
 40
0.0
 41
1.0
 50
0.0
 71
     0
 42
3.0
  3
txt
  4

  0
ENDTAB
  0
TABLE
  2
VIEW
 70
     0
  0
ENDTAB
  0
TABLE
  2
UCS
 70
     0
  0
ENDTAB
  0
TABLE
  2
APPID
 70
     4
  0
APPID
  2
ACAD
 70
     0
  0
APPID
  2
ACAD_MLEADERVER
 70
     0
  0
APPID
  2
ACAD_NAV_VCDISPLAY
 70
     0
  0
APPID
  2
ACAD_EXEMPT_FROM_CAD_STANDARDS
 70
     0
  0
ENDTAB
  0
TABLE
  2
DIMSTYLE
 70
     2
  0
DIMSTYLE
  2
ISO-25
 70
     0
  3

  4

  5

  6

  7

 40
1.0
 41
2.5
 42
0.625
 43
3.75
 44
1.25
 45
0.0
 46
0.0
 47
0.0
 48
0.0
140
2.5
141
2.5
142
0.0
143
0.03937007874016
144
1.0
145
0.0
146
1.0
147
0.625
 71
     0
 72
     0
 73
     0
 74
     0
 75
     0
 76
     0
 77
     1
 78
     8
170
     0
171
     3
172
     1
173
     0
174
     0
175
     0
176
     0
177
     0
178
     0
  0
DIMSTYLE
  2
STANDARD
 70
     0
  3

  4

  5

  6

  7

 40
1.0
 41
0.18
 42
0.0625
 43
0.38
 44
0.18
 45
0.0
 46
0.0
 47
0.0
 48
0.0
140
0.18
141
0.09
142
0.0
143
25.399999999999999
144
1.0
145
0.0
146
1.0
147
0.09
 71
     0
 72
     0
 73
     1
 74
     1
 75
     0
 76
     0
 77
     0
 78
     0
170
     0
171
     2
172
     0
173
     0
174
     0
175
     0
176
     0
177
     0
178
     0
  0
ENDTAB
  0
ENDSEC
  0
SECTION
  2
BLOCKS
  0
BLOCK
  8
0
  2
$MODEL_SPACE
 70
     0
 10
0.0
 20
0.0
 30
0.0
  3
$MODEL_SPACE
  1

  0
ENDBLK
  5
21
  8
0
  0
BLOCK
 67
     1
  8
0
  2
$PAPER_SPACE
 70
     0
 10
0.0
 20
0.0
 30
0.0
  3
$PAPER_SPACE
  1

  0
ENDBLK
  5
1D
 67
     1
  8
0
  0
ENDSEC
  0
SECTION
  2
ENTITIES
  0
LINE
  5
4E
  8
0
 10
101.54860096097561
 20
41.345846237440483
 30
0.0
 11
101.54860096097561
 21
24.345846237440501
 31
0.0
  0
LINE
  5
4F
  8
0
 10
100.04860096097561
 20
41.345846237440483
 30
0.0
 11
100.04860096097561
 21
24.345846237440501
 31
0.0
  0
LINE
  5
50
  8
0
 10
94.048600960975662
 20
29.381744622302719
 30
0.0
 11
100.04860096097561
 21
29.381744622302719
 31
0.0
  0
LINE
  5
51
  8
0
 10
94.048600960975662
 20
36.309947852578247
 30
0.0
 11
100.04860096097561
 21
36.309947852578247
 31
0.0
  0
LINE
  5
52
  8
0
 10
94.048600960975676
 20
25.917643007164969
 30
0.0
 11
94.048600960975662
 21
39.774049467715997
 31
0.0
  0
LINE
  5
53
  8
0
 10
94.048600960975662
 20
39.774049467715997
 30
0.0
 11
100.04860096097561
 21
39.774049467715997
 31
0.0
  0
LINE
  5
55
  8
0
 10
94.048600960975662
 20
25.917643007164969
 30
0.0
 11
100.04860096097561
 21
25.917643007164969
 31
0.0
  0
LINE
  5
58
  8
0
 10
116.0486009609757
 20
24.345846237440501
 30
0.0
 11
116.0486009609757
 21
41.34584623744049
 31
0.0
  0
LINE
  5
5A
  8
0
 10
114.54860096097561
 20
24.345846237440501
 30
0.0
 11
114.54860096097561
 21
41.34584623744049
 31
0.0
  0
LINE
  5
5B
  8
0
 10
122.04860096097561
 20
36.309947852578247
 30
0.0
 11
116.0486009609757
 21
36.309947852578247
 31
0.0
  0
LINE
  5
5C
  8
0
 10
122.04860096097561
 20
29.381744622302719
 30
0.0
 11
116.0486009609757
 21
29.381744622302719
 31
0.0
  0
LINE
  5
5D
  8
0
 10
122.04860096097561
 20
39.774049467715997
 30
0.0
 11
122.04860096097561
 21
25.91764300716498
 31
0.0
  0
LINE
  5
5E
  8
0
 10
122.04860096097561
 20
25.917643007164969
 30
0.0
 11
116.0486009609757
 21
25.917643007164969
 31
0.0
  0
LINE
  5
60
  8
0
 10
122.04860096097561
 20
39.774049467715997
 30
0.0
 11
116.0486009609757
 21
39.774049467715997
 31
0.0
  0
LINE
  5
63
  8
0
 10
84.230727365267455
 20
24.345846237440469
 30
0.0
 11
84.230727365267455
 21
41.34584623744049
 31
0.0
  0
LINE
  5
65
  8
0
 10
85.730727365267455
 20
24.345846237440469
 30
0.0
 11
85.730727365267455
 21
41.34584623744049
 31
0.0
  0
LINE
  5
66
  8
0
 10
91.730727365267455
 20
36.309947852578247
 30
0.0
 11
85.730727365267455
 21
36.309947852578247
 31
0.0
  0
LINE
  5
67
  8
0
 10
91.730727365267455
 20
29.381744622302719
 30
0.0
 11
85.730727365267455
 21
29.381744622302719
 31
0.0
  0
LINE
  5
68
  8
0
 10
91.730727365267455
 20
39.774049467715983
 30
0.0
 11
91.730727365267455
 21
25.91764300716498
 31
0.0
  0
LINE
  5
69
  8
0
 10
91.730727365267455
 20
25.917643007164969
 30
0.0
 11
85.730727365267455
 21
25.917643007164969
 31
0.0
  0
LINE
  5
6B
  8
0
 10
91.730727365267455
 20
39.774049467715997
 30
0.0
 11
85.730727365267455
 21
39.774049467715997
 31
0.0
  0
LINE
  5
6D
  8
0
 10
75.430727365267472
 20
29.09306948770789
 30
0.0
 11
80.730727365267455
 21
29.09306948770789
 31
0.0
  0
LINE
  5
6E
  8
0
 10
75.430727365267444
 20
40.351399736905677
 30
0.0
 11
75.430727365267472
 21
25.340292737975279
 31
0.0
  0
LINE
  5
6F
  8
0
 10
75.430727365267472
 20
36.598622987173073
 30
0.0
 11
80.730727365267455
 21
36.598622987173073
 31
0.0
  0
LINE
  5
70
  8
0
 10
80.730727365267455
 20
40.351399736905677
 30
0.0
 11
80.730727365267455
 21
25.340292737975279
 31
0.0
  0
LINE
  5
72
  8
0
 10
75.430727365267472
 20
40.351399736905691
 30
0.0
 11
80.730727365267455
 21
40.351399736905691
 31
0.0
  0
LINE
  5
74
  8
0
 10
75.430727365267472
 20
25.340292737975279
 30
0.0
 11
80.730727365267455
 21
25.340292737975279
 31
0.0
  0
LINE
  5
77
  8
0
 10
125.7307273652674
 20
35.645846237440473
 30
0.0
 11
125.7307273652674
 21
30.045846237440511
 31
0.0
  0
CIRCLE
  5
78
  8
0
 10
29.203119182542689
 20
32.84584623744049
 30
0.0
 40
8.5000000000000089
  0
LINE
  5
79
  8
0
 10
22.703119182542672
 20
36.598622987173087
 30
0.0
 11
29.203119182542739
 21
40.351399736905691
 31
0.0
  0
LINE
  5
7A
  8
0
 10
29.203119182542739
 20
40.351399736905691
 30
0.0
 11
35.703119182542792
 21
36.598622987173073
 31
0.0
  0
LINE
  5
7B
  8
0
 10
35.703119182542792
 20
36.598622987173073
 30
0.0
 11
35.703119182542792
 21
29.09306948770789
 31
0.0
  0
LINE
  5
7C
  8
0
 10
35.703119182542792
 20
29.09306948770789
 30
0.0
 11
29.203119182542739
 21
25.340292737975279
 31
0.0
  0
LINE
  5
7D
  8
0
 10
29.203119182542739
 20
25.340292737975279
 30
0.0
 11
22.703119182542672
 21
29.09306948770789
 31
0.0
  0
LINE
  5
7E
  8
0
 10
22.703119182542672
 20
29.09306948770789
 30
0.0
 11
22.703119182542672
 21
36.598622987173087
 31
0.0
  0
LINE
  5
8A
  8
0
 10
80.730727365267455
 20
36.845846237440483
 30
0.0
 11
84.230727365267441
 21
36.845846237440483
 31
0.0
  0
LINE
  5
8B
  8
0
 10
80.730727365267455
 20
28.84584623744049
 30
0.0
 11
84.230727365267455
 21
28.845846237440501
 31
0.0
  0
LINE
  5
8C
  8
0
 10
84.230727365267455
 20
24.345846237440469
 30
0.0
 11
85.730727365267455
 21
24.345846237440469
 31
0.0
  0
LINE
  5
8D
  8
0
 10
84.230727365267455
 20
41.34584623744049
 30
0.0
 11
85.730727365267455
 21
41.34584623744049
 31
0.0
  0
LINE
  5
8E
  8
0
 10
91.730727365267455
 20
36.845846237440483
 30
0.0
 11
94.048600960975676
 21
36.845846237440483
 31
0.0
  0
LINE
  5
8F
  8
0
 10
91.730727365267455
 20
28.84584623744049
 30
0.0
 11
94.048600960975705
 21
28.845846237440501
 31
0.0
  0
LINE
  5
90
  8
0
 10
100.04860096097561
 20
24.345846237440501
 30
0.0
 11
101.54860096097561
 21
24.345846237440501
 31
0.0
  0
LINE
  5
91
  8
0
 10
100.04860096097561
 20
41.345846237440483
 30
0.0
 11
101.54860096097561
 21
41.345846237440483
 31
0.0
  0
LINE
  5
92
  8
0
 10
103.04860096097561
 20
38.845846237440483
 30
0.0
 11
113.0486009609757
 21
38.84584623744049
 31
0.0
  0
LINE
  5
93
  8
0
 10
103.04860096097561
 20
26.84584623744048
 30
0.0
 11
113.0486009609757
 21
26.84584623744049
 31
0.0
  0
LINE
  5
94
  8
0
 10
114.54860096097561
 20
41.34584623744049
 30
0.0
 11
116.0486009609757
 21
41.34584623744049
 31
0.0
  0
LINE
  5
95
  8
0
 10
114.54860096097561
 20
24.345846237440501
 30
0.0
 11
116.0486009609757
 21
24.345846237440501
 31
0.0
  0
LINE
  5
96
  8
0
 10
124.5307273652675
 20
36.845846237440483
 30
0.0
 11
122.04860096097561
 21
36.845846237440483
 31
0.0
  0
LINE
  5
97
  8
0
 10
124.5307273652674
 20
28.845846237440458
 30
0.0
 11
122.04860096097561
 21
28.84584623744049
 31
0.0
  0
LINE
  5
3B9
  8
3
 10
80.730727365267455
 20
36.169346237439981
 30
0.0
 11
84.230727365267441
 21
36.169346237440067
 31
0.0
  0
LINE
  5
3BA
  8
3
 10
80.730727365267455
 20
29.522346237440392
 30
0.0
 11
84.230727365267441
 21
29.52234623744042
 31
0.0
  0
LINE
  5
3BB
  8
0
 10
124.5307273652675
 20
36.845846237440483
 30
0.0
 11
125.7307273652674
 21
35.645846237440502
 31
0.0
  0
LINE
  5
3BC
  8
0
 10
124.5307273652675
 20
36.845846237440512
 30
0.0
 11
124.5307273652674
 21
28.84584623744049
 31
0.0
  0
LINE
  5
3BD
  8
0
 10
125.7307273652674
 20
30.0458462374405
 30
0.0
 11
124.5307273652674
 21
28.84584623744049
 31
0.0
  0
LINE
  5
3BE
  8
3
 10
91.730727365267455
 20
36.169346237440173
 30
0.0
 11
94.048600960975662
 21
36.169346237440223
 31
0.0
  0
LINE
  5
3BF
  8
3
 10
91.730727365267455
 20
29.522346237440399
 30
0.0
 11
94.048600960975662
 21
29.522346237440392
 31
0.0
  0
LINE
  5
3C0
  8
3
 10
122.04860096097561
 20
36.169346237440557
 30
0.0
 11
125.2072273652673
 21
36.1693462374406
 31
0.0
  0
LINE
  5
3C1
  8
3
 10
122.04860096097561
 20
29.522346237440399
 30
0.0
 11
125.2072273652673
 21
29.522346237440399
 31
0.0
  0
LINE
  5
3C2
  8
1
 10
17.703119182542679
 20
32.84584623744049
 30
0.0
 11
40.7031191825427
 21
32.84584623744049
 31
0.0
  0
LINE
  5
3C3
  8
1
 10
29.203119182542689
 20
44.345846237440497
 30
0.0
 11
29.203119182542689
 21
21.345846237440469
 31
0.0
  0
LINE
  5
3C4
  8
1
 10
72.430727365267444
 20
32.845846237440441
 30
0.0
 11
128.7307273652674
 21
32.845846237440739
 31
0.0
  0
TEXT
  5
521
  8
0
 62
     3
 10
0.0
 20
0.0
 30
0.0
 40
10.0
  1
TC-IB08045B
  7
STANDARD1
  0
LINE
  5
5E8
  8
0
 10
103.04860096097561
 20
41.34584623744049
 30
0.0
 11
101.54860096097561
 21
41.34584623744049
 31
0.0
  0
LINE
  5
5E9
  8
0
 10
103.04860096097561
 20
24.34584623744049
 30
0.0
 11
101.54860096097561
 21
24.34584623744049
 31
0.0
  0
LINE
  5
5EB
  8
0
 10
103.04860096097561
 20
41.34584623744049
 30
0.0
 11
103.04860096097561
 21
24.34584623744049
 31
0.0
  0
LINE
  5
5EC
  8
0
 10
114.54860096097561
 20
41.34584623744049
 30
0.0
 11
113.0486009609757
 21
41.34584623744049
 31
0.0
  0
LINE
  5
5ED
  8
0
 10
114.54860096097561
 20
24.345846237440501
 30
0.0
 11
113.0486009609757
 21
24.345846237440501
 31
0.0
  0
LINE
  5
5EE
  8
0
 10
113.0486009609757
 20
41.34584623744049
 30
0.0
 11
113.0486009609757
 21
24.345846237440501
 31
0.0
  0
ENDSEC
  0
EOF
