  0
SECTION
  2
HEADER
  9
$ACADVER
  1
AC1009
  9
$INSBASE
 10
0.0
 20
0.0
 30
0.0
  9
$EXTMIN
 10
0.0
 20
-2.960436562073669
 30
0.0
  9
$EXTMAX
 10
152.59813052615081
 20
55.092026465706461
 30
0.0
  9
$LIMMIN
 10
0.0
 20
0.0
  9
$LIMMAX
 10
279.39999999999998
 20
215.90000000000001
  9
$ORTHOMODE
 70
     1
  9
$REGENMODE
 70
     1
  9
$FILLMODE
 70
     1
  9
$QTEXTMODE
 70
     0
  9
$MIRRTEXT
 70
     1
  9
$DRAGMODE
 70
     2
  9
$LTSCALE
 40
1.0
  9
$OSMODE
 70
    37
  9
$ATTMODE
 70
     1
  9
$TEXTSIZE
 40
2.5
  9
$TRACEWID
 40
1.0
  9
$TEXTSTYLE
  7
STANDARD
  9
$CLAYER
  8
0
  9
$CELTYPE
  6
BYLAYER
  9
$CECOLOR
 62
   256
  9
$DIMSCALE
 40
1.0
  9
$DIMASZ
 40
6.0
  9
$DIMEXO
 40
1.0
  9
$DIMDLI
 40
3.75
  9
$DIMRND
 40
0.0
  9
$DIMDLE
 40
0.0
  9
$DIMEXE
 40
1.0
  9
$DIMTP
 40
0.0
  9
$DIMTM
 40
0.0
  9
$DIMTXT
 40
3.5
  9
$DIMCEN
 40
2.5
  9
$DIMTSZ
 40
0.0
  9
$DIMTOL
 70
     0
  9
$DIMLIM
 70
     0
  9
$DIMTIH
 70
     1
  9
$DIMTOH
 70
     1
  9
$DIMSE1
 70
     0
  9
$DIMSE2
 70
     0
  9
$DIMTAD
 70
     1
  9
$DIMZIN
 70
     0
  9
$DIMBLK
  1

  9
$DIMASO
 70
     1
  9
$DIMSHO
 70
     1
  9
$DIMPOST
  1

  9
$DIMAPOST
  1

  9
$DIMALT
 70
     0
  9
$DIMALTD
 70
     3
  9
$DIMALTF
 40
0.0393700787401575
  9
$DIMLFAC
 40
1.0
  9
$DIMTOFL
 70
     1
  9
$DIMTVP
 40
0.0
  9
$DIMTIX
 70
     0
  9
$DIMSOXD
 70
     0
  9
$DIMSAH
 70
     0
  9
$DIMBLK1
  1

  9
$DIMBLK2
  1

  9
$DIMSTYLE
  2
ISO-25
  9
$DIMCLRD
 70
     0
  9
$DIMCLRE
 70
     0
  9
$DIMCLRT
 70
     0
  9
$DIMTFAC
 40
1.0
  9
$DIMGAP
 40
1.524
  9
$LUNITS
 70
     2
  9
$LUPREC
 70
     2
  9
$SKETCHINC
 40
1.0
  9
$FILLETRAD
 40
10.0
  9
$AUNITS
 70
     0
  9
$AUPREC
 70
     0
  9
$MENU
  1
.
  9
$ELEVATION
 40
0.0
  9
$PELEVATION
 40
0.0
  9
$THICKNESS
 40
0.0
  9
$LIMCHECK
 70
     0
  9
$BLIPMODE
 70
     0
  9
$CHAMFERA
 40
10.0
  9
$CHAMFERB
 40
10.0
  9
$SKPOLY
 70
     0
  9
$TDCREATE
 40
2454615.655987408
  9
$TDUPDATE
 40
2456842.6551667019
  9
$TDINDWG
 40
0.0139792824
  9
$TDUSRTIMER
 40
2456598.3468132638
  9
$USRTIMER
 70
     1
  9
$ANGBASE
 50
0.0
  9
$ANGDIR
 70
     0
  9
$PDMODE
 70
     0
  9
$PDSIZE
 40
-1.0
  9
$PLINEWID
 40
0.0
  9
$COORDS
 70
     1
  9
$SPLFRAME
 70
     0
  9
$SPLINETYPE
 70
     6
  9
$SPLINESEGS
 70
     8
  9
$ATTDIA
 70
     0
  9
$ATTREQ
 70
     1
  9
$HANDLING
 70
     1
  9
$HANDSEED
  5
442
  9
$SURFTAB1
 70
     6
  9
$SURFTAB2
 70
     6
  9
$SURFTYPE
 70
     6
  9
$SURFU
 70
     6
  9
$SURFV
 70
     6
  9
$UCSNAME
  2

  9
$UCSORG
 10
0.0
 20
0.0
 30
0.0
  9
$UCSXDIR
 10
1.0
 20
0.0
 30
0.0
  9
$UCSYDIR
 10
0.0
 20
1.0
 30
0.0
  9
$PUCSNAME
  2

  9
$PUCSORG
 10
0.0
 20
0.0
 30
0.0
  9
$PUCSXDIR
 10
1.0
 20
0.0
 30
0.0
  9
$PUCSYDIR
 10
0.0
 20
1.0
 30
0.0
  9
$USERI1
 70
     0
  9
$USERI2
 70
     0
  9
$USERI3
 70
     0
  9
$USERI4
 70
     0
  9
$USERI5
 70
     0
  9
$USERR1
 40
0.0
  9
$USERR2
 40
0.0
  9
$USERR3
 40
0.0
  9
$USERR4
 40
0.0
  9
$USERR5
 40
0.0
  9
$WORLDVIEW
 70
     1
  9
$SHADEDGE
 70
     3
  9
$SHADEDIF
 70
    70
  9
$TILEMODE
 70
     1
  9
$MAXACTVP
 70
    64
  9
$PLIMCHECK
 70
     0
  9
$PEXTMIN
 10
1.0000000000000000E+020
 20
1.0000000000000000E+020
 30
1.0000000000000000E+020
  9
$PEXTMAX
 10
-1.0000000000000000E+020
 20
-1.0000000000000000E+020
 30
-1.0000000000000000E+020
  9
$PLIMMIN
 10
0.0
 20
0.0
  9
$PLIMMAX
 10
420.0
 20
297.0
  9
$UNITMODE
 70
     0
  9
$VISRETAIN
 70
     1
  9
$PLINEGEN
 70
     0
  9
$PSLTSCALE
 70
     1
  0
ENDSEC
  0
SECTION
  2
TABLES
  0
TABLE
  2
VPORT
 70
     1
  0
VPORT
  2
*ACTIVE
 70
     0
 10
0.0
 20
0.0
 11
1.0
 21
1.0
 12
157.0931849791377
 22
90.0
 13
0.0
 23
0.0
 14
10.0
 24
10.0
 15
10.0
 25
10.0
 16
0.0
 26
0.0
 36
1.0
 17
0.0
 27
0.0
 37
0.0
 40
180.0
 41
1.7454798331015291
 42
50.0
 43
0.0
 44
0.0
 50
0.0
 51
0.0
 71
     0
 72
  2000
 73
     1
 74
     3
 75
     0
 76
     0
 77
     0
 78
     0
  0
ENDTAB
  0
TABLE
  2
LTYPE
 70
     2
  0
LTYPE
  2
CONTINUOUS
 70
     0
  3
Solid line
 72
    65
 73
     0
 40
0.0
  0
LTYPE
  2
CENTER
 70
     0
  3
Center ____ _ ____ _ ____ _ ____ _ ____ _ ____
 72
    65
 73
     4
 40
10.16
 49
6.3499999999999979
 49
-1.27
 49
1.27
 49
-1.27
  0
ENDTAB
  0
TABLE
  2
LAYER
 70
     4
  0
LAYER
  2
0
 70
     0
 62
     7
  6
CONTINUOUS
  0
LAYER
  2
1
 70
     0
 62
     1
  6
CENTER
  0
LAYER
  2
3
 70
     0
 62
     3
  6
CONTINUOUS
  0
LAYER
  2
DEFPOINTS
 70
     0
 62
     7
  6
CONTINUOUS
  0
ENDTAB
  0
TABLE
  2
STYLE
 70
     2
  0
STYLE
  2
STANDARD
 70
     0
 40
0.0
 41
1.0
 50
0.0
 71
     0
 42
2.5
  3
txt
  4
bigfont
  0
STYLE
  2
STANDARD1
 70
     0
 40
0.0
 41
1.0
 50
0.0
 71
     0
 42
3.0
  3
txt
  4

  0
ENDTAB
  0
TABLE
  2
VIEW
 70
     0
  0
ENDTAB
  0
TABLE
  2
UCS
 70
     0
  0
ENDTAB
  0
TABLE
  2
APPID
 70
     4
  0
APPID
  2
ACAD
 70
     0
  0
APPID
  2
ACAD_MLEADERVER
 70
     0
  0
APPID
  2
ACAD_NAV_VCDISPLAY
 70
     0
  0
APPID
  2
ACAD_EXEMPT_FROM_CAD_STANDARDS
 70
     0
  0
ENDTAB
  0
TABLE
  2
DIMSTYLE
 70
     2
  0
DIMSTYLE
  2
ISO-25
 70
     0
  3

  4

  5

  6

  7

 40
1.0
 41
2.5
 42
0.625
 43
3.75
 44
1.25
 45
0.0
 46
0.0
 47
0.0
 48
0.0
140
2.5
141
2.5
142
0.0
143
0.03937007874016
144
1.0
145
0.0
146
1.0
147
0.625
 71
     0
 72
     0
 73
     0
 74
     0
 75
     0
 76
     0
 77
     1
 78
     8
170
     0
171
     3
172
     1
173
     0
174
     0
175
     0
176
     0
177
     0
178
     0
  0
DIMSTYLE
  2
STANDARD
 70
     0
  3

  4

  5

  6

  7

 40
1.0
 41
0.18
 42
0.0625
 43
0.38
 44
0.18
 45
0.0
 46
0.0
 47
0.0
 48
0.0
140
0.18
141
0.09
142
0.0
143
25.399999999999999
144
1.0
145
0.0
146
1.0
147
0.09
 71
     0
 72
     0
 73
     1
 74
     1
 75
     0
 76
     0
 77
     0
 78
     0
170
     0
171
     2
172
     0
173
     0
174
     0
175
     0
176
     0
177
     0
178
     0
  0
ENDTAB
  0
ENDSEC
  0
SECTION
  2
BLOCKS
  0
BLOCK
  8
0
  2
$MODEL_SPACE
 70
     0
 10
0.0
 20
0.0
 30
0.0
  3
$MODEL_SPACE
  1

  0
ENDBLK
  5
21
  8
0
  0
BLOCK
 67
     1
  8
0
  2
$PAPER_SPACE
 70
     0
 10
0.0
 20
0.0
 30
0.0
  3
$PAPER_SPACE
  1

  0
ENDBLK
  5
1D
 67
     1
  8
0
  0
ENDSEC
  0
SECTION
  2
ENTITIES
  0
LINE
  5
4F
  8
0
 10
101.5981305261508
 20
32.092026465706482
 30
0.0
 11
101.5981305261508
 21
51.092026465706468
 31
0.0
  0
LINE
  5
51
  8
0
 10
99.598130526150783
 20
32.092026465706482
 30
0.0
 11
99.598130526150783
 21
51.092026465706468
 31
0.0
  0
LINE
  5
52
  8
0
 10
109.0981305261508
 20
45.633478350033847
 30
0.0
 11
101.5981305261508
 21
45.633478350033847
 31
0.0
  0
LINE
  5
53
  8
0
 10
109.0981305261508
 20
37.550574581379109
 30
0.0
 11
101.5981305261508
 21
37.550574581379109
 31
0.0
  0
LINE
  5
54
  8
0
 10
109.0981305261507
 20
49.674930234361241
 30
0.0
 11
109.0981305261508
 21
33.509122697051723
 31
0.0
  0
LINE
  5
55
  8
0
 10
109.0981305261508
 20
49.674930234361241
 30
0.0
 11
101.5981305261508
 21
49.674930234361241
 31
0.0
  0
LINE
  5
57
  8
0
 10
109.0981305261508
 20
33.509122697051708
 30
0.0
 11
101.5981305261508
 21
33.509122697051708
 31
0.0
  0
LINE
  5
5C
  8
0
 10
137.59813052615081
 20
32.092026465706482
 30
0.0
 11
137.59813052615081
 21
51.092026465706468
 31
0.0
  0
LINE
  5
5D
  8
0
 10
145.09813052615081
 20
45.633478350033847
 30
0.0
 11
137.59813052615081
 21
45.633478350033847
 31
0.0
  0
LINE
  5
5E
  8
0
 10
145.09813052615081
 20
37.550574581379109
 30
0.0
 11
137.59813052615081
 21
37.550574581379109
 31
0.0
  0
LINE
  5
5F
  8
0
 10
145.0981305261507
 20
49.674930234361227
 30
0.0
 11
145.09813052615081
 21
33.509122697051687
 31
0.0
  0
LINE
  5
60
  8
0
 10
145.09813052615081
 20
49.674930234361241
 30
0.0
 11
137.59813052615081
 21
49.674930234361241
 31
0.0
  0
LINE
  5
62
  8
0
 10
145.09813052615081
 20
33.509122697051708
 30
0.0
 11
137.59813052615081
 21
33.509122697051708
 31
0.0
  0
LINE
  5
65
  8
0
 10
119.5981305261508
 20
51.092026465706468
 30
0.0
 11
119.5981305261508
 21
32.092026465706482
 31
0.0
  0
LINE
  5
66
  8
0
 10
112.0981305261508
 20
37.550574581379109
 30
0.0
 11
119.5981305261508
 21
37.550574581379109
 31
0.0
  0
LINE
  5
67
  8
0
 10
112.0981305261508
 20
33.509122697051723
 30
0.0
 11
112.0981305261508
 21
49.674930234361241
 31
0.0
  0
LINE
  5
68
  8
0
 10
112.0981305261508
 20
45.633478350033847
 30
0.0
 11
119.5981305261508
 21
45.633478350033847
 31
0.0
  0
LINE
  5
69
  8
0
 10
112.0981305261508
 20
49.674930234361241
 30
0.0
 11
119.5981305261508
 21
49.674930234361241
 31
0.0
  0
LINE
  5
6B
  8
0
 10
112.0981305261508
 20
33.509122697051708
 30
0.0
 11
119.5981305261508
 21
33.509122697051708
 31
0.0
  0
LINE
  5
6D
  8
0
 10
87.598130526150754
 20
36.684549177594647
 30
0.0
 11
94.598130526150783
 21
36.684549177594647
 31
0.0
  0
LINE
  5
6E
  8
0
 10
87.598130526150754
 20
51.406981041930109
 30
0.0
 11
87.598130526150754
 21
31.77707188948283
 31
0.0
  0
LINE
  5
6F
  8
0
 10
87.598130526150754
 20
46.499503753818303
 30
0.0
 11
94.598130526150783
 21
46.499503753818303
 31
0.0
  0
LINE
  5
70
  8
0
 10
94.598130526150797
 20
51.406981041930109
 30
0.0
 11
94.598130526150783
 21
31.77707188948283
 31
0.0
  0
LINE
  5
72
  8
0
 10
87.598130526150754
 20
51.406981041930109
 30
0.0
 11
94.598130526150783
 21
51.406981041930109
 31
0.0
  0
LINE
  5
74
  8
0
 10
87.598130526150754
 20
31.77707188948283
 30
0.0
 11
94.598130526150783
 21
31.77707188948283
 31
0.0
  0
ARC
  5
78
  8
0
 10
34.549941009214542
 20
41.592026465706468
 30
0.0
 40
9.5
 50
33.474647983390568
 51
86.52535201660946
  0
ARC
  5
79
  8
0
 10
34.549941009214542
 20
41.592026465706468
 30
0.0
 40
9.5
 50
93.474647983390014
 51
146.5253520166099
  0
ARC
  5
7A
  8
0
 10
34.549941009214542
 20
41.592026465706468
 30
0.0
 40
9.5000000000000036
 50
153.47464798338959
 51
206.52535201661109
  0
ARC
  5
7B
  8
0
 10
34.549941009214542
 20
41.592026465706468
 30
0.0
 40
9.4999999999999947
 50
213.4746479833907
 51
266.52535201661078
  0
ARC
  5
7C
  8
0
 10
34.549941009214542
 20
41.592026465706468
 30
0.0
 40
9.5
 50
273.47464798339121
 51
326.52535201661033
  0
ARC
  5
7D
  8
0
 10
34.549941009214542
 20
41.592026465706468
 30
0.0
 40
9.4999999999999964
 50
333.47464798339161
 51
26.52535201660918
  0
LINE
  5
7E
  8
0
 10
26.049941009214589
 20
46.499503753818303
 30
0.0
 11
34.549941009214592
 21
51.406981041930109
 31
0.0
  0
LINE
  5
7F
  8
0
 10
34.549941009214592
 20
51.406981041930109
 30
0.0
 11
43.049941009214578
 21
46.499503753818303
 31
0.0
  0
LINE
  5
80
  8
0
 10
43.049941009214578
 20
46.499503753818303
 30
0.0
 11
43.049941009214571
 21
36.684549177594647
 31
0.0
  0
LINE
  5
81
  8
0
 10
43.049941009214571
 20
36.684549177594647
 30
0.0
 11
34.549941009214578
 21
31.77707188948283
 31
0.0
  0
LINE
  5
82
  8
0
 10
34.549941009214578
 20
31.77707188948283
 30
0.0
 11
26.049941009214582
 21
36.684549177594647
 31
0.0
  0
LINE
  5
83
  8
0
 10
26.049941009214582
 20
36.684549177594647
 30
0.0
 11
26.049941009214589
 21
46.499503753818303
 31
0.0
  0
LINE
  5
11D
  8
0
 10
149.59813052615081
 20
45.092026465706468
 30
0.0
 11
149.5981305261507
 21
38.092026465706482
 31
0.0
  0
LINE
  5
11E
  8
0
 10
94.598130526150797
 20
36.592026465706482
 30
0.0
 11
99.598130526150754
 21
36.592026465706482
 31
0.0
  0
LINE
  5
11F
  8
3
 10
94.598130526150754
 20
37.404026465706281
 30
0.0
 11
99.598130526150783
 21
37.404026465706281
 31
0.0
  0
LINE
  5
120
  8
3
 10
94.598130526150797
 20
45.780026465706428
 30
0.0
 11
99.598130526150783
 21
45.780026465706449
 31
0.0
  0
LINE
  5
121
  8
0
 10
94.598130526150783
 20
46.592026465706468
 30
0.0
 11
99.598130526150754
 21
46.592026465706446
 31
0.0
  0
LINE
  5
122
  8
0
 10
148.09813052615081
 20
46.592026465706468
 30
0.0
 11
149.59813052615081
 21
45.092026465706468
 31
0.0
  0
LINE
  5
123
  8
0
 10
149.5981305261507
 20
38.092026465706482
 30
0.0
 11
148.0981305261507
 21
36.592026465706482
 31
0.0
  0
LINE
  5
127
  8
0
 10
148.09813052615081
 20
46.592026465706468
 30
0.0
 11
148.0981305261507
 21
36.592026465706482
 31
0.0
  0
LINE
  5
128
  8
0
 10
99.598130526150783
 20
32.092026465706482
 30
0.0
 11
101.5981305261508
 21
32.092026465706482
 31
0.0
  0
LINE
  5
129
  8
0
 10
99.598130526150783
 20
51.092026465706468
 30
0.0
 11
101.5981305261508
 21
51.092026465706468
 31
0.0
  0
LINE
  5
12A
  8
0
 10
119.5981305261508
 20
32.092026465706482
 30
0.0
 11
121.5981305261508
 21
32.092026465706482
 31
0.0
  0
LINE
  5
12B
  8
0
 10
119.5981305261508
 20
51.092026465706468
 30
0.0
 11
121.5981305261508
 21
51.092026465706468
 31
0.0
  0
LINE
  5
12C
  8
0
 10
135.59813052615081
 20
32.092026465706482
 30
0.0
 11
137.59813052615081
 21
32.092026465706482
 31
0.0
  0
LINE
  5
12D
  8
0
 10
135.59813052615081
 20
51.092026465706468
 30
0.0
 11
137.59813052615081
 21
51.092026465706468
 31
0.0
  0
LINE
  5
12E
  8
0
 10
123.5981305261508
 20
47.592026465706482
 30
0.0
 11
133.59813052615081
 21
47.592026465706461
 31
0.0
  0
LINE
  5
12F
  8
0
 10
123.5981305261508
 20
35.592026465706468
 30
0.0
 11
133.59813052615081
 21
35.592026465706468
 31
0.0
  0
LINE
  5
130
  8
0
 10
109.0981305261507
 20
46.592026465706468
 30
0.0
 11
112.0981305261508
 21
46.592026465706489
 31
0.0
  0
LINE
  5
131
  8
3
 10
109.0981305261508
 20
45.78002646570647
 30
0.0
 11
112.0981305261508
 21
45.78002646570647
 31
0.0
  0
LINE
  5
132
  8
3
 10
109.0981305261508
 20
37.404026465706288
 30
0.0
 11
112.0981305261508
 21
37.404026465706309
 31
0.0
  0
LINE
  5
133
  8
0
 10
109.0981305261508
 20
36.592026465706482
 30
0.0
 11
112.0981305261508
 21
36.592026465706482
 31
0.0
  0
LINE
  5
134
  8
0
 10
145.0981305261507
 20
46.592026465706503
 30
0.0
 11
148.09813052615081
 21
46.592026465706468
 31
0.0
  0
LINE
  5
135
  8
3
 10
145.0981305261507
 20
45.780026465706513
 30
0.0
 11
148.9101305261506
 21
45.780026465706577
 31
0.0
  0
LINE
  5
136
  8
3
 10
145.0981305261507
 20
37.40402646570638
 30
0.0
 11
148.9101305261506
 21
37.404026465706409
 31
0.0
  0
LINE
  5
137
  8
0
 10
145.09813052615081
 20
36.592026465706482
 30
0.0
 11
148.0981305261507
 21
36.592026465706482
 31
0.0
  0
LINE
  5
138
  8
1
 10
21.049941009214589
 20
41.592026465706468
 30
0.0
 11
48.049941009214578
 21
41.592026465706468
 31
0.0
  0
LINE
  5
139
  8
1
 10
34.549941009214599
 20
55.092026465706461
 30
0.0
 11
34.549941009214571
 21
28.092026465706471
 31
0.0
  0
LINE
  5
13A
  8
1
 10
84.598130526150783
 20
41.592026465706468
 30
0.0
 11
152.59813052615081
 21
41.592026465705928
 31
0.0
  0
TEXT
  5
28A
  8
0
 62
     3
 10
0.0
 20
0.0
 30
0.0
 40
10.0
  1
TC-IB10055B
  7
STANDARD1
  0
LINE
  5
391
  8
0
 10
121.5981305261508
 20
52.092026465706482
 30
0.0
 11
121.5981305261508
 21
31.092026465706478
 31
0.0
  0
LINE
  5
392
  8
0
 10
123.5981305261508
 20
52.092026465706482
 30
0.0
 11
123.5981305261508
 21
31.092026465706478
 31
0.0
  0
LINE
  5
393
  8
0
 10
121.5981305261508
 20
31.092026465706478
 30
0.0
 11
123.5981305261508
 21
31.092026465706478
 31
0.0
  0
LINE
  5
394
  8
0
 10
121.5981305261508
 20
52.092026465706482
 30
0.0
 11
123.5981305261508
 21
52.092026465706482
 31
0.0
  0
LINE
  5
395
  8
0
 10
133.59813052615081
 20
52.092026465706482
 30
0.0
 11
133.59813052615081
 21
31.092026465706478
 31
0.0
  0
LINE
  5
396
  8
0
 10
135.59813052615081
 20
52.092026465706482
 30
0.0
 11
135.59813052615081
 21
31.092026465706478
 31
0.0
  0
LINE
  5
397
  8
0
 10
133.59813052615081
 20
31.092026465706478
 30
0.0
 11
135.59813052615081
 21
31.092026465706478
 31
0.0
  0
LINE
  5
398
  8
0
 10
133.59813052615081
 20
52.092026465706482
 30
0.0
 11
135.59813052615081
 21
52.092026465706482
 31
0.0
  0
CIRCLE
  5
3A0
  8
0
 10
34.549941009214592
 20
41.592026465706468
 30
0.0
 40
10.5
  0
ENDSEC
  0
EOF
