  0
SECTION
  2
HEADER
  9
$ACADVER
  1
AC1009
  9
$INSBASE
 10
0.0
 20
0.0
 30
0.0
  9
$EXTMIN
 10
0.0
 20
-2.960436562073669
 30
0.0
  9
$EXTMAX
 10
212.7328382469085
 20
166.6736119252663
 30
0.0
  9
$LIMMIN
 10
0.0
 20
0.0
  9
$LIMMAX
 10
275.0
 20
175.0
  9
$ORTHOMODE
 70
     0
  9
$REGENMODE
 70
     1
  9
$FILLMODE
 70
     1
  9
$QTEXTMODE
 70
     0
  9
$MIRRTEXT
 70
     1
  9
$DRAGMODE
 70
     2
  9
$LTSCALE
 40
5.0
  9
$OSMODE
 70
    55
  9
$ATTMODE
 70
     1
  9
$TEXTSIZE
 40
1.0
  9
$TRACEWID
 40
1.0
  9
$TEXTSTYLE
  7
06500
  9
$CLAYER
  8
0
  9
$CELTYPE
  6
BYLAYER
  9
$CECOLOR
 62
   256
  9
$DIMSCALE
 40
1.0
  9
$DIMASZ
 40
2.5
  9
$DIMEXO
 40
1.0
  9
$DIMDLI
 40
6.0
  9
$DIMRND
 40
0.0
  9
$DIMDLE
 40
0.0
  9
$DIMEXE
 40
1.0
  9
$DIMTP
 40
495.0
  9
$DIMTM
 40
0.0
  9
$DIMTXT
 40
3.0
  9
$DIMCEN
 40
0.0
  9
$DIMTSZ
 40
0.0
  9
$DIMTOL
 70
     0
  9
$DIMLIM
 70
     0
  9
$DIMTIH
 70
     0
  9
$DIMTOH
 70
     0
  9
$DIMSE1
 70
     0
  9
$DIMSE2
 70
     0
  9
$DIMTAD
 70
     3
  9
$DIMZIN
 70
     8
  9
$DIMBLK
  1
ARROWANG
  9
$DIMASO
 70
     0
  9
$DIMSHO
 70
     1
  9
$DIMPOST
  1

  9
$DIMAPOST
  1

  9
$DIMALT
 70
     0
  9
$DIMALTD
 70
     2
  9
$DIMALTF
 40
25.399999999999999
  9
$DIMLFAC
 40
1.0
  9
$DIMTOFL
 70
     1
  9
$DIMTVP
 40
0.0
  9
$DIMTIX
 70
     1
  9
$DIMSOXD
 70
     0
  9
$DIMSAH
 70
     1
  9
$DIMBLK1
  1
ARROW
  9
$DIMBLK2
  1
ARROW
  9
$DIMSTYLE
  2
ITM
  9
$DIMCLRD
 70
     0
  9
$DIMCLRE
 70
     0
  9
$DIMCLRT
 70
     0
  9
$DIMTFAC
 40
1.0
  9
$DIMGAP
 40
1.0
  9
$LUNITS
 70
     2
  9
$LUPREC
 70
     2
  9
$SKETCHINC
 40
1.0
  9
$FILLETRAD
 40
6.0
  9
$AUNITS
 70
     0
  9
$AUPREC
 70
     2
  9
$MENU
  1
.
  9
$ELEVATION
 40
0.0
  9
$PELEVATION
 40
0.0
  9
$THICKNESS
 40
0.0
  9
$LIMCHECK
 70
     0
  9
$BLIPMODE
 70
     0
  9
$CHAMFERA
 40
0.0
  9
$CHAMFERB
 40
0.0
  9
$SKPOLY
 70
     0
  9
$TDCREATE
 40
2452390.7833676268
  9
$TDUPDATE
 40
2456598.4364194558
  9
$TDINDWG
 40
0.3819819329
  9
$TDUSRTIMER
 40
0.3819797338
  9
$USRTIMER
 70
     1
  9
$ANGBASE
 50
0.0
  9
$ANGDIR
 70
     0
  9
$PDMODE
 70
     0
  9
$PDSIZE
 40
0.0
  9
$PLINEWID
 40
0.0
  9
$COORDS
 70
     1
  9
$SPLFRAME
 70
     0
  9
$SPLINETYPE
 70
     6
  9
$SPLINESEGS
 70
     8
  9
$ATTDIA
 70
     0
  9
$ATTREQ
 70
     1
  9
$HANDLING
 70
     1
  9
$HANDSEED
  5
D42
  9
$SURFTAB1
 70
     6
  9
$SURFTAB2
 70
     6
  9
$SURFTYPE
 70
     6
  9
$SURFU
 70
     6
  9
$SURFV
 70
     6
  9
$UCSNAME
  2

  9
$UCSORG
 10
0.0
 20
0.0
 30
0.0
  9
$UCSXDIR
 10
1.0
 20
0.0
 30
0.0
  9
$UCSYDIR
 10
0.0
 20
1.0
 30
0.0
  9
$PUCSNAME
  2

  9
$PUCSORG
 10
0.0
 20
0.0
 30
0.0
  9
$PUCSXDIR
 10
1.0
 20
0.0
 30
0.0
  9
$PUCSYDIR
 10
0.0
 20
1.0
 30
0.0
  9
$USERI1
 70
     3
  9
$USERI2
 70
     1
  9
$USERI3
 70
     1
  9
$USERI4
 70
     0
  9
$USERI5
 70
     0
  9
$USERR1
 40
1.0
  9
$USERR2
 40
3.0
  9
$USERR3
 40
1.5
  9
$USERR4
 40
2.5
  9
$USERR5
 40
10.0
  9
$WORLDVIEW
 70
     1
  9
$SHADEDGE
 70
     3
  9
$SHADEDIF
 70
    70
  9
$TILEMODE
 70
     1
  9
$MAXACTVP
 70
    16
  9
$PLIMCHECK
 70
     0
  9
$PEXTMIN
 10
1.0000000000000000E+020
 20
1.0000000000000000E+020
 30
1.0000000000000000E+020
  9
$PEXTMAX
 10
-1.0000000000000000E+020
 20
-1.0000000000000000E+020
 30
-1.0000000000000000E+020
  9
$PLIMMIN
 10
0.0
 20
0.0
  9
$PLIMMAX
 10
420.0
 20
297.0
  9
$UNITMODE
 70
     0
  9
$VISRETAIN
 70
     0
  9
$PLINEGEN
 70
     0
  9
$PSLTSCALE
 70
     1
  0
ENDSEC
  0
SECTION
  2
TABLES
  0
TABLE
  2
VPORT
 70
     1
  0
VPORT
  2
*ACTIVE
 70
     0
 10
0.0
 20
0.0
 11
1.0
 21
1.0
 12
137.495804153145
 22
127.43987488832769
 13
0.0
 23
0.0
 14
5.0
 24
5.0
 15
10.0
 25
10.0
 16
0.0
 26
0.0
 36
1.0
 17
0.0
 27
0.0
 37
0.0
 40
263.11484850981981
 41
1.7807262569832401
 42
50.0
 43
0.0
 44
0.0
 50
0.0
 51
0.0
 71
     0
 72
   500
 73
     1
 74
     0
 75
     0
 76
     0
 77
     0
 78
     1
  0
ENDTAB
  0
TABLE
  2
LTYPE
 70
     3
  0
LTYPE
  2
CONTINUOUS
 70
     0
  3
Solid line
 72
    65
 73
     0
 40
0.0
  0
LTYPE
  2
CENTER
 70
     0
  3
____ _ ____ _ ____ _ ____ _ ____ _ ____ _ ____
 72
    65
 73
     4
 40
2.0
 49
1.25
 49
-0.25
 49
0.25
 49
-0.25
  0
LTYPE
  2
HIDDEN
 70
     0
  3
Hidden __ __ __ __ __ __ __ __ __ __ __ __ __ _
 72
    65
 73
     2
 40
9.5249999999999986
 49
6.3499999999999988
 49
-3.1749999999999989
  0
ENDTAB
  0
TABLE
  2
LAYER
 70
     5
  0
LAYER
  2
0
 70
     0
 62
     7
  6
CONTINUOUS
  0
LAYER
  2
1
 70
     0
 62
     1
  6
CENTER
  0
LAYER
  2
4
 70
     0
 62
     4
  6
CONTINUOUS
  0
LAYER
  2
2
 70
     0
 62
     2
  6
HIDDEN
  0
LAYER
  2
3
 70
     0
 62
     3
  6
CONTINUOUS
  0
ENDTAB
  0
TABLE
  2
STYLE
 70
     4
  0
STYLE
  2
STANDARD
 70
     0
 40
0.0
 41
0.75
 50
0.0
 71
     0
 42
2.5
  3
ROMANS.shx
  4
EXTFONT.shx
  0
STYLE
  2
K
 70
     0
 40
0.0
 41
0.75
 50
0.0
 71
     0
 42
1.0
  3
ROMANS.shx
  4
EXTFONT.shx
  0
STYLE
  2
06500
 70
     0
 40
0.0
 41
0.65
 50
0.0
 71
     0
 42
1.0
  3
ROMANS.shx
  4
EXTFONT.shx
  0
STYLE
  2
STANDARD1
 70
     0
 40
0.0
 41
1.0
 50
0.0
 71
     0
 42
3.0
  3
txt
  4

  0
ENDTAB
  0
TABLE
  2
VIEW
 70
     0
  0
ENDTAB
  0
TABLE
  2
UCS
 70
     0
  0
ENDTAB
  0
TABLE
  2
APPID
 70
     4
  0
APPID
  2
ACAD
 70
     0
  0
APPID
  2
COMM
 70
     0
  0
APPID
  2
ACAD_MLEADERVER
 70
     0
  0
APPID
  2
ACAD_NAV_VCDISPLAY
 70
     0
  0
ENDTAB
  0
TABLE
  2
DIMSTYLE
 70
     2
  0
DIMSTYLE
  2
STANDARD
 70
     0
  3

  4

  5

  6

  7

 40
1.0
 41
0.18
 42
0.0625
 43
0.38
 44
0.18
 45
0.0
 46
0.0
 47
0.0
 48
0.0
140
0.18
141
0.09
142
0.0
143
25.399999999999999
144
1.0
145
0.0
146
1.0
147
0.09
 71
     0
 72
     0
 73
     1
 74
     1
 75
     0
 76
     0
 77
     0
 78
     0
170
     0
171
     2
172
     0
173
     0
174
     0
175
     0
176
     0
177
     0
178
     0
  0
DIMSTYLE
  2
ITM
 70
     0
  3

  4

  5
ARROWANG
  6
ARROW
  7
ARROW
 40
0.0
 41
2.5
 42
1.0
 43
6.0
 44
1.0
 45
0.0
 46
0.0
 47
495.0
 48
0.0
140
1.5
141
0.0
142
0.0
143
25.399999999999999
144
1.0
145
0.0
146
1.0
147
1.0
 71
     0
 72
     0
 73
     0
 74
     0
 75
     0
 76
     0
 77
     3
 78
     8
170
     0
171
     2
172
     1
173
     1
174
     1
175
     0
176
     0
177
     0
178
     0
  0
ENDTAB
  0
ENDSEC
  0
SECTION
  2
BLOCKS
  0
BLOCK
  8
0
  2
$MODEL_SPACE
 70
     0
 10
0.0
 20
0.0
 30
0.0
  3
$MODEL_SPACE
  1

  0
ENDBLK
  5
1C
  8
0
  0
BLOCK
 67
     1
  8
0
  2
$PAPER_SPACE
 70
     0
 10
0.0
 20
0.0
 30
0.0
  3
$PAPER_SPACE
  1

  0
ENDBLK
  5
19
 67
     1
  8
0
  0
BLOCK
  8
0
  2
ARROW
 70
     0
 10
0.0
 20
0.0
 30
0.0
  3
ARROW
  1

  0
SOLID
  5
19F
  8
4
  6
CONTINUOUS
 62
     4
 10
-1.0
 20
0.1666666666669698
 30
0.0
 11
-1.0
 21
-0.1666666666669698
 31
0.0
 12
0.0
 22
0.0
 32
0.0
 13
0.0
 23
0.0
 33
0.0
  0
ENDBLK
  5
12A
  8
0
  0
BLOCK
  8
0
  2
ARROWANG
 70
     0
 10
0.0
 20
0.0
 30
0.0
  3
ARROWANG
  1

  0
LINE
  5
12C
  8
0
 10
0.0
 20
0.0
 30
0.0
 11
-1.4999999999999429
 21
0.4019237886467409
 31
0.0
  0
LINE
  5
12D
  8
0
 10
0.0
 20
0.0
 30
0.0
 11
-1.5
 21
-0.4019237886467124
 31
0.0
  0
ENDBLK
  5
12E
  8
0
  0
ENDSEC
  0
SECTION
  2
ENTITIES
  0
ARC
  5
B43
  8
0
 10
88.142959488398319
 20
77.214115024165949
 30
0.0
 40
1.0
 50
90.0
 51
180.0
  0
ARC
  5
B44
  8
0
 10
86.142959488398333
 20
68.214263645702033
 30
0.0
 40
1.0
 50
270.98776039964127
 51
0.0
  0
LINE
  5
B45
  8
0
 10
88.142959488398319
 20
78.214115024165935
 30
0.0
 11
97.142959488398333
 21
78.214115024165935
 31
0.0
  0
LINE
  5
B46
  8
0
 10
113.339525991863
 20
55.14231825444142
 30
0.0
 11
113.339525991863
 21
52.832917177682923
 31
0.0
  0
ARC
  5
B47
  8
0
 10
110.1728593251963
 20
55.14231825444142
 30
0.0
 40
3.1666666666667309
 50
313.1735511072572
 51
46.82644889274281
  0
LINE
  5
B48
  8
0
 10
113.339525991863
 20
43.595312870648961
 30
0.0
 11
113.339525991863
 21
41.285911793890421
 31
0.0
  0
ARC
  5
B49
  8
0
 10
110.1728593251963
 20
41.285911793890421
 30
0.0
 40
3.1666666666666821
 50
313.1735511072572
 51
46.82644889274281
  0
LINE
  5
B4A
  8
0
 10
113.339525991863
 20
52.832917177682923
 30
0.0
 11
113.339525991863
 21
43.595312870648961
 31
0.0
  0
ARC
  5
B4B
  8
0
 10
102.1728593251965
 20
48.214115024165942
 30
0.0
 40
11.16666666666643
 50
335.56730232054917
 51
24.432697679450811
  0
LINE
  5
B4C
  8
0
 10
104.139525991863
 20
56.964115024165942
 30
0.0
 11
106.339525991863
 21
56.964115024165942
 31
0.0
  0
LINE
  5
B4D
  8
0
 10
104.139525991863
 20
49.863679711235022
 30
0.0
 11
106.339525991863
 21
47.862179567018408
 31
0.0
  0
LINE
  5
B4E
  8
0
 10
97.142959488398333
 20
53.214115024165942
 30
0.0
 11
104.139525991863
 21
53.214115024165942
 31
0.0
  0
LINE
  5
B4F
  8
3
 10
97.142959488398333
 20
52.402115024166022
 30
0.0
 11
104.139525991863
 21
52.402115024166022
 31
0.0
  0
LINE
  5
B50
  8
0
 10
104.139525991863
 20
39.464115024165949
 30
0.0
 11
106.339525991863
 21
39.464115024165949
 31
0.0
  0
LINE
  5
B51
  8
0
 10
97.142959488398333
 20
43.214115024165942
 30
0.0
 11
104.139525991863
 21
43.214115024165942
 31
0.0
  0
LINE
  5
B52
  8
3
 10
97.142959488398333
 20
44.026115024165847
 30
0.0
 11
104.139525991863
 21
44.026115024165847
 31
0.0
  0
LINE
  5
B53
  8
0
 10
106.339525991863
 20
57.451719331200017
 30
0.0
 11
106.339525991863
 21
38.97651071713188
 31
0.0
  0
LINE
  5
B54
  8
0
 10
104.139525991863
 20
56.964115024165942
 30
0.0
 11
104.139525991863
 21
39.464115024165949
 31
0.0
  0
LINE
  5
B55
  8
0
 10
104.139525991863
 20
48.275334563017729
 30
0.0
 11
106.339525991863
 21
46.273834418801123
 31
0.0
  0
LINE
  5
B56
  8
0
 10
87.142959488398333
 20
52.714115024165949
 30
0.0
 11
97.142959488398333
 21
52.714115024165949
 31
0.0
  0
LINE
  5
B57
  8
0
 10
87.142959488398333
 20
43.714115024165942
 30
0.0
 11
97.142959488398333
 21
43.714115024165942
 31
0.0
  0
ARC
  5
B58
  8
0
 10
86.142959488398333
 20
28.213966402629922
 30
0.0
 40
1.0
 50
0.0
 51
89.012239600358726
  0
ARC
  5
B59
  8
0
 10
88.142959488398319
 20
19.214115024165949
 30
0.0
 40
1.0
 50
180.0
 51
270.0
  0
LINE
  5
B5A
  8
0
 10
88.142959488398319
 20
18.214115024165949
 30
0.0
 11
97.142959488398333
 21
18.214115024165949
 31
0.0
  0
LINE
  5
B5B
  8
0
 10
106.339525991863
 20
57.451719331199968
 30
0.0
 11
112.339525991863
 21
57.451719331199968
 31
0.0
  0
LINE
  5
B5C
  8
0
 10
106.339525991863
 20
52.832917177682923
 30
0.0
 11
112.339525991863
 21
52.832917177682923
 31
0.0
  0
LINE
  5
B5D
  8
0
 10
106.339525991863
 20
43.595312870648961
 30
0.0
 11
112.339525991863
 21
43.595312870648961
 31
0.0
  0
LINE
  5
B5E
  8
0
 10
106.339525991863
 20
38.97651071713188
 30
0.0
 11
112.339525991863
 21
38.97651071713188
 31
0.0
  0
LINE
  5
B5F
  8
0
 10
87.142959488398333
 20
77.214115024165949
 30
0.0
 11
87.142959488398333
 21
19.214115024165949
 31
0.0
  0
LINE
  5
B60
  8
0
 10
97.142959488398333
 20
78.214115024165935
 30
0.0
 11
97.142959488398333
 21
18.214115024165949
 31
0.0
1001
ACAD
1000
ASC_BOUNDS
1002
{
1070
    19
1005
0
1002
}
  0
LINE
  5
B61
  8
0
 10
21.142959488398279
 20
163.21411502416589
 30
0.0
 11
27.142959488398279
 21
163.21411502416589
 31
0.0
  0
LINE
  5
B62
  8
2
 10
21.142959488398279
 20
153.46411502416589
 30
0.0
 11
27.142959488398279
 21
153.46411502416589
 31
0.0
  0
LINE
  5
B63
  8
2
 10
21.142959488398279
 20
142.96411502416589
 30
0.0
 11
27.142959488398279
 21
142.96411502416589
 31
0.0
  0
LINE
  5
B64
  8
2
 10
21.142959488398279
 20
133.46411502416589
 30
0.0
 11
27.142959488398279
 21
133.46411502416589
 31
0.0
  0
LINE
  5
B65
  8
2
 10
21.142959488398279
 20
122.96411502416591
 30
0.0
 11
27.142959488398279
 21
122.96411502416591
 31
0.0
  0
LINE
  5
B66
  8
0
 10
27.142959488398279
 20
59.714115024165949
 30
0.0
 11
28.142959488398269
 21
59.714115024165949
 31
0.0
  0
LINE
  5
B67
  8
1
 10
16.671806172702421
 20
128.21411502416589
 30
0.0
 11
32.403162869076141
 21
128.21411502416589
 31
0.0
  0
LINE
  5
B68
  8
1
 10
16.671806172702421
 20
148.21411502416589
 30
0.0
 11
32.403162869076141
 21
148.21411502416589
 31
0.0
  0
LINE
  5
B69
  8
0
 10
198.28669235929431
 20
160.21411502416589
 30
0.0
 11
198.28669235929431
 21
72.214115024165949
 31
0.0
  0
ARC
  5
B6A
  8
0
 10
166.28669235929431
 20
160.21411502416589
 30
0.0
 40
3.0
 50
90.0
 51
180.0
  0
LINE
  5
B6B
  8
0
 10
166.28669235929431
 20
163.21411502416589
 30
0.0
 11
195.28669235929431
 21
163.21411502416589
 31
0.0
  0
LINE
  5
B6C
  8
1
 10
172.92101401110739
 20
148.21411502416589
 30
0.0
 11
188.65237070748111
 21
148.21411502416589
 31
0.0
  0
LINE
  5
B6D
  8
1
 10
172.92101401110739
 20
128.21411502416589
 30
0.0
 11
188.65237070748111
 21
128.21411502416589
 31
0.0
  0
CIRCLE
  5
B6E
  8
0
 10
180.78669235929431
 20
128.21411502416589
 30
0.0
 40
5.25
  0
LINE
  5
B6F
  8
0
 10
185.28669235929431
 20
71.714115024165949
 30
0.0
 11
185.28669235929431
 21
77.874694924093717
 31
0.0
  0
LINE
  5
B70
  8
0
 10
176.28669235929431
 20
71.714115024165949
 30
0.0
 11
176.28669235929431
 21
77.874694924093717
 31
0.0
  0
ARC
  5
B71
  8
0
 10
180.78669235929431
 20
71.714115024165949
 30
0.0
 40
4.5
 50
180.0
 51
0.0
  0
LINE
  5
B72
  8
0
 10
163.28669235929431
 20
160.21411502416589
 30
0.0
 11
163.28669235929431
 21
72.214115024165949
 31
0.0
  0
CIRCLE
  5
B73
  8
0
 10
180.78669235929431
 20
148.21411502416589
 30
0.0
 40
5.25
  0
ARC
  5
B74
  8
0
 10
195.28669235929431
 20
160.21411502416589
 30
0.0
 40
3.0
 50
0.0
 51
90.0
  0
LINE
  5
B75
  8
0
 10
27.142959488398279
 20
36.714115024165949
 30
0.0
 11
28.142959488398269
 21
36.714115024165949
 31
0.0
  0
LINE
  5
B76
  8
0
 10
27.142959488398279
 20
30.214115024165949
 30
0.0
 11
21.142959488398279
 21
30.214115024165949
 31
0.0
  0
ARC
  5
B77
  8
0
 10
204.28669235929431
 20
48.214115024165942
 30
0.0
 40
4.5
 50
90.0
 51
270.0
  0
LINE
  5
B78
  8
0
 10
204.28669235929431
 20
52.714115024165949
 30
0.0
 11
210.4472722592221
 21
52.714115024165949
 31
0.0
  0
LINE
  5
B79
  8
0
 10
204.28669235929431
 20
43.714115024165942
 30
0.0
 11
210.4472722592221
 21
43.714115024165942
 31
0.0
  0
POLYLINE
  5
B7A
  8
0
 66
     1
 10
0.0
 20
0.0
 30
0.0
 70
     1
  0
VERTEX
  5
D03
  8
0
 10
172.78669235929431
 20
43.595312870648961
 30
0.0
  0
VERTEX
  5
D04
  8
0
 10
180.78669235929431
 20
38.97651071713193
 30
0.0
  0
VERTEX
  5
D05
  8
0
 10
188.78669235929431
 20
43.595312870648961
 30
0.0
  0
VERTEX
  5
D06
  8
0
 10
188.78669235929431
 20
52.832917177682923
 30
0.0
  0
VERTEX
  5
D07
  8
0
 10
180.78669235929431
 20
57.451719331199968
 30
0.0
  0
VERTEX
  5
D08
  8
0
 10
172.78669235929431
 20
52.832917177682923
 30
0.0
  0
SEQEND
  5
D09
  8
0
  0
CIRCLE
  5
B7B
  8
0
 10
180.78669235929431
 20
48.214115024165942
 30
0.0
 40
8.0
  0
LINE
  5
B7C
  8
0
 10
185.28669235929431
 20
24.714115024165949
 30
0.0
 11
185.28669235929431
 21
18.553535124238181
 31
0.0
  0
LINE
  5
B7D
  8
0
 10
176.28669235929431
 20
24.714115024165949
 30
0.0
 11
176.28669235929431
 21
18.553535124238181
 31
0.0
  0
ARC
  5
B7E
  8
0
 10
180.78669235929431
 20
24.714115024165949
 30
0.0
 40
4.5
 50
0.0
 51
180.0
  0
ARC
  5
B7F
  8
0
 10
157.28669235929431
 20
48.214115024165942
 30
0.0
 40
4.5
 50
270.0
 51
90.0
  0
LINE
  5
B80
  8
0
 10
157.28669235929431
 20
43.714115024165942
 30
0.0
 11
151.12611245936651
 21
43.714115024165942
 31
0.0
  0
LINE
  5
B81
  8
0
 10
157.28669235929431
 20
52.714115024165949
 30
0.0
 11
151.12611245936651
 21
52.714115024165949
 31
0.0
  0
ARC
  5
B82
  8
0
 10
180.78669235929431
 20
48.214115024165942
 30
0.0
 40
30.0
 50
188.62692655868051
 51
261.37307344132267
  0
ARC
  5
B83
  8
0
 10
180.78669235929431
 20
48.214115024165942
 30
0.0
 40
30.0
 50
278.62692655867733
 51
351.37307344131938
  0
LINE
  5
B84
  8
1
 10
148.91901007395779
 20
48.214115024165942
 30
0.0
 11
212.7328382469085
 21
48.214115024165942
 31
0.0
  0
ARC
  5
B85
  8
0
 10
180.78669235929431
 20
48.214115024165942
 30
0.0
 40
30.0
 50
8.6269265586805837
 51
81.373073441322674
  0
LINE
  5
B86
  8
1
 10
180.78669235929431
 20
14.35538612444418
 30
0.0
 11
180.78669235929431
 21
166.6736119252663
 31
0.0
  0
CIRCLE
  5
B87
  8
0
 10
180.78669235929431
 20
48.214115024165942
 30
0.0
 40
17.5
  0
LINE
  5
B88
  8
0
 10
28.142959488398269
 20
66.214115024165949
 30
0.0
 11
28.142959488398269
 21
30.214115024165949
 31
0.0
1001
ACAD
1000
ASC_BOUNDS
1002
{
1070
    19
1005
0
1002
}
  0
LINE
  5
B89
  8
0
 10
21.142959488398279
 20
163.21411502416589
 30
0.0
 11
21.142959488398279
 21
30.214115024165949
 31
0.0
1001
ACAD
1000
ASC_BOUNDS
1002
{
1070
    19
1002
}
  0
LINE
  5
B8A
  8
0
 10
27.142959488398279
 20
163.21411502416589
 30
0.0
 11
27.142959488398279
 21
30.214115024165949
 31
0.0
1001
ACAD
1000
ASC_BOUNDS
1002
{
1070
    19
1002
}
  0
ARC
  5
B8B
  8
0
 10
180.78669235929431
 20
48.214115024165942
 30
0.0
 40
30.0
 50
98.626926558677326
 51
171.37307344131941
  0
LINE
  5
B8C
  8
1
 10
15.541537209837649
 20
48.214115024165942
 30
0.0
 11
116.8751250585363
 21
48.214115024165942
 31
0.0
  0
LINE
  5
B8D
  8
0
 10
28.142959488398269
 20
30.214115024165949
 30
0.0
 11
86.160198305649146
 21
29.21381780317887
 31
0.0
1001
ACAD
1000
ASC_BOUNDS
1002
{
1070
    19
1002
}
  0
LINE
  5
B8E
  8
0
 10
28.142959488398269
 20
66.214115024165949
 30
0.0
 11
86.160198305649033
 21
67.214412245153014
 31
0.0
1001
ACAD
1000
ASC_BOUNDS
1002
{
1070
    19
1002
}
  0
TEXT
  5
C9F
  8
0
 62
     3
 10
0.0
 20
0.0
 30
0.0
 40
10.0
  1
TC-RE30
  7
STANDARD1
  0
VIEWPORT
  5
22
 67
     1
  8
0
 10
261.51769911504419
 20
148.5
 30
0.0
 40
523.0353982300885
 41
297.0
 68
     1
 69
     1
1001
ACAD
1000
MVIEW
1002
{
1070
    16
1010
0.0
1020
0.0
1030
0.0
1010
0.0
1020
0.0
1030
1.0
1040
0.0
1040
297.0
1040
261.51769911504419
1040
148.5
1040
50.0
1040
0.0
1040
0.0
1070
     0
1070
   100
1070
     1
1070
     1
1070
     0
1070
     0
1070
     0
1070
     0
1040
0.0
1040
0.0
1040
0.0
1040
1.0
1040
1.0
1040
10.0
1040
10.0
1070
     0
1002
{
1002
}
1002
}
  0
ENDSEC
  0
EOF
