  0
SECTION
  2
HEADER
  9
$ACADVER
  1
AC1009
  9
$INSBASE
 10
0.0
 20
0.0
 30
0.0
  9
$EXTMIN
 10
0.0
 20
-2.960436562073669
 30
0.0
  9
$EXTMAX
 10
500.11736041024091
 20
357.7518852587686
 30
0.0
  9
$LIMMIN
 10
0.0
 20
0.0
  9
$LIMMAX
 10
420.0
 20
297.0
  9
$ORTHOMODE
 70
     1
  9
$REGENMODE
 70
     1
  9
$FILLMODE
 70
     1
  9
$QTEXTMODE
 70
     0
  9
$MIRRTEXT
 70
     0
  9
$DRAGMODE
 70
     2
  9
$LTSCALE
 40
10.0
  9
$OSMODE
 70
    55
  9
$ATTMODE
 70
     1
  9
$TEXTSIZE
 40
2.5
  9
$TRACEWID
 40
1.0
  9
$TEXTSTYLE
  7
STANDARD
  9
$CLAYER
  8
0
  9
$CELTYPE
  6
BYLAYER
  9
$CECOLOR
 62
   256
  9
$DIMSCALE
 40
1.0
  9
$DIMASZ
 40
2.5
  9
$DIMEXO
 40
0.625
  9
$DIMDLI
 40
3.75
  9
$DIMRND
 40
0.0
  9
$DIMDLE
 40
0.0
  9
$DIMEXE
 40
1.25
  9
$DIMTP
 40
0.0
  9
$DIMTM
 40
0.0
  9
$DIMTXT
 40
2.5
  9
$DIMCEN
 40
2.5
  9
$DIMTSZ
 40
0.0
  9
$DIMTOL
 70
     0
  9
$DIMLIM
 70
     0
  9
$DIMTIH
 70
     0
  9
$DIMTOH
 70
     0
  9
$DIMSE1
 70
     0
  9
$DIMSE2
 70
     0
  9
$DIMTAD
 70
     1
  9
$DIMZIN
 70
     8
  9
$DIMBLK
  1

  9
$DIMASO
 70
     1
  9
$DIMSHO
 70
     1
  9
$DIMPOST
  1

  9
$DIMAPOST
  1

  9
$DIMALT
 70
     0
  9
$DIMALTD
 70
     3
  9
$DIMALTF
 40
0.03937007874016
  9
$DIMLFAC
 40
1.0
  9
$DIMTOFL
 70
     1
  9
$DIMTVP
 40
0.0
  9
$DIMTIX
 70
     0
  9
$DIMSOXD
 70
     0
  9
$DIMSAH
 70
     0
  9
$DIMBLK1
  1

  9
$DIMBLK2
  1

  9
$DIMSTYLE
  2
ISO-25
  9
$DIMCLRD
 70
     0
  9
$DIMCLRE
 70
     0
  9
$DIMCLRT
 70
     0
  9
$DIMTFAC
 40
1.0
  9
$DIMGAP
 40
0.625
  9
$LUNITS
 70
     2
  9
$LUPREC
 70
     4
  9
$SKETCHINC
 40
1.0
  9
$FILLETRAD
 40
0.0
  9
$AUNITS
 70
     0
  9
$AUPREC
 70
     3
  9
$MENU
  1
.
  9
$ELEVATION
 40
0.0
  9
$PELEVATION
 40
0.0
  9
$THICKNESS
 40
0.0
  9
$LIMCHECK
 70
     0
  9
$BLIPMODE
 70
     0
  9
$CHAMFERA
 40
0.0
  9
$CHAMFERB
 40
0.0
  9
$SKPOLY
 70
     0
  9
$TDCREATE
 40
2454083.4444627082
  9
$TDUPDATE
 40
2456598.429606678
  9
$TDINDWG
 40
2.4194753124999999
  9
$TDUSRTIMER
 40
2.4194753124999999
  9
$USRTIMER
 70
     1
  9
$ANGBASE
 50
0.0
  9
$ANGDIR
 70
     0
  9
$PDMODE
 70
     0
  9
$PDSIZE
 40
0.0
  9
$PLINEWID
 40
0.0
  9
$COORDS
 70
     1
  9
$SPLFRAME
 70
     0
  9
$SPLINETYPE
 70
     6
  9
$SPLINESEGS
 70
     8
  9
$ATTDIA
 70
     0
  9
$ATTREQ
 70
     1
  9
$HANDLING
 70
     1
  9
$HANDSEED
  5
16624
  9
$SURFTAB1
 70
     6
  9
$SURFTAB2
 70
     6
  9
$SURFTYPE
 70
     6
  9
$SURFU
 70
     6
  9
$SURFV
 70
     6
  9
$UCSNAME
  2

  9
$UCSORG
 10
0.0
 20
0.0
 30
0.0
  9
$UCSXDIR
 10
1.0
 20
0.0
 30
0.0
  9
$UCSYDIR
 10
0.0
 20
1.0
 30
0.0
  9
$PUCSNAME
  2

  9
$PUCSORG
 10
0.0
 20
0.0
 30
0.0
  9
$PUCSXDIR
 10
1.0
 20
0.0
 30
0.0
  9
$PUCSYDIR
 10
0.0
 20
1.0
 30
0.0
  9
$USERI1
 70
     0
  9
$USERI2
 70
     0
  9
$USERI3
 70
     0
  9
$USERI4
 70
     0
  9
$USERI5
 70
     0
  9
$USERR1
 40
0.0
  9
$USERR2
 40
0.0
  9
$USERR3
 40
0.0
  9
$USERR4
 40
0.0
  9
$USERR5
 40
0.0
  9
$WORLDVIEW
 70
     1
  9
$SHADEDGE
 70
     3
  9
$SHADEDIF
 70
    70
  9
$TILEMODE
 70
     1
  9
$MAXACTVP
 70
    64
  9
$PLIMCHECK
 70
     0
  9
$PEXTMIN
 10
0.0
 20
0.0
 30
0.0
  9
$PEXTMAX
 10
0.0
 20
0.0
 30
0.0
  9
$PLIMMIN
 10
0.0
 20
0.0
  9
$PLIMMAX
 10
12.0
 20
9.0
  9
$UNITMODE
 70
     0
  9
$VISRETAIN
 70
     1
  9
$PLINEGEN
 70
     0
  9
$PSLTSCALE
 70
     1
  0
ENDSEC
  0
SECTION
  2
TABLES
  0
TABLE
  2
VPORT
 70
     1
  0
VPORT
  2
*ACTIVE
 70
     0
 10
0.0
 20
0.0
 11
1.0
 21
1.0
 12
250.058681369547
 22
261.3763880390585
 13
0.0
 23
0.0
 14
10.0
 24
10.0
 15
10.0
 25
10.0
 16
0.0
 26
0.0
 36
1.0
 17
0.0
 27
0.0
 37
0.0
 40
533.38037457483745
 41
1.7807262569832401
 42
50.0
 43
0.0
 44
0.0
 50
0.0
 51
0.0
 71
     0
 72
  1000
 73
     1
 74
     3
 75
     0
 76
     0
 77
     0
 78
     0
  0
ENDTAB
  0
TABLE
  2
LTYPE
 70
     2
  0
LTYPE
  2
CONTINUOUS
 70
     0
  3
Solid line
 72
    65
 73
     0
 40
0.0
  0
LTYPE
  2
CENTER
 70
     0
  3
____ _ ____ _ ____ _ ____ _ ____ _ ____ _ ____
 72
    65
 73
     4
 40
2.0
 49
1.25
 49
-0.25
 49
0.25
 49
-0.25
  0
ENDTAB
  0
TABLE
  2
LAYER
 70
     4
  0
LAYER
  2
0
 70
     0
 62
     7
  6
CONTINUOUS
  0
LAYER
  2
DEFPOINTS
 70
     0
 62
     7
  6
CONTINUOUS
  0
LAYER
  2
1
 70
     0
 62
     1
  6
CENTER
  0
LAYER
  2
3
 70
     0
 62
     3
  6
CONTINUOUS
  0
ENDTAB
  0
TABLE
  2
STYLE
 70
     2
  0
STYLE
  2
STANDARD
 70
     0
 40
0.0
 41
1.0
 50
0.0
 71
     0
 42
2.5
  3
txt
  4

  0
STYLE
  2
STANDARD1
 70
     0
 40
0.0
 41
1.0
 50
0.0
 71
     0
 42
3.0
  3
txt
  4

  0
ENDTAB
  0
TABLE
  2
VIEW
 70
     3
  0
VIEW
  2
OLE1
 70
     0
 40
17.336203194614189
 10
1078.262703908531
 20
377.67444865954309
 41
31.074911629702001
 11
0.0
 21
0.0
 31
1.0
 12
0.0
 22
0.0
 32
0.0
 42
50.0
 43
0.0
 44
0.0
 50
0.0
 71
     0
  0
VIEW
  2
OLE2
 70
     0
 40
50.523198253338478
 10
1031.767738941523
 20
579.92835671582054
 41
90.562155008667546
 11
0.0
 21
0.0
 31
1.0
 12
0.0
 22
0.0
 32
0.0
 42
50.0
 43
0.0
 44
0.0
 50
0.0
 71
     0
  0
VIEW
  2
OLE3
 70
     0
 40
35.589889721753437
 10
-318.7405075261633
 20
633.39935929066291
 41
42.694205520337619
 11
0.0
 21
0.0
 31
1.0
 12
0.0
 22
0.0
 32
0.0
 42
50.0
 43
0.0
 44
0.0
 50
0.0
 71
     0
  0
ENDTAB
  0
TABLE
  2
UCS
 70
     0
  0
ENDTAB
  0
TABLE
  2
APPID
 70
    42
  0
APPID
  2
ACAD
 70
     0
  0
APPID
  2
_FTCNV
 70
     0
  0
APPID
  2
DCO15
 70
     0
  0
APPID
  2
GENIUS_GENOREF_13
 70
     0
  0
APPID
  2
GENIUS_GENOENT_13
 70
     0
  0
APPID
  2
GENIUS_GENBH_13
 70
     0
  0
APPID
  2
GENIUS_GENOBJ_13
 70
     0
  0
APPID
  2
GENIUS_GENODEF_13
 70
     0
  0
APPID
  2
GENIUS_GENOLIS_13
 70
     0
  0
APPID
  2
GENIUS_GENOBJ-NBEHI-BHF_13
 70
     0
  0
APPID
  2
GENIUS_GENOBJ-NBEHI-BHB_13
 70
     0
  0
APPID
  2
GENIUS_GENOBJ-F-PART_13
 70
     0
  0
APPID
  2
GENIUS_GEFSTDP_13
 70
     0
  0
APPID
  2
GENIUS_GENOBJ-N-RSSYM_13
 70
     0
  0
APPID
  2
GENIUS_GENSYMENT_13
 70
     0
  0
APPID
  2
GENIUS_GENOBJ-N-TIT_13
 70
     0
  0
APPID
  2
GENIUS_GENTITLE_13
 70
     0
  0
APPID
  2
GENIUS_GENZVEED_13
 70
     0
  0
APPID
  2
GENIUS_GENOBJ-N-LEADER_13
 70
     0
  0
APPID
  2
GENIUS_GENOBJ-N-FIL_13
 70
     0
  0
APPID
  2
GENIUS_GENOBJ-N-SEC_13
 70
     0
  0
APPID
  2
GENIUS_GENOBJ-N-CRS_13
 70
     0
  0
APPID
  2
GENIUS_GENOBJ-N-ZOO_13
 70
     0
  0
APPID
  2
GENIUS_GENZOO_13
 70
     0
  0
APPID
  2
GENIUS_GENOBJ-F-TOL_13
 70
     0
  0
APPID
  2
GENIUS_GENFIL_13
 70
     0
  0
APPID
  2
GENIUS_GENOBJ-N-CHA_13
 70
     0
  0
APPID
  2
_CALL_MAC$
 70
     0
  0
APPID
  2
ASM_BASE
 70
     0
  0
APPID
  2
ASM_EXPLO_VER_2_00
 70
     0
  0
APPID
  2
ASM_CADM_VER_12_00
 70
     0
  0
APPID
  2
ASM_BASEFORO
 70
     0
  0
APPID
  2
ASM_BASETRAVI
 70
     0
  0
APPID
  2
ASM_BASETRAVI1
 70
     0
  0
APPID
  2
ASM_GRUPPI
 70
     0
  0
APPID
  2
ASM_CADM_ALBERO
 70
     0
  0
APPID
  2
ASM_GOLE
 70
     0
  0
APPID
  2
ACAD_MLEADERVER
 70
     0
  0
APPID
  2
ACAD_EXEMPT_FROM_CAD_STANDARDS
 70
     0
  0
APPID
  2
ACAD_DSTYLE_DIMJAG
 70
     0
  0
APPID
  2
ACAD_DSTYLE_DIMTALN
 70
     0
  0
APPID
  2
ACAD_NAV_VCDISPLAY
 70
     0
  0
ENDTAB
  0
TABLE
  2
DIMSTYLE
 70
     2
  0
DIMSTYLE
  2
ISO-25
 70
     0
  3

  4

  5

  6

  7

 40
1.0
 41
2.5
 42
0.625
 43
3.75
 44
1.25
 45
0.0
 46
0.0
 47
0.0
 48
0.0
140
2.5
141
2.5
142
0.0
143
0.03937007874016
144
1.0
145
0.0
146
1.0
147
0.625
 71
     0
 72
     0
 73
     0
 74
     0
 75
     0
 76
     0
 77
     1
 78
     8
170
     0
171
     3
172
     1
173
     0
174
     0
175
     0
176
     0
177
     0
178
     0
  0
DIMSTYLE
  2
STANDARD
 70
     0
  3

  4

  5

  6

  7

 40
1.0
 41
0.18
 42
0.0625
 43
0.38
 44
0.18
 45
0.0
 46
0.0
 47
0.0
 48
0.0
140
0.18
141
0.09
142
0.0
143
25.399999999999999
144
1.0
145
0.0
146
1.0
147
0.09
 71
     0
 72
     0
 73
     1
 74
     1
 75
     0
 76
     0
 77
     0
 78
     0
170
     0
171
     2
172
     0
173
     0
174
     0
175
     0
176
     0
177
     0
178
     0
  0
ENDTAB
  0
ENDSEC
  0
SECTION
  2
BLOCKS
  0
BLOCK
  8
0
  2
$MODEL_SPACE
 70
     0
 10
0.0
 20
0.0
 30
0.0
  3
$MODEL_SPACE
  1

  0
ENDBLK
  5
21
  8
0
  0
BLOCK
 67
     1
  8
0
  2
$PAPER_SPACE
 70
     0
 10
0.0
 20
0.0
 30
0.0
  3
$PAPER_SPACE
  1

  0
ENDBLK
  5
53
 67
     1
  8
0
  0
ENDSEC
  0
SECTION
  2
ENTITIES
  0
LINE
  5
151CD
  8
0
 10
258.4073604102407
 20
332.55826138467432
 30
0.0
 11
258.4073604102407
 21
332.45826138462468
 31
0.0
  0
LINE
  5
151CE
  8
0
 10
236.69736041024069
 20
332.45826138462468
 30
0.0
 11
236.69736041024069
 21
330.0082613846248
 31
0.0
  0
LINE
  5
151CF
  8
0
 10
236.69736041024069
 20
344.10826138462483
 30
0.0
 11
236.69736041024069
 21
341.65826138462478
 31
0.0
  0
ARC
  5
151E1
  8
0
 10
339.3973604102419
 20
393.03902349816269
 30
0.0
 40
75.980762113537935
 50
254.73851957513989
 51
270.0
  0
ARC
  5
151E2
  8
0
 10
339.39736041024008
 20
281.07749927109342
 30
0.0
 40
75.980762113531284
 50
90.0
 51
105.26148042486
  0
ARC
  5
151E4
  8
0
 10
339.39736041024048
 20
393.03902349816468
 30
0.0
 40
75.980762113540038
 50
270.0
 51
285.26148042486011
  0
ARC
  5
151E5
  8
0
 10
339.39736041023991
 20
281.07749927108853
 30
0.0
 40
75.980762113536272
 50
74.738519575139961
 51
90.0
  0
ARC
  5
151E7
  8
0
 10
329.15644876840418
 20
316.55932255476438
 30
0.0
 40
39.058294507365467
 50
104.46920194733551
 51
128.6609004068207
  0
ARC
  5
151E8
  8
0
 10
329.1564487684052
 20
357.55720021448673
 30
0.0
 40
39.058294507367272
 50
231.3390995931793
 51
255.53079805266449
  0
ARC
  5
151E9
  8
0
 10
349.63997775232519
 20
316.5627339552604
 30
0.0
 40
39.054565132035961
 50
51.33792706984255
 51
75.531970576002891
  0
ARC
  5
151EB
  8
0
 10
349.63997775232622
 20
357.5537888139873
 30
0.0
 40
39.054565132034178
 50
284.46802942400018
 51
308.66207293015742
  0
ARC
  5
151EC
  8
0
 10
291.80257098476773
 20
337.05826138462459
 30
0.0
 40
7.9298328610589817
 50
348.68351038403
 51
11.316489615973779
  0
ARC
  5
151ED
  8
0
 10
312.85442532579032
 20
336.28257742588528
 30
0.0
 40
13.479402128624249
 50
126.9253872454602
 51
170.0385481893932
  0
ARC
  5
151EE
  8
0
 10
312.85442532579037
 20
337.83394534336429
 30
0.0
 40
13.479402128624301
 50
189.96145181060669
 51
233.0746127545398
  0
ARC
  5
151EF
  8
0
 10
366.69692824015721
 20
336.68805569211412
 30
0.0
 40
12.705826598913969
 50
1.6696454900920881
 51
54.703925373934453
  0
ARC
  5
151F0
  8
0
 10
366.69692824015698
 20
337.42846707713551
 30
0.0
 40
12.705826598914051
 50
305.2960746260656
 51
358.33035450989809
  0
ARC
  5
151F1
  8
0
 10
338.4981971978616
 20
316.86356799104431
 30
0.0
 40
0.200000000000013
 50
12.217524932819771
 51
89.323720950163377
  0
ARC
  5
151F2
  8
0
 10
340.29652362261947
 20
316.86356799104431
 30
0.0
 40
0.2000000000000083
 50
90.676279049722623
 51
167.78247503760531
  0
ARC
  5
151F3
  8
0
 10
339.39736041024082
 20
317.05826138462481
 30
0.0
 40
0.720000000000028
 50
192.21748802554731
 51
347.78251198266008
  0
ARC
  5
151F4
  8
0
 10
340.29652362261947
 20
357.25295477820521
 30
0.0
 40
0.2000000000000096
 50
192.21746719450999
 51
269.32372095024482
  0
ARC
  5
151F5
  8
0
 10
338.4981971978616
 20
357.25295477820521
 30
0.0
 40
0.200000000000013
 50
270.67627904983658
 51
347.78247503762179
  0
ARC
  5
151F6
  8
0
 10
339.39736041024082
 20
357.05826138462493
 30
0.0
 40
0.7200000000000213
 50
12.2175040639769
 51
167.78251198266321
  0
ARC
  5
151F7
  8
0
 10
333.50479253562003
 20
317.08649779925429
 30
0.0
 40
0.2000000000103378
 50
8.4575550301547064
 51
85.563944028632449
  0
ARC
  5
151F8
  8
0
 10
335.29924811177102
 20
316.96856936655792
 30
0.0
 40
0.200000000000049
 50
86.916299577886363
 51
164.02256299289411
  0
ARC
  5
151F9
  8
0
 10
334.41478768698107
 20
317.22180790426557
 30
0.0
 40
0.7199999999999652
 50
188.45751786192031
 51
344.02252574708672
  0
ARC
  5
151FA
  8
0
 10
345.28992828486162
 20
357.03002496999522
 30
0.0
 40
0.2000000000102791
 50
188.4575012575753
 51
265.56394402855079
  0
ARC
  5
151FB
  8
0
 10
343.49547270871011
 20
357.1479534026916
 30
0.0
 40
0.2000000000002855
 50
266.91629957788638
 51
344.02256495846382
  0
ARC
  5
151FC
  8
0
 10
344.37993313350069
 20
356.894714864984
 30
0.0
 40
0.7200000000003631
 50
8.4575327987559454
 51
164.02252520110571
  0
ARC
  5
151FD
  8
0
 10
343.49547270870107
 20
316.96856936655161
 30
0.0
 40
0.2000000000107081
 50
15.97749527864314
 51
93.083884242878497
  0
ARC
  5
151FE
  8
0
 10
345.28992828485161
 20
317.08649779925952
 30
0.0
 40
0.2000000000000001
 50
94.436249156972124
 51
171.5424449484623
  0
ARC
  5
151FF
  8
0
 10
344.37993313350069
 20
317.22180790426557
 30
0.0
 40
0.7200000000003304
 50
195.9774580666415
 51
351.54248214431249
  0
ARC
  5
15200
  8
0
 10
335.29924811177989
 20
357.14795340269791
 30
0.0
 40
0.2000000000102793
 50
195.97749583792739
 51
273.08388424287853
  0
ARC
  5
15201
  8
0
 10
333.5047925356298
 20
357.03002496999
 30
0.0
 40
0.1999999999999729
 50
274.43624915697211
 51
351.54244594362677
  0
ARC
  5
15202
  8
0
 10
334.41478768698107
 20
356.894714864984
 30
0.0
 40
0.7200000000000266
 50
15.977457911308569
 51
171.54248186787461
  0
ARC
  5
15203
  8
0
 10
350.29712108195372
 20
356.47447357045019
 30
0.0
 40
0.2000000000000636
 50
184.6677743614085
 51
261.77402688433818
  0
ARC
  5
15204
  8
0
 10
348.51438384572549
 20
356.71074857241098
 30
0.0
 40
0.2000000000002794
 50
263.12657561920781
 51
340.23280988538181
  0
ARC
  5
15205
  8
0
 10
349.38017246828599
 20
356.39960542039591
 30
0.0
 40
0.7200000000002534
 50
4.6678096557292692
 51
160.23280988532301
  0
ARC
  5
15206
  8
0
 10
328.49759973852821
 20
317.6420491987995
 30
0.0
 40
0.2000000000000555
 50
4.6677727755973528
 51
81.774026884354811
  0
ARC
  5
15207
  8
0
 10
330.28033697475558
 20
317.40577419683848
 30
0.0
 40
0.2000000000000073
 50
83.126575619207813
 51
160.23280988531579
  0
ARC
  5
15208
  8
0
 10
329.41454835219588
 20
317.7169173488536
 30
0.0
 40
0.7200000000000451
 50
184.66781009623159
 51
340.2328098853157
  0
ARC
  5
15209
  8
0
 10
348.51438384571759
 20
317.40577419683137
 30
0.0
 40
0.2000000000104477
 50
19.767190959051071
 51
96.873221827769726
  0
ARC
  5
1520A
  8
0
 10
350.29712108195372
 20
317.6420491987995
 30
0.0
 40
0.1999999999999999
 50
98.225973115763551
 51
175.33216882899589
  0
ARC
  5
1520B
  8
0
 10
349.38017246828599
 20
317.7169173488536
 30
0.0
 40
0.7200000000000307
 50
199.7671898804318
 51
355.33220612471501
  0
ARC
  5
1520C
  8
0
 10
330.28033697476428
 20
356.71074857241808
 30
0.0
 40
0.2000000000104171
 50
199.76718927159371
 51
276.87322182772732
  0
ARC
  5
1520D
  8
0
 10
328.49759973852798
 20
356.47447357045019
 30
0.0
 40
0.1999999999999992
 50
278.2259731156484
 51
355.33217035152779
  0
ARC
  5
1520E
  8
0
 10
329.41454835219588
 20
356.39960542039591
 30
0.0
 40
0.7200000000000723
 50
19.76719034916416
 51
175.3322057017896
  0
LINE
  5
1521C
  8
0
 10
236.69736041024069
 20
341.65826138462478
 30
0.0
 11
300.49334512538269
 21
341.65826138462478
 31
0.0
  0
LINE
  5
15223
  8
0
 10
261.89736041024071
 20
332.45826138462468
 30
0.0
 11
261.89736041024071
 21
341.65826138462478
 31
0.0
  0
LINE
  5
15225
  8
0
 10
266.89736041024071
 20
341.65826138462478
 30
0.0
 11
266.89736041024071
 21
332.45826138462468
 31
0.0
  0
LINE
  5
15235
  8
0
 10
261.89736041024071
 20
339.55826138462351
 30
0.0
 11
256.09016434820199
 21
339.55826138462351
 31
0.0
  0
LINE
  5
1523B
  8
0
 10
261.89736041024071
 20
334.55826138462697
 30
0.0
 11
256.09016434820199
 21
334.55826138462697
 31
0.0
  0
LINE
  5
15241
  8
0
 10
259.0409586948993
 20
332.55826138467432
 30
0.0
 11
259.04001148257788
 21
332.55826138467432
 31
0.0
  0
LINE
  5
15243
  8
0
 10
261.89736041024071
 20
332.55826138467438
 30
0.0
 11
255.5382758199018
 21
332.55826138467421
 31
0.0
  0
LINE
  5
15246
  8
0
 10
35.85736041024029
 20
219.31733516902401
 30
0.0
 11
35.857360410240346
 21
208.06628523078089
 31
0.0
  0
LINE
  5
15247
  8
0
 10
35.85736041024029
 20
237.05828398968509
 30
0.0
 11
35.85736041024029
 21
226.81733516902401
 31
0.0
  0
LINE
  5
15248
  8
0
 10
75.85736041024029
 20
226.8173351690242
 30
0.0
 11
75.85736041024029
 21
237.05828398968501
 31
0.0
  0
LINE
  5
15249
  8
0
 10
75.857360410240346
 20
208.06628523078101
 30
0.0
 11
75.85736041024029
 21
219.31733516902409
 31
0.0
  0
LINE
  5
1524A
  8
0
 10
75.85736041024029
 20
237.0582839896849
 30
0.0
 11
35.85736041024029
 21
237.05828398968501
 31
0.0
  0
LINE
  5
1524B
  8
0
 10
35.857360410240346
 20
208.06628523078101
 30
0.0
 11
45.357360410241078
 21
208.06628523078089
 31
0.0
  0
LINE
  5
1524C
  8
0
 10
66.357360410241085
 20
208.06628523078101
 30
0.0
 11
75.857360410240346
 21
208.06628523078101
 31
0.0
  0
LINE
  5
1524D
  8
0
 10
35.796016374469112
 20
226.81733516902401
 30
0.0
 11
35.796016374469161
 21
219.31733516902409
 31
0.0
  0
LINE
  5
1524E
  8
0
 10
75.918704446011532
 20
219.31733516902409
 30
0.0
 11
75.918704446011475
 21
226.8173351690242
 31
0.0
  0
LINE
  5
1524F
  8
0
 10
76.413813890599386
 20
219.31733516902409
 30
0.0
 11
76.413813890599386
 21
226.8173351690242
 31
0.0
  0
LINE
  5
15250
  8
0
 10
35.300906929881201
 20
226.81733516902401
 30
0.0
 11
35.300906929881251
 21
219.31733516902409
 31
0.0
  0
LINE
  5
15251
  8
0
 10
35.137360410240269
 20
226.81733516902401
 30
0.0
 11
35.137360410240319
 21
219.31733516902401
 31
0.0
  0
LINE
  5
15252
  8
0
 10
76.577360410240317
 20
219.31733516902409
 30
0.0
 11
76.577360410240317
 21
226.8173351690242
 31
0.0
  0
LINE
  5
1525C
  8
0
 10
60.457360410240597
 20
228.4673351690241
 30
0.0
 11
58.407360410240763
 21
228.4673351690241
 31
0.0
  0
LINE
  5
15267
  8
0
 10
51.257360410240608
 20
232.4673351690241
 30
0.0
 11
48.807360410240562
 21
232.4673351690241
 31
0.0
  0
LINE
  5
15268
  8
0
 10
62.907360410240578
 20
232.4673351690241
 30
0.0
 11
60.457360410240597
 21
232.4673351690241
 31
0.0
  0
POLYLINE
  5
15280
  8
0
 66
     1
 10
0.0
 20
0.0
 30
0.0
 70
   128
  0
VERTEX
  5
16153
  8
0
 10
45.857360410240631
 20
230.8123351690239
 30
0.0
  0
VERTEX
  5
16154
  8
0
 10
47.133581554314333
 20
230.1325085243634
 30
0.0
  0
VERTEX
  5
16155
  8
0
 10
48.198585183694142
 20
229.46733516902401
 30
0.0
  0
SEQEND
  5
16156
  8
0
  0
POLYLINE
  5
15283
  8
0
 66
     1
 10
0.0
 20
0.0
 30
0.0
 70
   128
  0
VERTEX
  5
16157
  8
0
 10
65.857360410239664
 20
230.8123351690237
 30
0.0
  0
VERTEX
  5
16158
  8
0
 10
64.581139266165906
 20
230.1325085243632
 30
0.0
  0
VERTEX
  5
16159
  8
0
 10
63.516135636786601
 20
229.4673351690241
 30
0.0
  0
SEQEND
  5
1615A
  8
0
  0
ARC
  5
1528D
  8
0
 10
97.582801113278492
 20
247.3160336668258
 30
0.0
 40
44.355641088362141
 50
225.25288054041951
 51
236.61855522504769
  0
POLYLINE
  5
1528E
  8
0
 66
     1
 10
0.0
 20
0.0
 30
0.0
 70
   128
  0
VERTEX
  5
1615B
  8
0
 10
73.177868485929366
 20
235.38399246229201
 30
0.0
  0
VERTEX
  5
1615C
  8
0
 10
72.306422085962936
 20
234.8539501255101
 30
0.0
  0
VERTEX
  5
1615D
  8
0
 10
71.224278240589797
 20
234.1752198144689
 30
0.0
  0
VERTEX
  5
1615E
  8
0
 10
69.900712827046959
 20
233.336420808518
 30
0.0
  0
VERTEX
  5
1615F
  8
0
 10
68.383270140301761
 20
232.37802309771209
 30
0.0
  0
VERTEX
  5
16160
  8
0
 10
67.167198038902711
 20
231.61838412310911
 30
0.0
  0
VERTEX
  5
16161
  8
0
 10
65.857360410239721
 20
230.8123351690237
 30
0.0
  0
SEQEND
  5
16162
  8
0
  0
POLYLINE
  5
15290
  8
0
 66
     1
 10
0.0
 20
0.0
 30
0.0
 70
   128
  0
VERTEX
  5
16163
  8
0
 10
38.536852334551611
 20
235.3839924622917
 30
0.0
  0
VERTEX
  5
16164
  8
0
 10
39.408298734518098
 20
234.85395012550981
 30
0.0
  0
VERTEX
  5
16165
  8
0
 10
40.490442579891287
 20
234.17521981446851
 30
0.0
  0
VERTEX
  5
16166
  8
0
 10
41.814007993434238
 20
233.33642080851769
 30
0.0
  0
VERTEX
  5
16167
  8
0
 10
43.331450680179501
 20
232.37802309771169
 30
0.0
  0
VERTEX
  5
16168
  8
0
 10
44.547522781578152
 20
231.618384123109
 30
0.0
  0
VERTEX
  5
16169
  8
0
 10
45.857360410240631
 20
230.8123351690239
 30
0.0
  0
SEQEND
  5
1616A
  8
0
  0
ARC
  5
15291
  8
0
 10
14.13191970720578
 20
247.3160336668208
 30
0.0
 40
44.355641088356244
 50
303.3814447749524
 51
314.7471194595829
  0
LINE
  5
1529F
  8
0
 10
36.639090519051031
 20
226.81733516902401
 30
0.0
 11
36.639090519051031
 21
219.31733516902401
 31
0.0
  0
ARC
  5
152A0
  8
0
 10
4.2598605518483046
 20
249.07062584191891
 30
0.0
 40
51.766654344667003
 50
307.61722118599982
 51
311.46361015053799
  0
ARC
  5
152A1
  8
0
 10
-2.9790885526699631
 20
171.9222168133285
 30
0.0
 40
75.835152246637037
 50
56.807764337971349
 51
59.195073875587241
  0
LINE
  5
152A2
  8
0
 10
75.075630301429612
 20
219.31733516902409
 30
0.0
 11
75.075630301429555
 21
226.81733516902409
 31
0.0
  0
ARC
  5
152A3
  8
0
 10
113.1756661854307
 20
174.3182591121442
 30
0.0
 40
72.998956228165611
 50
120.74492606031259
 51
123.2246296373754
  0
ARC
  5
152A5
  8
0
 10
105.9040823512434
 20
247.21682910678359
 30
0.0
 40
49.350667421855761
 50
228.46050218519269
 51
232.49423527246941
  0
LINE
  5
152A6
  8
0
 10
35.137360410240319
 20
219.31733516902401
 30
0.0
 11
36.639090519051031
 21
219.31733516902401
 31
0.0
  0
LINE
  5
152A7
  8
0
 10
36.4574240054597
 20
219.31733516902401
 30
0.0
 11
36.45742400545965
 21
226.81733516902401
 31
0.0
  0
LINE
  5
152A8
  8
0
 10
35.137360410240319
 20
226.81733516902401
 30
0.0
 11
36.639090519051031
 21
226.81733516902401
 31
0.0
  0
LINE
  5
152A9
  8
0
 10
76.577360410240317
 20
219.31733516902409
 30
0.0
 11
75.075630301429612
 21
219.31733516902409
 31
0.0
  0
LINE
  5
152AA
  8
0
 10
75.075630301429555
 20
226.81733516902409
 30
0.0
 11
76.577360410240317
 21
226.817335169025
 31
0.0
  0
LINE
  5
152AB
  8
0
 10
75.25729701288634
 20
226.8173351690242
 30
0.0
 11
75.257297012886383
 21
219.31733516902409
 31
0.0
  0
LINE
  5
152C1
  8
0
 10
51.257360410240608
 20
226.53554451927869
 30
0.0
 11
51.257360410240608
 21
232.4673351690241
 31
0.0
  0
LINE
  5
152C2
  8
0
 10
48.807360410240562
 20
232.4673351690241
 30
0.0
 11
48.807360410240683
 21
225.02632104488481
 31
0.0
  0
LINE
  5
152C4
  8
0
 10
62.907360410240578
 20
232.4673351690241
 30
0.0
 11
62.907360410240699
 21
225.0263210448849
 31
0.0
  0
LINE
  5
152C5
  8
0
 10
60.457360410240597
 20
232.4673351690241
 30
0.0
 11
60.457360410240653
 21
226.5355445192788
 31
0.0
  0
ARC
  5
1530E
  8
0
 10
339.39686456131318
 20
-6.2171280112719378
 30
0.0
 40
75.984463181941734
 50
74.738893468033041
 51
89.999626107108767
  0
ARC
  5
1530F
  8
0
 10
339.3968645613125
 20
105.7517983493737
 30
0.0
 40
75.984463181939674
 50
270.00037389289452
 51
285.26110653196702
  0
ARC
  5
15311
  8
0
 10
339.3973604102415
 20
-6.2134269444779866
 30
0.0
 40
75.980762113529863
 50
90.000000000003254
 51
105.26148042486
  0
ARC
  5
15312
  8
0
 10
339.39736041024099
 20
105.74809728258499
 30
0.0
 40
75.980762113533174
 50
254.73851957513989
 51
270.0
  0
ARC
  5
15313
  8
0
 10
349.63799928574508
 20
29.26785080652542
 30
0.0
 40
39.058890890359443
 50
51.339287075989681
 51
75.530610569855753
  0
ARC
  5
15315
  8
0
 10
349.63799928574531
 20
70.266819531578108
 30
0.0
 40
39.058890890358917
 50
284.4693894301443
 51
308.6607129240129
  0
ARC
  5
15316
  8
0
 10
329.15216988185779
 20
70.257716225818285
 30
0.0
 40
39.048939099729111
 50
231.33615780010311
 51
255.53373984574529
  0
LINE
  5
15319
  8
0
 10
309.49734227703368
 20
45.167335169051789
 30
0.0
 11
309.49734227703368
 21
42.717335169051744
 31
0.0
  0
LINE
  5
1531D
  8
0
 10
309.49734227703368
 20
56.817335169051887
 30
0.0
 11
309.49734227703368
 21
54.367335169051898
 31
0.0
  0
ARC
  5
15320
  8
0
 10
329.15216988185858
 20
29.27695411228456
 30
0.0
 40
39.048939099730148
 50
104.4662601542547
 51
128.66384219989951
  0
ARC
  5
15321
  8
0
 10
366.6976912601823
 20
50.137131960363831
 30
0.0
 40
12.70505199469242
 50
305.29433165220797
 51
358.33209748376038
  0
ARC
  5
15322
  8
0
 10
366.6976912601811
 20
49.397538377739238
 30
0.0
 40
12.70505199469368
 50
1.6679025162526431
 51
54.705668347791942
  0
ARC
  5
15323
  8
0
 10
312.8544253258072
 20
50.543019127809892
 30
0.0
 40
13.47940212864877
 50
216.54140603240839
 51
233.07461275453531
  0
ARC
  5
15325
  8
0
 10
296.53937064342432
 20
49.767335169051762
 30
0.0
 40
4.239471318416542
 50
320.81045567749231
 51
39.189544322507778
  0
ARC
  5
15326
  8
0
 10
312.85442532579179
 20
48.991651210312057
 30
0.0
 40
13.47940212862505
 50
157.18983010977439
 51
165.1503211832067
  0
ARC
  5
15327
  8
0
 10
312.854425325779
 20
50.543019127787261
 30
0.0
 40
13.479402128611611
 50
194.84967881678929
 51
202.81016989022859
  0
ARC
  5
1532A
  8
0
 10
312.85442532579287
 20
48.991651210310458
 30
0.0
 40
13.479402128626811
 50
126.92538724546471
 51
143.45859396761239
  0
ARC
  5
1533A
  8
0
 10
291.8025709847679
 20
49.767335169051883
 30
0.0
 40
7.9298328610594888
 50
348.68351038402619
 51
11.31648961596995
  0
ARC
  5
1533B
  8
0
 10
312.4173599177185
 20
49.08636223207747
 30
0.0
 40
13.032554110349491
 50
165.06073068456061
 51
170.11626345539921
  0
ARC
  5
1533C
  8
0
 10
312.85442532576332
 20
50.543019127785101
 30
0.0
 40
13.47940212859578
 50
189.96145181060029
 51
195.16269798884889
  0
LINE
  5
1533D
  8
0
 10
302.02471255307222
 20
42.517335169051762
 30
0.0
 11
301.8793192979166
 21
42.717335169051807
 31
0.0
  0
LINE
  5
1533E
  8
0
 10
300.49334512538343
 20
45.167335169051853
 30
0.0
 11
300.42918855104381
 21
45.317335169051717
 31
0.0
  0
LINE
  5
1533F
  8
0
 10
300.42918855104381
 20
54.217335169051687
 30
0.0
 11
300.49334512538348
 21
54.367335169051898
 31
0.0
  0
LINE
  5
15340
  8
0
 10
301.87931929791671
 20
56.81733516905183
 30
0.0
 11
302.02471255307222
 21
57.017335169051762
 31
0.0
  0
LINE
  5
15363
  8
0
 10
309.49734227703368
 20
45.167335169051853
 30
0.0
 11
283.85736041024143
 21
45.167335169051903
 31
0.0
  0
LINE
  5
15364
  8
0
 10
283.85736041024143
 20
42.717335169051857
 30
0.0
 11
309.49734227703368
 21
42.717335169051807
 31
0.0
  0
LINE
  5
15365
  8
0
 10
283.85736041024143
 20
56.817335169051773
 30
0.0
 11
309.49734227703368
 21
56.81733516905183
 31
0.0
  0
LINE
  5
15366
  8
0
 10
283.85736041024143
 20
54.367335169051898
 30
0.0
 11
309.49734227703368
 21
54.367335169051898
 31
0.0
  0
LINE
  5
15379
  8
0
 10
459.39736041024088
 20
219.3173351690242
 30
0.0
 11
459.39736041024088
 21
208.06628523078109
 31
0.0
  0
LINE
  5
1537A
  8
0
 10
459.39736041024099
 20
237.05828398968501
 30
0.0
 11
459.39736041024088
 21
226.81733516902429
 31
0.0
  0
LINE
  5
1537B
  8
0
 10
499.39736041024088
 20
226.81733516902409
 30
0.0
 11
499.39736041024099
 21
237.05828398968481
 31
0.0
  0
LINE
  5
1537C
  8
0
 10
499.39736041024088
 20
208.06628523078089
 30
0.0
 11
499.39736041024088
 21
219.3173351690242
 31
0.0
  0
LINE
  5
1537D
  8
0
 10
459.39736041024088
 20
208.06628523078101
 30
0.0
 11
499.39736041024088
 21
208.06628523078081
 31
0.0
  0
LINE
  5
1537E
  8
0
 10
499.39736041024099
 20
237.05828398968481
 30
0.0
 11
459.39736041024099
 21
237.05828398968501
 31
0.0
  0
LINE
  5
1537F
  8
0
 10
459.33601637446969
 20
226.8173351690242
 30
0.0
 11
459.33601637446958
 21
219.31733516902429
 31
0.0
  0
LINE
  5
15380
  8
0
 10
499.45870444601212
 20
219.3173351690242
 30
0.0
 11
499.45870444601212
 21
226.81733516902409
 31
0.0
  0
LINE
  5
15381
  8
0
 10
458.84090692988173
 20
226.8173351690242
 30
0.0
 11
458.84090692988173
 21
219.31733516902429
 31
0.0
  0
LINE
  5
15382
  8
0
 10
499.95381389059997
 20
219.3173351690242
 30
0.0
 11
499.95381389059997
 21
226.81733516902409
 31
0.0
  0
LINE
  5
15383
  8
0
 10
458.67736041024102
 20
226.81733516902429
 30
0.0
 11
458.67736041024079
 21
219.3173351690242
 31
0.0
  0
LINE
  5
15384
  8
0
 10
500.11736041024091
 20
219.31733516902409
 30
0.0
 11
500.11736041024091
 21
226.81733516902409
 31
0.0
  0
LINE
  5
15385
  8
0
 10
499.38199729208043
 20
237.05828398968501
 30
0.0
 11
499.38150865960222
 21
237.05828398968501
 31
0.0
  0
LINE
  5
1538E
  8
0
 10
483.99736041024119
 20
197.58733516902419
 30
0.0
 11
486.44736041024112
 21
197.58733516902419
 31
0.0
  0
LINE
  5
1538F
  8
0
 10
472.34736041024109
 20
197.58733516902419
 30
0.0
 11
474.79736041024108
 21
197.58733516902419
 31
0.0
  0
POLYLINE
  5
15399
  8
0
 66
     1
 10
0.0
 20
0.0
 30
0.0
 70
   128
  0
VERTEX
  5
1616B
  8
0
 10
479.39736041023991
 20
224.5673351690227
 30
0.0
  0
VERTEX
  5
1616C
  8
0
 10
480.21269688815619
 20
224.81440401492341
 30
0.0
  0
VERTEX
  5
1616D
  8
0
 10
480.97324935208161
 20
225.2056308468612
 30
0.0
  0
VERTEX
  5
1616E
  8
0
 10
482.50252448096381
 20
226.17316164018581
 30
0.0
  0
VERTEX
  5
1616F
  8
0
 10
483.94926498569299
 20
227.2023371575643
 30
0.0
  0
VERTEX
  5
16170
  8
0
 10
485.33158586246259
 20
228.2074661422545
 30
0.0
  0
VERTEX
  5
16171
  8
0
 10
486.87233358424731
 20
229.28091466216279
 30
0.0
  0
VERTEX
  5
16172
  8
0
 10
488.29885896918671
 20
230.20176290577569
 30
0.0
  0
VERTEX
  5
16173
  8
0
 10
489.39736041024111
 20
230.8123351690241
 30
0.0
  0
SEQEND
  5
16174
  8
0
  0
POLYLINE
  5
1539A
  8
0
 66
     1
 10
0.0
 20
0.0
 30
0.0
 70
   128
  0
VERTEX
  5
16175
  8
0
 10
479.39736041023951
 20
224.56733516902361
 30
0.0
  0
VERTEX
  5
16176
  8
0
 10
478.58202393232062
 20
224.81440401492591
 30
0.0
  0
VERTEX
  5
16177
  8
0
 10
477.82147146839299
 20
225.2056308468656
 30
0.0
  0
VERTEX
  5
16178
  8
0
 10
476.29219633950851
 20
226.1731616401926
 30
0.0
  0
VERTEX
  5
16179
  8
0
 10
474.8454558347766
 20
227.2023371575732
 30
0.0
  0
VERTEX
  5
1617A
  8
0
 10
473.46313495800479
 20
228.20746614226471
 30
0.0
  0
VERTEX
  5
1617B
  8
0
 10
471.92238723622211
 20
229.28091466217111
 30
0.0
  0
VERTEX
  5
1617C
  8
0
 10
470.49586185128481
 20
230.20176290578189
 30
0.0
  0
VERTEX
  5
1617D
  8
0
 10
469.39736041024008
 20
230.81233516902449
 30
0.0
  0
SEQEND
  5
1617E
  8
0
  0
POLYLINE
  5
1539D
  8
0
 66
     1
 10
0.0
 20
0.0
 30
0.0
 70
   128
  0
VERTEX
  5
1617F
  8
0
 10
489.39736041024111
 20
216.3173351690242
 30
0.0
  0
VERTEX
  5
16180
  8
0
 10
488.38024106878851
 20
217.15385397745149
 30
0.0
  0
VERTEX
  5
16181
  8
0
 10
487.25646068473492
 20
218.1119182418397
 30
0.0
  0
VERTEX
  5
16182
  8
0
 10
486.05997387858457
 20
219.1534683037336
 30
0.0
  0
VERTEX
  5
16183
  8
0
 10
484.52276223929971
 20
220.51601751275209
 30
0.0
  0
VERTEX
  5
16184
  8
0
 10
482.91290479238103
 20
221.93729567818491
 30
0.0
  0
VERTEX
  5
16185
  8
0
 10
481.23747788389181
 20
223.35792165290431
 30
0.0
  0
VERTEX
  5
16186
  8
0
 10
480.52706339322509
 20
223.92534614040639
 30
0.0
  0
VERTEX
  5
16187
  8
0
 10
479.761476674964
 20
224.41554835051861
 30
0.0
  0
VERTEX
  5
16188
  8
0
 10
479.39736041024111
 20
224.5673351690296
 30
0.0
  0
SEQEND
  5
16189
  8
0
  0
POLYLINE
  5
1539E
  8
0
 66
     1
 10
0.0
 20
0.0
 30
0.0
 70
   128
  0
VERTEX
  5
1618A
  8
0
 10
469.3973604102402
 20
216.31733516902409
 30
0.0
  0
VERTEX
  5
1618B
  8
0
 10
470.4144797516928
 20
217.1538539774514
 30
0.0
  0
VERTEX
  5
1618C
  8
0
 10
471.53826013574638
 20
218.1119182418395
 30
0.0
  0
VERTEX
  5
1618D
  8
0
 10
472.73474694189662
 20
219.15346830373321
 30
0.0
  0
VERTEX
  5
1618E
  8
0
 10
474.27195858118159
 20
220.5160175127518
 30
0.0
  0
VERTEX
  5
1618F
  8
0
 10
475.8818160281001
 20
221.93729567818451
 30
0.0
  0
VERTEX
  5
16190
  8
0
 10
477.55724293658938
 20
223.3579216529038
 30
0.0
  0
VERTEX
  5
16191
  8
0
 10
478.26765742725729
 20
223.9253461404067
 30
0.0
  0
VERTEX
  5
16192
  8
0
 10
479.0332441455202
 20
224.4155483505192
 30
0.0
  0
VERTEX
  5
16193
  8
0
 10
479.39736041023849
 20
224.56733516902821
 30
0.0
  0
SEQEND
  5
16194
  8
0
  0
ARC
  5
153A1
  8
0
 10
760.89338621402385
 20
-195.7821752811177
 30
0.0
 40
505.66092233179802
 50
121.49580225886869
 51
122.4737534388117
  0
ARC
  5
153A3
  8
0
 10
522.17760123872324
 20
248.59457927342291
 30
0.0
 40
46.003963696058108
 50
224.55702229808779
 51
236.39771515956929
  0
ARC
  5
153A4
  8
0
 10
436.61711958174601
 20
248.59457927343689
 30
0.0
 40
46.003963696076418
 50
303.60228484043802
 51
315.44297770191218
  0
ARC
  5
153A6
  8
0
 10
197.9013346057929
 20
-195.7821752821591
 30
0.0
 40
505.66092233303328
 50
57.526246561188259
 51
58.50419774112676
  0
LINE
  5
153A9
  8
0
 10
460.1790905190515
 20
226.8173351690242
 30
0.0
 11
460.1790905190515
 21
219.31733516902429
 31
0.0
  0
ARC
  5
153AB
  8
0
 10
420.94620930001662
 20
172.50425537310741
 30
0.0
 40
75.137148820269573
 50
56.810658343655788
 51
59.219785958655393
  0
ARC
  5
153AC
  8
0
 10
415.92673326038579
 20
263.48822935993212
 30
0.0
 40
70.435580055264154
 50
308.10966295123939
 51
310.93559959111138
  0
LINE
  5
153AD
  8
0
 10
498.61563030143009
 20
219.3173351690242
 30
0.0
 11
498.61563030143009
 21
226.8173351690242
 31
0.0
  0
ARC
  5
153AE
  8
0
 10
545.2459371038442
 20
266.32999192049351
 30
0.0
 40
74.140465725837444
 50
229.115048569924
 51
231.80050127611889
  0
ARC
  5
153AF
  8
0
 10
539.37220286117247
 20
170.09954095556111
 30
0.0
 40
77.983663991439343
 50
120.8375263621506
 51
123.1590470537373
  0
LINE
  5
153B0
  8
0
 10
498.61563030143009
 20
219.3173351690242
 30
0.0
 11
500.11736041024091
 21
219.3173351690242
 31
0.0
  0
LINE
  5
153B1
  8
0
 10
498.61563030143009
 20
226.8173351690242
 30
0.0
 11
500.11736041024091
 21
226.8173351690242
 31
0.0
  0
LINE
  5
153B2
  8
0
 10
498.79729700736971
 20
226.8173351690242
 30
0.0
 11
498.79729700736959
 21
219.3173351690242
 31
0.0
  0
LINE
  5
153B3
  8
0
 10
458.67736041024091
 20
219.31733516902329
 30
0.0
 11
460.1790905190515
 21
219.31733516902429
 31
0.0
  0
LINE
  5
153B4
  8
0
 10
459.99742401075707
 20
219.3173351690242
 30
0.0
 11
459.9974240107573
 21
226.8173351690242
 31
0.0
  0
LINE
  5
153B5
  8
0
 10
458.67736041024102
 20
226.8173351690242
 30
0.0
 11
460.1790905190515
 21
226.8173351690242
 31
0.0
  0
LINE
  5
153CF
  8
0
 10
474.79736041024108
 20
197.58733516902419
 30
0.0
 11
474.7973604102408
 21
208.06628523078081
 31
0.0
  0
LINE
  5
15459
  8
0
 10
256.09016434820199
 20
334.50826138462457
 30
0.0
 11
256.09016434820199
 21
339.6082613846246
 31
0.0
  0
ARC
  5
1545D
  8
0
 10
164.35736041024069
 20
337.05826138462459
 30
0.0
 40
9.0000000000000355
 50
301.7883306170533
 51
58.21166938295115
  0
LINE
  5
1545E
  8
0
 10
159.616316221457
 20
329.40826138462461
 30
0.0
 11
169.09840459902449
 21
329.40826138462461
 31
0.0
  0
ARC
  5
1545F
  8
0
 10
164.35736041024069
 20
337.05826138462459
 30
0.0
 40
9.0000000000000426
 50
121.7883306170533
 51
238.2116693829511
  0
LINE
  5
15460
  8
0
 10
169.09840459902449
 20
344.70826138462462
 30
0.0
 11
159.616316221457
 21
344.70826138462462
 31
0.0
  0
ARC
  5
15479
  8
0
 10
231.1273604102407
 20
329.50826138462457
 30
0.0
 40
7.499999999999992
 50
89.064353442241966
 51
113.002741716909
  0
LINE
  5
1547A
  8
0
 10
231.24983081483001
 20
337.10926138462457
 30
0.0
 11
231.24983081483001
 21
337.0072613846246
 31
0.0
  0
ARC
  5
1547B
  8
0
 10
231.1273604102407
 20
344.6082613846246
 30
0.0
 40
7.499999999999992
 50
246.997258283094
 51
270.9356465577581
  0
LINE
  5
1547C
  8
0
 10
211.81123629038271
 20
344.66069216031241
 30
0.0
 11
228.19654659002771
 21
337.70461522109269
 31
0.0
  0
ARC
  5
1547D
  8
0
 10
209.8573604102408
 20
340.0582613846247
 30
0.0
 40
4.9999999999999432
 50
66.997258283090986
 51
90.0
  0
LINE
  5
1547E
  8
0
 10
155.85736041024069
 20
345.05826138462459
 30
0.0
 11
209.8573604102408
 21
345.05826138462447
 31
0.0
  0
LINE
  5
15480
  8
0
 10
209.8573604102408
 20
347.55826138462459
 30
0.0
 11
155.85736041024069
 21
347.55826138462442
 31
0.0
  0
ARC
  5
15481
  8
0
 10
209.8573604102408
 20
340.0582613846247
 30
0.0
 40
7.4999999999999432
 50
66.316696874028324
 51
90.0
  0
LINE
  5
15482
  8
0
 10
228.11475349983681
 20
340.23991372282222
 30
0.0
 11
212.8699673206448
 21
346.92660904642702
 31
0.0
  0
ARC
  5
15483
  8
0
 10
231.1273604102407
 20
347.10826138462448
 30
0.0
 40
7.4999999999999023
 50
246.31669687402831
 51
270.0
  0
ARC
  5
15484
  8
0
 10
231.1273604102407
 20
327.00826138462457
 30
0.0
 40
7.4999999999999796
 50
90.0
 51
113.68330312597161
  0
LINE
  5
15485
  8
0
 10
212.8699673206448
 20
327.18991372282221
 30
0.0
 11
228.11475349983681
 21
333.87660904642689
 31
0.0
  0
ARC
  5
15486
  8
0
 10
209.8573604102408
 20
334.0582613846247
 30
0.0
 40
7.500000000000056
 50
270.0
 51
293.68330312597459
  0
LINE
  5
15487
  8
0
 10
155.85736041024069
 20
326.55826138462442
 30
0.0
 11
209.8573604102408
 21
326.55826138462447
 31
0.0
  0
LINE
  5
15489
  8
0
 10
209.8573604102408
 20
329.05826138462447
 30
0.0
 11
155.85736041024069
 21
329.05826138462447
 31
0.0
  0
ARC
  5
1548A
  8
0
 10
209.8573604102408
 20
334.05826138462447
 30
0.0
 40
4.9999999999999138
 50
270.0
 51
293.00274171690899
  0
LINE
  5
1548B
  8
0
 10
228.19654659002771
 20
336.41190754815648
 30
0.0
 11
211.81123629038271
 21
329.45583060893659
 31
0.0
  0
LINE
  5
1548C
  8
0
 10
256.09016434820199
 20
339.60826138462471
 30
0.0
 11
231.1273604102407
 21
339.6082613846246
 31
0.0
  0
LINE
  5
1548D
  8
0
 10
231.1273604102407
 20
334.50826138462457
 30
0.0
 11
256.09016434820199
 21
334.50826138462457
 31
0.0
  0
LINE
  5
15496
  8
0
 10
209.2650834188681
 20
329.05826138462447
 30
0.0
 11
209.2650834188681
 21
345.05826138462447
 31
0.0
  0
LINE
  5
15497
  8
0
 10
201.35736041024069
 20
332.95826138462462
 30
0.0
 11
172.3692266098225
 21
332.95826138462462
 31
0.0
  0
ARC
  5
15498
  8
0
 10
201.35736041024069
 20
337.05826138462459
 30
0.0
 40
4.0999999999999943
 50
270.0
 51
90.0
  0
LINE
  5
15499
  8
0
 10
172.3692266098225
 20
341.1582613846245
 30
0.0
 11
201.35736041024069
 21
341.1582613846245
 31
0.0
  0
LINE
  5
1549A
  8
0
 10
155.85736041024069
 20
326.55826138462442
 30
0.0
 11
155.85736041024069
 21
334.10022149307491
 31
0.0
  0
LINE
  5
1549B
  8
0
 10
155.85736041024069
 20
340.01630127617432
 30
0.0
 11
155.85736041024069
 21
347.5582613846243
 31
0.0
  0
LINE
  5
1549C
  8
0
 10
230.87679648705071
 20
337.11244803846961
 30
0.0
 11
230.87679648705071
 21
337.00407473077962
 31
0.0
  0
LINE
  5
1549D
  8
0
 10
50.057360410241131
 20
171.06733516902409
 30
0.0
 11
50.057360410241131
 21
170.56733516902409
 31
0.0
  0
LINE
  5
1549E
  8
0
 10
61.657360410241147
 20
170.56733516902409
 30
0.0
 11
61.657360410241147
 21
171.06733516902409
 31
0.0
  0
LINE
  5
1549F
  8
0
 10
51.857360410240972
 20
215.30033516902401
 30
0.0
 11
51.857360410241029
 21
212.8673351690241
 31
0.0
  0
LINE
  5
154A0
  8
0
 10
51.857360410241078
 20
193.56733516902409
 30
0.0
 11
51.857360410241078
 21
171.06733516902409
 31
0.0
  0
LINE
  5
154A1
  8
0
 10
59.857360410241078
 20
171.0673351690242
 30
0.0
 11
59.857360410241078
 21
193.56733516902409
 31
0.0
  0
LINE
  5
154A2
  8
0
 10
59.857360410240972
 20
212.8673351690241
 30
0.0
 11
59.857360410240972
 21
215.30033516902409
 31
0.0
  0
LINE
  5
154A3
  8
0
 10
59.857360410301339
 20
215.30033516902409
 30
0.0
 11
59.09036041027047
 21
216.06733516900781
 31
0.0
  0
LINE
  5
154A4
  8
0
 10
52.624360410211459
 20
216.06733516900769
 30
0.0
 11
51.857360410180597
 21
215.30033516902401
 31
0.0
  0
ARC
  5
154A5
  8
0
 10
55.857360410241093
 20
201.56733516902409
 30
0.0
 40
12.000000000000091
 50
109.6645740520642
 51
129.60565239387131
  0
ARC
  5
154A6
  8
0
 10
55.857360410241093
 20
201.56733516902409
 30
0.0
 40
12.000000000000091
 50
50.394347606128598
 51
70.331619325706441
  0
LINE
  5
154A7
  8
0
 10
64.273878598623696
 20
229.46733516902421
 30
0.0
 11
62.907360410240578
 21
229.46733516902421
 31
0.0
  0
ARC
  5
154A8
  8
0
 10
4.4073604102292157
 20
225.4673351690239
 30
0.0
 40
60.000000000011887
 50
358.70539297424187
 51
0.0
  0
ARC
  5
154A9
  8
0
 10
4.4073604102292157
 20
225.4673351690239
 30
0.0
 40
60.000000000011887
 50
0.0
 51
3.822553729277482
  0
ARC
  5
154AA
  8
0
 10
107.3073604102602
 20
225.4673351690243
 30
0.0
 40
60.0000000000217
 50
176.17744627070951
 51
178.08978682829181
  0
LINE
  5
154AB
  8
0
 10
48.807360410240683
 20
229.4673351690241
 30
0.0
 11
47.440842221857558
 21
229.4673351690241
 31
0.0
  0
LINE
  5
154AE
  8
0
 10
55.907360410240699
 20
228.2232522618601
 30
0.0
 11
55.907360410240699
 21
216.06733516900781
 31
0.0
  0
LINE
  5
154AF
  8
0
 10
55.80736041024079
 20
216.06733516900781
 30
0.0
 11
55.807360410240669
 21
228.2232522618601
 31
0.0
  0
LINE
  5
154B0
  8
0
 10
49.357360410241078
 20
170.56733516902409
 30
0.0
 11
62.357360410241078
 21
170.56733516902409
 31
0.0
  0
LINE
  5
154B1
  8
0
 10
55.857360410241192
 20
166.03677241715209
 30
0.0
 11
55.857360410241093
 21
170.56733516902409
 31
0.0
  0
ARC
  5
154B2
  8
0
 10
52.49617938545714
 20
186.84417805301001
 30
0.0
 40
21.077136123688621
 50
270.30223427826979
 51
279.17616236121268
  0
ARC
  5
154B3
  8
0
 10
52.7180747883192
 20
186.83854927746279
 30
0.0
 40
21.071504969441008
 50
260.82264952651161
 51
269.69895383399938
  0
LINE
  5
154B4
  8
0
 10
49.357360410241078
 20
170.56733516902409
 30
0.0
 11
49.357360410241029
 21
165.76733516902411
 31
0.0
  0
LINE
  5
154B6
  8
0
 10
62.357360410241249
 20
165.76733516902419
 30
0.0
 11
62.357360410241078
 21
170.5673351690242
 31
0.0
  0
ARC
  5
154B7
  8
0
 10
58.996179385457587
 20
186.84417805300669
 30
0.0
 40
21.077136123685261
 50
270.30223427826979
 51
279.17616236121268
  0
ARC
  5
154B8
  8
0
 10
59.218074788319079
 20
186.83854927746069
 30
0.0
 40
21.071504969438941
 50
260.82264952651161
 51
269.69895383399938
  0
LINE
  5
154BB
  8
0
 10
50.057360410241131
 20
171.06733516902409
 30
0.0
 11
61.657360410241147
 21
171.06733516902409
 31
0.0
  0
LINE
  5
154BF
  8
0
 10
49.357360410241029
 20
165.76733516902411
 30
0.0
 11
62.357360410241078
 21
165.76733516902411
 31
0.0
  0
LINE
  5
154C0
  8
0
 10
59.857360410240972
 20
215.30033516902401
 30
0.0
 11
51.857360410240972
 21
215.30033516902401
 31
0.0
  0
LINE
  5
154C2
  8
0
 10
59.09036041027047
 20
216.06733516900781
 30
0.0
 11
52.624360410211459
 21
216.06733516900769
 31
0.0
  0
ARC
  5
154C3
  8
0
 10
59.253454972426312
 20
203.7723357974503
 30
0.0
 40
10.206046318103679
 50
250.56403107689829
 51
269.17981092267831
  0
LINE
  5
154C4
  8
0
 10
55.857360410241093
 20
194.1478917526249
 30
0.0
 11
55.857360447755923
 21
196.98677859792841
 31
0.0
  0
POLYLINE
  5
154C5
  8
0
 66
     1
 10
0.0
 20
0.0
 30
0.0
 70
   128
  0
VERTEX
  5
16195
  8
0
 10
55.857360485270867
 20
196.9867786104333
 30
0.0
  0
VERTEX
  5
16196
  8
0
 10
57.449627295556297
 20
197.4079895007946
 30
0.0
  0
VERTEX
  5
16197
  8
0
 10
59.107360410241078
 20
197.56733516902409
 30
0.0
  0
SEQEND
  5
16198
  8
0
  0
ARC
  5
154C6
  8
0
 10
58.961265876778377
 20
187.36233478112479
 30
0.0
 40
10.206046077190431
 50
70.564030770666051
 51
89.179811064575887
  0
ARC
  5
154C8
  8
0
 10
58.95850788367283
 20
203.78777509225409
 30
0.0
 40
10.22152382470545
 50
270.834408172672
 51
289.42174982775703
  0
ARC
  5
154C9
  8
0
 10
52.753454972426312
 20
203.7723357974503
 30
0.0
 40
10.206046318103761
 50
250.56403107689829
 51
269.17981092267831
  0
POLYLINE
  5
154CB
  8
0
 66
     1
 10
0.0
 20
0.0
 30
0.0
 70
   128
  0
VERTEX
  5
16199
  8
0
 10
49.357360485270867
 20
196.98677861043319
 30
0.0
  0
VERTEX
  5
1619A
  8
0
 10
50.94962729555629
 20
197.4079895007946
 30
0.0
  0
VERTEX
  5
1619B
  8
0
 10
52.607360410241093
 20
197.56733516902409
 30
0.0
  0
SEQEND
  5
1619C
  8
0
  0
ARC
  5
154CC
  8
0
 10
52.461265718469001
 20
187.36233338840131
 30
0.0
 40
10.20604747203728
 50
70.564032367988872
 51
89.179810287858786
  0
ARC
  5
154CD
  8
0
 10
52.458507883672837
 20
203.78777509225409
 30
0.0
 40
10.22152382470542
 50
270.834408172672
 51
289.42174982775703
  0
LINE
  5
154CF
  8
0
 10
49.357360410241142
 20
197.56733516902409
 30
0.0
 11
49.357360410241078
 21
193.56733516902409
 31
0.0
  0
LINE
  5
154D1
  8
0
 10
62.357360410241078
 20
193.56733516902409
 30
0.0
 11
62.357360410241142
 21
197.56733516902409
 31
0.0
  0
LINE
  5
154D2
  8
0
 10
49.357360410241142
 20
193.56733516902409
 30
0.0
 11
62.357360410241078
 21
193.56733516902409
 31
0.0
  0
LINE
  5
154D5
  8
0
 10
59.895924511502699
 20
212.8673351690241
 30
0.0
 11
51.818796308979238
 21
212.8673351690241
 31
0.0
  0
LINE
  5
154D6
  8
0
 10
63.507360410240949
 20
200.06733516902409
 30
0.0
 11
63.507360410240949
 21
210.8127394327652
 31
0.0
  0
LINE
  5
154D7
  8
0
 10
48.207360410240987
 20
209.50458910221789
 30
0.0
 11
63.507360410240949
 21
209.50458910221789
 31
0.0
  0
LINE
  5
154D8
  8
0
 10
48.207360410240987
 20
210.8127394327652
 30
0.0
 11
48.207360410240987
 21
200.06733516902409
 31
0.0
  0
LINE
  5
154DA
  8
0
 10
48.207360410240987
 20
201.06733516902409
 30
0.0
 11
63.507360410241063
 21
201.06733516902409
 31
0.0
  0
LINE
  5
154DE
  8
0
 10
62.907360410240699
 20
225.02632104488501
 30
0.0
 11
62.907360410240578
 21
229.46733516902421
 31
0.0
  0
LINE
  5
154DF
  8
0
 10
64.273878598623696
 20
224.18453274770391
 30
0.0
 11
64.273878598623696
 21
229.46733516902421
 31
0.0
  0
LINE
  5
154E0
  8
0
 10
47.340703007978618
 20
227.46733516902421
 30
0.0
 11
47.340703007978732
 21
224.1228460324819
 31
0.0
  0
LINE
  5
154E1
  8
0
 10
47.440842221857622
 20
229.4673351690241
 30
0.0
 11
47.440842221857679
 21
224.1845327477038
 31
0.0
  0
LINE
  5
154E3
  8
0
 10
48.807360410240683
 20
225.4017137330186
 30
0.0
 11
48.807360410240683
 21
225.0263210448849
 31
0.0
  0
LINE
  5
154E4
  8
0
 10
48.807360410240683
 20
229.4673351690241
 30
0.0
 11
48.807360410240683
 21
225.4017137330186
 31
0.0
  0
LINE
  5
154E5
  8
0
 10
63.857360410241093
 20
200.06733516902409
 30
0.0
 11
47.857360410241078
 21
200.06733516902409
 31
0.0
  0
ARC
  5
154E7
  8
0
 10
62.857360410241078
 20
201.06733516902409
 30
0.0
 40
3.4999999999999849
 50
270.0
 51
0.0
  0
LINE
  5
154E8
  8
0
 10
48.857360410241093
 20
197.56733516902409
 30
0.0
 11
62.857360410241078
 21
197.56733516902409
 31
0.0
  0
ARC
  5
154E9
  8
0
 10
48.857360410241093
 20
201.06733516902409
 30
0.0
 40
3.4999999999999849
 50
180.0
 51
270.0
  0
LINE
  5
154EB
  8
0
 10
66.357360410241085
 20
201.06733516902409
 30
0.0
 11
66.357360410241085
 21
222.47619988836419
 31
0.0
  0
LINE
  5
154EC
  8
0
 10
45.357360410241078
 20
222.47619988836419
 30
0.0
 11
45.357360410241078
 21
201.06733516902409
 31
0.0
  0
LINE
  5
154ED
  8
0
 10
63.857360410241093
 20
222.47619988836419
 30
0.0
 11
63.857360410241093
 21
200.06733516902409
 31
0.0
  0
LINE
  5
154EE
  8
0
 10
47.857360410241078
 20
200.06733516902409
 30
0.0
 11
47.857360410241078
 21
222.47619988836419
 31
0.0
  0
POLYLINE
  5
154F5
  8
0
 10
55.908360410240739
 20
228.25634318002542
 30
0.0
 66
     1
 70
     8
  0
VERTEX
  8
0
  5
16214
 10
55.9084
 20
228.256
 30
0.000000
  70
    32
  0
VERTEX
  8
0
  5
16215
 10
55.9080
 20
228.250
 30
0.000000
  70
    32
  0
VERTEX
  8
0
  5
16216
 10
55.9077
 20
228.243
 30
0.000000
  70
    32
  0
VERTEX
  8
0
  5
16217
 10
55.9075
 20
228.237
 30
0.000000
  70
    32
  0
VERTEX
  8
0
  5
16218
 10
55.9074
 20
228.230
 30
0.000000
  70
    32
  0
VERTEX
  8
0
  5
16219
 10
55.9074
 20
228.223
 30
0.000000
  70
    32
  0
VERTEX
  8
0
  5
1621A
 10
55.9074
 20
228.217
 30
0.000000
  70
    32
  0
VERTEX
  8
0
  5
1621B
 10
55.9075
 20
228.210
 30
0.000000
  70
    32
  0
VERTEX
  8
0
  5
1621C
 10
55.9077
 20
228.203
 30
0.000000
  70
    32
  0
VERTEX
  8
0
  5
1621D
 10
55.9080
 20
228.197
 30
0.000000
  70
    32
  0
VERTEX
  8
0
  5
1621E
 10
55.9084
 20
228.190
 30
0.000000
  70
    32
  0
VERTEX
  8
0
  5
1621F
 10
55.9088
 20
228.184
 30
0.000000
  70
    32
  0
VERTEX
  8
0
  5
16220
 10
55.9093
 20
228.177
 30
0.000000
  70
    32
  0
VERTEX
  8
0
  5
16221
 10
55.9099
 20
228.170
 30
0.000000
  70
    32
  0
VERTEX
  8
0
  5
16222
 10
55.9106
 20
228.164
 30
0.000000
  70
    32
  0
VERTEX
  8
0
  5
16223
 10
55.9114
 20
228.157
 30
0.000000
  70
    32
  0
VERTEX
  8
0
  5
16224
 10
55.9122
 20
228.151
 30
0.000000
  70
    32
  0
VERTEX
  8
0
  5
16225
 10
55.9131
 20
228.144
 30
0.000000
  70
    32
  0
VERTEX
  8
0
  5
16226
 10
55.9141
 20
228.137
 30
0.000000
  70
    32
  0
VERTEX
  8
0
  5
16227
 10
55.9152
 20
228.131
 30
0.000000
  70
    32
  0
VERTEX
  8
0
  5
16228
 10
55.9163
 20
228.124
 30
0.000000
  70
    32
  0
VERTEX
  8
0
  5
16229
 10
55.9176
 20
228.117
 30
0.000000
  70
    32
  0
VERTEX
  8
0
  5
1622A
 10
55.9189
 20
228.111
 30
0.000000
  70
    32
  0
VERTEX
  8
0
  5
1622B
 10
55.9203
 20
228.104
 30
0.000000
  70
    32
  0
VERTEX
  8
0
  5
1622C
 10
55.9218
 20
228.098
 30
0.000000
  70
    32
  0
VERTEX
  8
0
  5
1622D
 10
55.9233
 20
228.091
 30
0.000000
  70
    32
  0
VERTEX
  8
0
  5
1622E
 10
55.9250
 20
228.084
 30
0.000000
  70
    32
  0
VERTEX
  8
0
  5
1622F
 10
55.9267
 20
228.078
 30
0.000000
  70
    32
  0
VERTEX
  8
0
  5
16230
 10
55.9285
 20
228.071
 30
0.000000
  70
    32
  0
VERTEX
  8
0
  5
16231
 10
55.9304
 20
228.065
 30
0.000000
  70
    32
  0
VERTEX
  8
0
  5
16232
 10
55.9323
 20
228.058
 30
0.000000
  70
    32
  0
VERTEX
  8
0
  5
16233
 10
55.9343
 20
228.051
 30
0.000000
  70
    32
  0
VERTEX
  8
0
  5
16234
 10
55.9365
 20
228.045
 30
0.000000
  70
    32
  0
VERTEX
  8
0
  5
16235
 10
55.9387
 20
228.038
 30
0.000000
  70
    32
  0
VERTEX
  8
0
  5
16236
 10
55.9409
 20
228.032
 30
0.000000
  70
    32
  0
VERTEX
  8
0
  5
16237
 10
55.9433
 20
228.025
 30
0.000000
  70
    32
  0
VERTEX
  8
0
  5
16238
 10
55.9457
 20
228.019
 30
0.000000
  70
    32
  0
VERTEX
  8
0
  5
16239
 10
55.9482
 20
228.012
 30
0.000000
  70
    32
  0
VERTEX
  8
0
  5
1623A
 10
55.9508
 20
228.005
 30
0.000000
  70
    32
  0
VERTEX
  8
0
  5
1623B
 10
55.9535
 20
227.999
 30
0.000000
  70
    32
  0
VERTEX
  8
0
  5
1623C
 10
55.9562
 20
227.992
 30
0.000000
  70
    32
  0
VERTEX
  8
0
  5
1623D
 10
55.9591
 20
227.986
 30
0.000000
  70
    32
  0
VERTEX
  8
0
  5
1623E
 10
55.9620
 20
227.979
 30
0.000000
  70
    32
  0
VERTEX
  8
0
  5
1623F
 10
55.9650
 20
227.973
 30
0.000000
  70
    32
  0
VERTEX
  8
0
  5
16240
 10
55.9680
 20
227.966
 30
0.000000
  70
    32
  0
VERTEX
  8
0
  5
16241
 10
55.9712
 20
227.959
 30
0.000000
  70
    32
  0
VERTEX
  8
0
  5
16242
 10
55.9744
 20
227.953
 30
0.000000
  70
    32
  0
VERTEX
  8
0
  5
16243
 10
55.9777
 20
227.946
 30
0.000000
  70
    32
  0
VERTEX
  8
0
  5
16244
 10
55.9811
 20
227.940
 30
0.000000
  70
    32
  0
VERTEX
  8
0
  5
16245
 10
55.9846
 20
227.933
 30
0.000000
  70
    32
  0
VERTEX
  8
0
  5
16246
 10
55.9881
 20
227.927
 30
0.000000
  70
    32
  0
VERTEX
  8
0
  5
16247
 10
55.9917
 20
227.920
 30
0.000000
  70
    32
  0
VERTEX
  8
0
  5
16248
 10
55.9954
 20
227.914
 30
0.000000
  70
    32
  0
VERTEX
  8
0
  5
16249
 10
55.9992
 20
227.907
 30
0.000000
  70
    32
  0
VERTEX
  8
0
  5
1624A
 10
56.0031
 20
227.901
 30
0.000000
  70
    32
  0
VERTEX
  8
0
  5
1624B
 10
56.0070
 20
227.894
 30
0.000000
  70
    32
  0
VERTEX
  8
0
  5
1624C
 10
56.0110
 20
227.887
 30
0.000000
  70
    32
  0
VERTEX
  8
0
  5
1624D
 10
56.0151
 20
227.881
 30
0.000000
  70
    32
  0
VERTEX
  8
0
  5
1624E
 10
56.0193
 20
227.874
 30
0.000000
  70
    32
  0
VERTEX
  8
0
  5
1624F
 10
56.0236
 20
227.868
 30
0.000000
  70
    32
  0
VERTEX
  8
0
  5
16250
 10
56.0279
 20
227.861
 30
0.000000
  70
    32
  0
VERTEX
  8
0
  5
16251
 10
56.0323
 20
227.855
 30
0.000000
  70
    32
  0
VERTEX
  8
0
  5
16252
 10
56.0368
 20
227.848
 30
0.000000
  70
    32
  0
VERTEX
  8
0
  5
16253
 10
56.0413
 20
227.842
 30
0.000000
  70
    32
  0
VERTEX
  8
0
  5
16254
 10
56.0460
 20
227.835
 30
0.000000
  70
    32
  0
VERTEX
  8
0
  5
16255
 10
56.0507
 20
227.829
 30
0.000000
  70
    32
  0
VERTEX
  8
0
  5
16256
 10
56.0555
 20
227.822
 30
0.000000
  70
    32
  0
VERTEX
  8
0
  5
16257
 10
56.0604
 20
227.816
 30
0.000000
  70
    32
  0
VERTEX
  8
0
  5
16258
 10
56.0654
 20
227.809
 30
0.000000
  70
    32
  0
VERTEX
  8
0
  5
16259
 10
56.0704
 20
227.803
 30
0.000000
  70
    32
  0
VERTEX
  8
0
  5
1625A
 10
56.0755
 20
227.797
 30
0.000000
  70
    32
  0
VERTEX
  8
0
  5
1625B
 10
56.0807
 20
227.790
 30
0.000000
  70
    32
  0
VERTEX
  8
0
  5
1625C
 10
56.0860
 20
227.784
 30
0.000000
  70
    32
  0
VERTEX
  8
0
  5
1625D
 10
56.0913
 20
227.777
 30
0.000000
  70
    32
  0
VERTEX
  8
0
  5
1625E
 10
56.0968
 20
227.771
 30
0.000000
  70
    32
  0
VERTEX
  8
0
  5
1625F
 10
56.1023
 20
227.764
 30
0.000000
  70
    32
  0
VERTEX
  8
0
  5
16260
 10
56.1079
 20
227.758
 30
0.000000
  70
    32
  0
VERTEX
  8
0
  5
16261
 10
56.1135
 20
227.751
 30
0.000000
  70
    32
  0
VERTEX
  8
0
  5
16262
 10
56.1193
 20
227.745
 30
0.000000
  70
    32
  0
VERTEX
  8
0
  5
16263
 10
56.1251
 20
227.739
 30
0.000000
  70
    32
  0
VERTEX
  8
0
  5
16264
 10
56.1310
 20
227.732
 30
0.000000
  70
    32
  0
VERTEX
  8
0
  5
16265
 10
56.1369
 20
227.726
 30
0.000000
  70
    32
  0
VERTEX
  8
0
  5
16266
 10
56.1430
 20
227.719
 30
0.000000
  70
    32
  0
VERTEX
  8
0
  5
16267
 10
56.1491
 20
227.713
 30
0.000000
  70
    32
  0
VERTEX
  8
0
  5
16268
 10
56.1553
 20
227.706
 30
0.000000
  70
    32
  0
VERTEX
  8
0
  5
16269
 10
56.1616
 20
227.700
 30
0.000000
  70
    32
  0
VERTEX
  8
0
  5
1626A
 10
56.1680
 20
227.694
 30
0.000000
  70
    32
  0
VERTEX
  8
0
  5
1626B
 10
56.1744
 20
227.687
 30
0.000000
  70
    32
  0
VERTEX
  8
0
  5
1626C
 10
56.1809
 20
227.681
 30
0.000000
  70
    32
  0
VERTEX
  8
0
  5
1626D
 10
56.1875
 20
227.675
 30
0.000000
  70
    32
  0
VERTEX
  8
0
  5
1626E
 10
56.1942
 20
227.668
 30
0.000000
  70
    32
  0
VERTEX
  8
0
  5
1626F
 10
56.2009
 20
227.662
 30
0.000000
  70
    32
  0
VERTEX
  8
0
  5
16270
 10
56.2077
 20
227.656
 30
0.000000
  70
    32
  0
VERTEX
  8
0
  5
16271
 10
56.2146
 20
227.649
 30
0.000000
  70
    32
  0
VERTEX
  8
0
  5
16272
 10
56.2216
 20
227.643
 30
0.000000
  70
    32
  0
VERTEX
  8
0
  5
16273
 10
56.2286
 20
227.636
 30
0.000000
  70
    32
  0
VERTEX
  8
0
  5
16274
 10
56.2358
 20
227.630
 30
0.000000
  70
    32
  0
VERTEX
  8
0
  5
16275
 10
56.2430
 20
227.624
 30
0.000000
  70
    32
  0
VERTEX
  8
0
  5
16276
 10
56.2503
 20
227.618
 30
0.000000
  70
    32
  0
VERTEX
  8
0
  5
16277
 10
56.2576
 20
227.611
 30
0.000000
  70
    32
  0
VERTEX
  8
0
  5
16278
 10
56.2650
 20
227.605
 30
0.000000
  70
    32
  0
VERTEX
  8
0
  5
16279
 10
56.2725
 20
227.599
 30
0.000000
  70
    32
  0
VERTEX
  8
0
  5
1627A
 10
56.2801
 20
227.592
 30
0.000000
  70
    32
  0
VERTEX
  8
0
  5
1627B
 10
56.2878
 20
227.586
 30
0.000000
  70
    32
  0
VERTEX
  8
0
  5
1627C
 10
56.2955
 20
227.580
 30
0.000000
  70
    32
  0
VERTEX
  8
0
  5
1627D
 10
56.3033
 20
227.573
 30
0.000000
  70
    32
  0
VERTEX
  8
0
  5
1627E
 10
56.3112
 20
227.567
 30
0.000000
  70
    32
  0
VERTEX
  8
0
  5
1627F
 10
56.3192
 20
227.561
 30
0.000000
  70
    32
  0
VERTEX
  8
0
  5
16280
 10
56.3272
 20
227.555
 30
0.000000
  70
    32
  0
VERTEX
  8
0
  5
16281
 10
56.3353
 20
227.548
 30
0.000000
  70
    32
  0
VERTEX
  8
0
  5
16282
 10
56.3435
 20
227.542
 30
0.000000
  70
    32
  0
VERTEX
  8
0
  5
16283
 10
56.3518
 20
227.536
 30
0.000000
  70
    32
  0
VERTEX
  8
0
  5
16284
 10
56.3601
 20
227.530
 30
0.000000
  70
    32
  0
VERTEX
  8
0
  5
16285
 10
56.3685
 20
227.524
 30
0.000000
  70
    32
  0
VERTEX
  8
0
  5
16286
 10
56.3770
 20
227.517
 30
0.000000
  70
    32
  0
VERTEX
  8
0
  5
16287
 10
56.3856
 20
227.511
 30
0.000000
  70
    32
  0
VERTEX
  8
0
  5
16288
 10
56.3942
 20
227.505
 30
0.000000
  70
    32
  0
VERTEX
  8
0
  5
16289
 10
56.4030
 20
227.499
 30
0.000000
  70
    32
  0
VERTEX
  8
0
  5
1628A
 10
56.4117
 20
227.493
 30
0.000000
  70
    32
  0
VERTEX
  8
0
  5
1628B
 10
56.4206
 20
227.486
 30
0.000000
  70
    32
  0
VERTEX
  8
0
  5
1628C
 10
56.4295
 20
227.480
 30
0.000000
  70
    32
  0
VERTEX
  8
0
  5
1628D
 10
56.4386
 20
227.474
 30
0.000000
  70
    32
  0
VERTEX
  8
0
  5
1628E
 10
56.4476
 20
227.468
 30
0.000000
  70
    32
  0
VERTEX
  8
0
  5
1628F
 10
56.4568
 20
227.462
 30
0.000000
  70
    32
  0
VERTEX
  8
0
  5
16290
 10
56.4660
 20
227.456
 30
0.000000
  70
    32
  0
VERTEX
  8
0
  5
16291
 10
56.4753
 20
227.450
 30
0.000000
  70
    32
  0
VERTEX
  8
0
  5
16292
 10
56.4847
 20
227.444
 30
0.000000
  70
    32
  0
VERTEX
  8
0
  5
16293
 10
56.4942
 20
227.437
 30
0.000000
  70
    32
  0
VERTEX
  8
0
  5
16294
 10
56.5037
 20
227.431
 30
0.000000
  70
    32
  0
SEQEND
  8
0
  5
16295
  0
LINE
  5
154F6
  8
0
 10
55.8063604102407
 20
228.25634318002551
 30
0.0
 11
55.908360410240682
 21
228.25634318002551
 31
0.0
  0
POLYLINE
  5
154F7
  8
0
 10
55.211006573772671
 20
227.4313603708527
 30
0.0
 66
     1
 70
     8
  0
VERTEX
  8
0
  5
16296
 10
55.2110
 20
227.431
 30
0.000000
  70
    32
  0
VERTEX
  8
0
  5
16297
 10
55.2205
 20
227.437
 30
0.000000
  70
    32
  0
VERTEX
  8
0
  5
16298
 10
55.2300
 20
227.444
 30
0.000000
  70
    32
  0
VERTEX
  8
0
  5
16299
 10
55.2394
 20
227.450
 30
0.000000
  70
    32
  0
VERTEX
  8
0
  5
1629A
 10
55.2487
 20
227.456
 30
0.000000
  70
    32
  0
VERTEX
  8
0
  5
1629B
 10
55.2579
 20
227.462
 30
0.000000
  70
    32
  0
VERTEX
  8
0
  5
1629C
 10
55.2671
 20
227.468
 30
0.000000
  70
    32
  0
VERTEX
  8
0
  5
1629D
 10
55.2762
 20
227.474
 30
0.000000
  70
    32
  0
VERTEX
  8
0
  5
1629E
 10
55.2852
 20
227.480
 30
0.000000
  70
    32
  0
VERTEX
  8
0
  5
1629F
 10
55.2941
 20
227.486
 30
0.000000
  70
    32
  0
VERTEX
  8
0
  5
162A0
 10
55.3030
 20
227.493
 30
0.000000
  70
    32
  0
VERTEX
  8
0
  5
162A1
 10
55.3118
 20
227.499
 30
0.000000
  70
    32
  0
VERTEX
  8
0
  5
162A2
 10
55.3205
 20
227.505
 30
0.000000
  70
    32
  0
VERTEX
  8
0
  5
162A3
 10
55.3291
 20
227.511
 30
0.000000
  70
    32
  0
VERTEX
  8
0
  5
162A4
 10
55.3377
 20
227.517
 30
0.000000
  70
    32
  0
VERTEX
  8
0
  5
162A5
 10
55.3462
 20
227.524
 30
0.000000
  70
    32
  0
VERTEX
  8
0
  5
162A6
 10
55.3546
 20
227.530
 30
0.000000
  70
    32
  0
VERTEX
  8
0
  5
162A7
 10
55.3629
 20
227.536
 30
0.000000
  70
    32
  0
VERTEX
  8
0
  5
162A8
 10
55.3712
 20
227.542
 30
0.000000
  70
    32
  0
VERTEX
  8
0
  5
162A9
 10
55.3794
 20
227.548
 30
0.000000
  70
    32
  0
VERTEX
  8
0
  5
162AA
 10
55.3875
 20
227.555
 30
0.000000
  70
    32
  0
VERTEX
  8
0
  5
162AB
 10
55.3955
 20
227.561
 30
0.000000
  70
    32
  0
VERTEX
  8
0
  5
162AC
 10
55.4035
 20
227.567
 30
0.000000
  70
    32
  0
VERTEX
  8
0
  5
162AD
 10
55.4114
 20
227.573
 30
0.000000
  70
    32
  0
VERTEX
  8
0
  5
162AE
 10
55.4192
 20
227.580
 30
0.000000
  70
    32
  0
VERTEX
  8
0
  5
162AF
 10
55.4269
 20
227.586
 30
0.000000
  70
    32
  0
VERTEX
  8
0
  5
162B0
 10
55.4346
 20
227.592
 30
0.000000
  70
    32
  0
VERTEX
  8
0
  5
162B1
 10
55.4422
 20
227.599
 30
0.000000
  70
    32
  0
VERTEX
  8
0
  5
162B2
 10
55.4497
 20
227.605
 30
0.000000
  70
    32
  0
VERTEX
  8
0
  5
162B3
 10
55.4571
 20
227.611
 30
0.000000
  70
    32
  0
VERTEX
  8
0
  5
162B4
 10
55.4645
 20
227.618
 30
0.000000
  70
    32
  0
VERTEX
  8
0
  5
162B5
 10
55.4717
 20
227.624
 30
0.000000
  70
    32
  0
VERTEX
  8
0
  5
162B6
 10
55.4790
 20
227.630
 30
0.000000
  70
    32
  0
VERTEX
  8
0
  5
162B7
 10
55.4861
 20
227.636
 30
0.000000
  70
    32
  0
VERTEX
  8
0
  5
162B8
 10
55.4931
 20
227.643
 30
0.000000
  70
    32
  0
VERTEX
  8
0
  5
162B9
 10
55.5001
 20
227.649
 30
0.000000
  70
    32
  0
VERTEX
  8
0
  5
162BA
 10
55.5070
 20
227.656
 30
0.000000
  70
    32
  0
VERTEX
  8
0
  5
162BB
 10
55.5138
 20
227.662
 30
0.000000
  70
    32
  0
VERTEX
  8
0
  5
162BC
 10
55.5206
 20
227.668
 30
0.000000
  70
    32
  0
VERTEX
  8
0
  5
162BD
 10
55.5272
 20
227.675
 30
0.000000
  70
    32
  0
VERTEX
  8
0
  5
162BE
 10
55.5338
 20
227.681
 30
0.000000
  70
    32
  0
VERTEX
  8
0
  5
162BF
 10
55.5403
 20
227.687
 30
0.000000
  70
    32
  0
VERTEX
  8
0
  5
162C0
 10
55.5468
 20
227.694
 30
0.000000
  70
    32
  0
VERTEX
  8
0
  5
162C1
 10
55.5531
 20
227.700
 30
0.000000
  70
    32
  0
VERTEX
  8
0
  5
162C2
 10
55.5594
 20
227.706
 30
0.000000
  70
    32
  0
VERTEX
  8
0
  5
162C3
 10
55.5656
 20
227.713
 30
0.000000
  70
    32
  0
VERTEX
  8
0
  5
162C4
 10
55.5717
 20
227.719
 30
0.000000
  70
    32
  0
VERTEX
  8
0
  5
162C5
 10
55.5778
 20
227.726
 30
0.000000
  70
    32
  0
VERTEX
  8
0
  5
162C6
 10
55.5838
 20
227.732
 30
0.000000
  70
    32
  0
VERTEX
  8
0
  5
162C7
 10
55.5897
 20
227.739
 30
0.000000
  70
    32
  0
VERTEX
  8
0
  5
162C8
 10
55.5955
 20
227.745
 30
0.000000
  70
    32
  0
VERTEX
  8
0
  5
162C9
 10
55.6012
 20
227.751
 30
0.000000
  70
    32
  0
VERTEX
  8
0
  5
162CA
 10
55.6069
 20
227.758
 30
0.000000
  70
    32
  0
VERTEX
  8
0
  5
162CB
 10
55.6125
 20
227.764
 30
0.000000
  70
    32
  0
VERTEX
  8
0
  5
162CC
 10
55.6180
 20
227.771
 30
0.000000
  70
    32
  0
VERTEX
  8
0
  5
162CD
 10
55.6234
 20
227.777
 30
0.000000
  70
    32
  0
VERTEX
  8
0
  5
162CE
 10
55.6287
 20
227.784
 30
0.000000
  70
    32
  0
VERTEX
  8
0
  5
162CF
 10
55.6340
 20
227.790
 30
0.000000
  70
    32
  0
VERTEX
  8
0
  5
162D0
 10
55.6392
 20
227.797
 30
0.000000
  70
    32
  0
VERTEX
  8
0
  5
162D1
 10
55.6443
 20
227.803
 30
0.000000
  70
    32
  0
VERTEX
  8
0
  5
162D2
 10
55.6494
 20
227.809
 30
0.000000
  70
    32
  0
VERTEX
  8
0
  5
162D3
 10
55.6543
 20
227.816
 30
0.000000
  70
    32
  0
VERTEX
  8
0
  5
162D4
 10
55.6592
 20
227.822
 30
0.000000
  70
    32
  0
VERTEX
  8
0
  5
162D5
 10
55.6640
 20
227.829
 30
0.000000
  70
    32
  0
VERTEX
  8
0
  5
162D6
 10
55.6687
 20
227.835
 30
0.000000
  70
    32
  0
VERTEX
  8
0
  5
162D7
 10
55.6734
 20
227.842
 30
0.000000
  70
    32
  0
VERTEX
  8
0
  5
162D8
 10
55.6779
 20
227.848
 30
0.000000
  70
    32
  0
VERTEX
  8
0
  5
162D9
 10
55.6824
 20
227.855
 30
0.000000
  70
    32
  0
VERTEX
  8
0
  5
162DA
 10
55.6868
 20
227.861
 30
0.000000
  70
    32
  0
VERTEX
  8
0
  5
162DB
 10
55.6912
 20
227.868
 30
0.000000
  70
    32
  0
VERTEX
  8
0
  5
162DC
 10
55.6954
 20
227.874
 30
0.000000
  70
    32
  0
VERTEX
  8
0
  5
162DD
 10
55.6996
 20
227.881
 30
0.000000
  70
    32
  0
VERTEX
  8
0
  5
162DE
 10
55.7037
 20
227.887
 30
0.000000
  70
    32
  0
VERTEX
  8
0
  5
162DF
 10
55.7077
 20
227.894
 30
0.000000
  70
    32
  0
VERTEX
  8
0
  5
162E0
 10
55.7116
 20
227.901
 30
0.000000
  70
    32
  0
VERTEX
  8
0
  5
162E1
 10
55.7155
 20
227.907
 30
0.000000
  70
    32
  0
VERTEX
  8
0
  5
162E2
 10
55.7193
 20
227.914
 30
0.000000
  70
    32
  0
VERTEX
  8
0
  5
162E3
 10
55.7230
 20
227.920
 30
0.000000
  70
    32
  0
VERTEX
  8
0
  5
162E4
 10
55.7266
 20
227.927
 30
0.000000
  70
    32
  0
VERTEX
  8
0
  5
162E5
 10
55.7302
 20
227.933
 30
0.000000
  70
    32
  0
VERTEX
  8
0
  5
162E6
 10
55.7336
 20
227.940
 30
0.000000
  70
    32
  0
VERTEX
  8
0
  5
162E7
 10
55.7370
 20
227.946
 30
0.000000
  70
    32
  0
VERTEX
  8
0
  5
162E8
 10
55.7403
 20
227.953
 30
0.000000
  70
    32
  0
VERTEX
  8
0
  5
162E9
 10
55.7435
 20
227.959
 30
0.000000
  70
    32
  0
VERTEX
  8
0
  5
162EA
 10
55.7467
 20
227.966
 30
0.000000
  70
    32
  0
VERTEX
  8
0
  5
162EB
 10
55.7498
 20
227.973
 30
0.000000
  70
    32
  0
VERTEX
  8
0
  5
162EC
 10
55.7527
 20
227.979
 30
0.000000
  70
    32
  0
VERTEX
  8
0
  5
162ED
 10
55.7556
 20
227.986
 30
0.000000
  70
    32
  0
VERTEX
  8
0
  5
162EE
 10
55.7585
 20
227.992
 30
0.000000
  70
    32
  0
VERTEX
  8
0
  5
162EF
 10
55.7612
 20
227.999
 30
0.000000
  70
    32
  0
VERTEX
  8
0
  5
162F0
 10
55.7639
 20
228.005
 30
0.000000
  70
    32
  0
VERTEX
  8
0
  5
162F1
 10
55.7665
 20
228.012
 30
0.000000
  70
    32
  0
VERTEX
  8
0
  5
162F2
 10
55.7690
 20
228.019
 30
0.000000
  70
    32
  0
VERTEX
  8
0
  5
162F3
 10
55.7714
 20
228.025
 30
0.000000
  70
    32
  0
VERTEX
  8
0
  5
162F4
 10
55.7738
 20
228.032
 30
0.000000
  70
    32
  0
VERTEX
  8
0
  5
162F5
 10
55.7761
 20
228.038
 30
0.000000
  70
    32
  0
VERTEX
  8
0
  5
162F6
 10
55.7783
 20
228.045
 30
0.000000
  70
    32
  0
VERTEX
  8
0
  5
162F7
 10
55.7804
 20
228.051
 30
0.000000
  70
    32
  0
VERTEX
  8
0
  5
162F8
 10
55.7824
 20
228.058
 30
0.000000
  70
    32
  0
VERTEX
  8
0
  5
162F9
 10
55.7844
 20
228.065
 30
0.000000
  70
    32
  0
VERTEX
  8
0
  5
162FA
 10
55.7862
 20
228.071
 30
0.000000
  70
    32
  0
VERTEX
  8
0
  5
162FB
 10
55.7880
 20
228.078
 30
0.000000
  70
    32
  0
VERTEX
  8
0
  5
162FC
 10
55.7898
 20
228.084
 30
0.000000
  70
    32
  0
VERTEX
  8
0
  5
162FD
 10
55.7914
 20
228.091
 30
0.000000
  70
    32
  0
VERTEX
  8
0
  5
162FE
 10
55.7929
 20
228.098
 30
0.000000
  70
    32
  0
VERTEX
  8
0
  5
162FF
 10
55.7944
 20
228.104
 30
0.000000
  70
    32
  0
VERTEX
  8
0
  5
16300
 10
55.7958
 20
228.111
 30
0.000000
  70
    32
  0
VERTEX
  8
0
  5
16301
 10
55.7971
 20
228.117
 30
0.000000
  70
    32
  0
VERTEX
  8
0
  5
16302
 10
55.7984
 20
228.124
 30
0.000000
  70
    32
  0
VERTEX
  8
0
  5
16303
 10
55.7995
 20
228.131
 30
0.000000
  70
    32
  0
VERTEX
  8
0
  5
16304
 10
55.8006
 20
228.137
 30
0.000000
  70
    32
  0
VERTEX
  8
0
  5
16305
 10
55.8016
 20
228.144
 30
0.000000
  70
    32
  0
VERTEX
  8
0
  5
16306
 10
55.8025
 20
228.151
 30
0.000000
  70
    32
  0
VERTEX
  8
0
  5
16307
 10
55.8034
 20
228.157
 30
0.000000
  70
    32
  0
VERTEX
  8
0
  5
16308
 10
55.8041
 20
228.164
 30
0.000000
  70
    32
  0
VERTEX
  8
0
  5
16309
 10
55.8048
 20
228.170
 30
0.000000
  70
    32
  0
VERTEX
  8
0
  5
1630A
 10
55.8054
 20
228.177
 30
0.000000
  70
    32
  0
VERTEX
  8
0
  5
1630B
 10
55.8059
 20
228.184
 30
0.000000
  70
    32
  0
VERTEX
  8
0
  5
1630C
 10
55.8064
 20
228.190
 30
0.000000
  70
    32
  0
VERTEX
  8
0
  5
1630D
 10
55.8067
 20
228.197
 30
0.000000
  70
    32
  0
VERTEX
  8
0
  5
1630E
 10
55.8070
 20
228.203
 30
0.000000
  70
    32
  0
VERTEX
  8
0
  5
1630F
 10
55.8072
 20
228.210
 30
0.000000
  70
    32
  0
VERTEX
  8
0
  5
16310
 10
55.8073
 20
228.217
 30
0.000000
  70
    32
  0
VERTEX
  8
0
  5
16311
 10
55.8074
 20
228.223
 30
0.000000
  70
    32
  0
VERTEX
  8
0
  5
16312
 10
55.8073
 20
228.230
 30
0.000000
  70
    32
  0
VERTEX
  8
0
  5
16313
 10
55.8072
 20
228.237
 30
0.000000
  70
    32
  0
VERTEX
  8
0
  5
16314
 10
55.8070
 20
228.243
 30
0.000000
  70
    32
  0
VERTEX
  8
0
  5
16315
 10
55.8067
 20
228.250
 30
0.000000
  70
    32
  0
VERTEX
  8
0
  5
16316
 10
55.8064
 20
228.256
 30
0.000000
  70
    32
  0
SEQEND
  8
0
  5
16317
  0
LINE
  5
154F8
  8
0
 10
48.254929634552923
 20
223.0041278157025
 30
0.0
 11
55.211006573772579
 21
227.43136037085259
 31
0.0
  0
POLYLINE
  5
154F9
  8
0
 10
48.254929634552852
 20
223.0041278157025
 30
0.0
 66
     1
 70
     8
  0
VERTEX
  8
0
  5
16318
 10
48.2549
 20
223.004
 30
0.000000
  70
    32
  0
VERTEX
  8
0
  5
16319
 10
48.2488
 20
223.000
 30
0.000000
  70
    32
  0
VERTEX
  8
0
  5
1631A
 10
48.2428
 20
222.996
 30
0.000000
  70
    32
  0
VERTEX
  8
0
  5
1631B
 10
48.2367
 20
222.992
 30
0.000000
  70
    32
  0
VERTEX
  8
0
  5
1631C
 10
48.2308
 20
222.988
 30
0.000000
  70
    32
  0
VERTEX
  8
0
  5
1631D
 10
48.2249
 20
222.985
 30
0.000000
  70
    32
  0
VERTEX
  8
0
  5
1631E
 10
48.2190
 20
222.981
 30
0.000000
  70
    32
  0
VERTEX
  8
0
  5
1631F
 10
48.2131
 20
222.977
 30
0.000000
  70
    32
  0
VERTEX
  8
0
  5
16320
 10
48.2074
 20
222.973
 30
0.000000
  70
    32
  0
VERTEX
  8
0
  5
16321
 10
48.2016
 20
222.969
 30
0.000000
  70
    32
  0
VERTEX
  8
0
  5
16322
 10
48.1959
 20
222.965
 30
0.000000
  70
    32
  0
VERTEX
  8
0
  5
16323
 10
48.1903
 20
222.961
 30
0.000000
  70
    32
  0
VERTEX
  8
0
  5
16324
 10
48.1847
 20
222.957
 30
0.000000
  70
    32
  0
VERTEX
  8
0
  5
16325
 10
48.1791
 20
222.953
 30
0.000000
  70
    32
  0
VERTEX
  8
0
  5
16326
 10
48.1736
 20
222.949
 30
0.000000
  70
    32
  0
VERTEX
  8
0
  5
16327
 10
48.1681
 20
222.945
 30
0.000000
  70
    32
  0
VERTEX
  8
0
  5
16328
 10
48.1627
 20
222.941
 30
0.000000
  70
    32
  0
VERTEX
  8
0
  5
16329
 10
48.1573
 20
222.937
 30
0.000000
  70
    32
  0
VERTEX
  8
0
  5
1632A
 10
48.1520
 20
222.933
 30
0.000000
  70
    32
  0
VERTEX
  8
0
  5
1632B
 10
48.1467
 20
222.929
 30
0.000000
  70
    32
  0
VERTEX
  8
0
  5
1632C
 10
48.1415
 20
222.925
 30
0.000000
  70
    32
  0
VERTEX
  8
0
  5
1632D
 10
48.1363
 20
222.921
 30
0.000000
  70
    32
  0
VERTEX
  8
0
  5
1632E
 10
48.1312
 20
222.917
 30
0.000000
  70
    32
  0
VERTEX
  8
0
  5
1632F
 10
48.1261
 20
222.913
 30
0.000000
  70
    32
  0
VERTEX
  8
0
  5
16330
 10
48.1210
 20
222.909
 30
0.000000
  70
    32
  0
VERTEX
  8
0
  5
16331
 10
48.1160
 20
222.905
 30
0.000000
  70
    32
  0
VERTEX
  8
0
  5
16332
 10
48.1111
 20
222.901
 30
0.000000
  70
    32
  0
VERTEX
  8
0
  5
16333
 10
48.1062
 20
222.897
 30
0.000000
  70
    32
  0
VERTEX
  8
0
  5
16334
 10
48.1013
 20
222.893
 30
0.000000
  70
    32
  0
VERTEX
  8
0
  5
16335
 10
48.0965
 20
222.889
 30
0.000000
  70
    32
  0
VERTEX
  8
0
  5
16336
 10
48.0917
 20
222.885
 30
0.000000
  70
    32
  0
VERTEX
  8
0
  5
16337
 10
48.0870
 20
222.881
 30
0.000000
  70
    32
  0
VERTEX
  8
0
  5
16338
 10
48.0823
 20
222.877
 30
0.000000
  70
    32
  0
VERTEX
  8
0
  5
16339
 10
48.0777
 20
222.873
 30
0.000000
  70
    32
  0
VERTEX
  8
0
  5
1633A
 10
48.0731
 20
222.869
 30
0.000000
  70
    32
  0
VERTEX
  8
0
  5
1633B
 10
48.0686
 20
222.865
 30
0.000000
  70
    32
  0
VERTEX
  8
0
  5
1633C
 10
48.0641
 20
222.861
 30
0.000000
  70
    32
  0
VERTEX
  8
0
  5
1633D
 10
48.0596
 20
222.857
 30
0.000000
  70
    32
  0
VERTEX
  8
0
  5
1633E
 10
48.0553
 20
222.853
 30
0.000000
  70
    32
  0
VERTEX
  8
0
  5
1633F
 10
48.0509
 20
222.848
 30
0.000000
  70
    32
  0
VERTEX
  8
0
  5
16340
 10
48.0466
 20
222.844
 30
0.000000
  70
    32
  0
VERTEX
  8
0
  5
16341
 10
48.0424
 20
222.840
 30
0.000000
  70
    32
  0
VERTEX
  8
0
  5
16342
 10
48.0382
 20
222.836
 30
0.000000
  70
    32
  0
VERTEX
  8
0
  5
16343
 10
48.0340
 20
222.832
 30
0.000000
  70
    32
  0
VERTEX
  8
0
  5
16344
 10
48.0299
 20
222.828
 30
0.000000
  70
    32
  0
VERTEX
  8
0
  5
16345
 10
48.0258
 20
222.824
 30
0.000000
  70
    32
  0
VERTEX
  8
0
  5
16346
 10
48.0218
 20
222.820
 30
0.000000
  70
    32
  0
VERTEX
  8
0
  5
16347
 10
48.0179
 20
222.816
 30
0.000000
  70
    32
  0
VERTEX
  8
0
  5
16348
 10
48.0139
 20
222.812
 30
0.000000
  70
    32
  0
VERTEX
  8
0
  5
16349
 10
48.0101
 20
222.808
 30
0.000000
  70
    32
  0
VERTEX
  8
0
  5
1634A
 10
48.0062
 20
222.803
 30
0.000000
  70
    32
  0
VERTEX
  8
0
  5
1634B
 10
48.0025
 20
222.799
 30
0.000000
  70
    32
  0
VERTEX
  8
0
  5
1634C
 10
47.9987
 20
222.795
 30
0.000000
  70
    32
  0
VERTEX
  8
0
  5
1634D
 10
47.9951
 20
222.791
 30
0.000000
  70
    32
  0
VERTEX
  8
0
  5
1634E
 10
47.9914
 20
222.787
 30
0.000000
  70
    32
  0
VERTEX
  8
0
  5
1634F
 10
47.9879
 20
222.783
 30
0.000000
  70
    32
  0
VERTEX
  8
0
  5
16350
 10
47.9843
 20
222.779
 30
0.000000
  70
    32
  0
VERTEX
  8
0
  5
16351
 10
47.9808
 20
222.775
 30
0.000000
  70
    32
  0
VERTEX
  8
0
  5
16352
 10
47.9774
 20
222.770
 30
0.000000
  70
    32
  0
VERTEX
  8
0
  5
16353
 10
47.9740
 20
222.766
 30
0.000000
  70
    32
  0
VERTEX
  8
0
  5
16354
 10
47.9707
 20
222.762
 30
0.000000
  70
    32
  0
VERTEX
  8
0
  5
16355
 10
47.9674
 20
222.758
 30
0.000000
  70
    32
  0
VERTEX
  8
0
  5
16356
 10
47.9641
 20
222.754
 30
0.000000
  70
    32
  0
VERTEX
  8
0
  5
16357
 10
47.9609
 20
222.750
 30
0.000000
  70
    32
  0
VERTEX
  8
0
  5
16358
 10
47.9578
 20
222.746
 30
0.000000
  70
    32
  0
VERTEX
  8
0
  5
16359
 10
47.9547
 20
222.741
 30
0.000000
  70
    32
  0
VERTEX
  8
0
  5
1635A
 10
47.9516
 20
222.737
 30
0.000000
  70
    32
  0
VERTEX
  8
0
  5
1635B
 10
47.9486
 20
222.733
 30
0.000000
  70
    32
  0
VERTEX
  8
0
  5
1635C
 10
47.9456
 20
222.729
 30
0.000000
  70
    32
  0
VERTEX
  8
0
  5
1635D
 10
47.9427
 20
222.725
 30
0.000000
  70
    32
  0
VERTEX
  8
0
  5
1635E
 10
47.9399
 20
222.721
 30
0.000000
  70
    32
  0
VERTEX
  8
0
  5
1635F
 10
47.9371
 20
222.716
 30
0.000000
  70
    32
  0
VERTEX
  8
0
  5
16360
 10
47.9343
 20
222.712
 30
0.000000
  70
    32
  0
VERTEX
  8
0
  5
16361
 10
47.9316
 20
222.708
 30
0.000000
  70
    32
  0
VERTEX
  8
0
  5
16362
 10
47.9289
 20
222.704
 30
0.000000
  70
    32
  0
VERTEX
  8
0
  5
16363
 10
47.9263
 20
222.700
 30
0.000000
  70
    32
  0
VERTEX
  8
0
  5
16364
 10
47.9237
 20
222.696
 30
0.000000
  70
    32
  0
VERTEX
  8
0
  5
16365
 10
47.9212
 20
222.691
 30
0.000000
  70
    32
  0
VERTEX
  8
0
  5
16366
 10
47.9187
 20
222.687
 30
0.000000
  70
    32
  0
VERTEX
  8
0
  5
16367
 10
47.9163
 20
222.683
 30
0.000000
  70
    32
  0
VERTEX
  8
0
  5
16368
 10
47.9139
 20
222.679
 30
0.000000
  70
    32
  0
VERTEX
  8
0
  5
16369
 10
47.9116
 20
222.675
 30
0.000000
  70
    32
  0
VERTEX
  8
0
  5
1636A
 10
47.9093
 20
222.670
 30
0.000000
  70
    32
  0
VERTEX
  8
0
  5
1636B
 10
47.9071
 20
222.666
 30
0.000000
  70
    32
  0
VERTEX
  8
0
  5
1636C
 10
47.9049
 20
222.662
 30
0.000000
  70
    32
  0
VERTEX
  8
0
  5
1636D
 10
47.9028
 20
222.658
 30
0.000000
  70
    32
  0
VERTEX
  8
0
  5
1636E
 10
47.9007
 20
222.654
 30
0.000000
  70
    32
  0
VERTEX
  8
0
  5
1636F
 10
47.8986
 20
222.649
 30
0.000000
  70
    32
  0
VERTEX
  8
0
  5
16370
 10
47.8967
 20
222.645
 30
0.000000
  70
    32
  0
VERTEX
  8
0
  5
16371
 10
47.8947
 20
222.641
 30
0.000000
  70
    32
  0
VERTEX
  8
0
  5
16372
 10
47.8928
 20
222.637
 30
0.000000
  70
    32
  0
VERTEX
  8
0
  5
16373
 10
47.8910
 20
222.633
 30
0.000000
  70
    32
  0
VERTEX
  8
0
  5
16374
 10
47.8892
 20
222.628
 30
0.000000
  70
    32
  0
VERTEX
  8
0
  5
16375
 10
47.8875
 20
222.624
 30
0.000000
  70
    32
  0
VERTEX
  8
0
  5
16376
 10
47.8858
 20
222.620
 30
0.000000
  70
    32
  0
VERTEX
  8
0
  5
16377
 10
47.8841
 20
222.616
 30
0.000000
  70
    32
  0
VERTEX
  8
0
  5
16378
 10
47.8825
 20
222.612
 30
0.000000
  70
    32
  0
VERTEX
  8
0
  5
16379
 10
47.8810
 20
222.607
 30
0.000000
  70
    32
  0
VERTEX
  8
0
  5
1637A
 10
47.8795
 20
222.603
 30
0.000000
  70
    32
  0
VERTEX
  8
0
  5
1637B
 10
47.8780
 20
222.599
 30
0.000000
  70
    32
  0
VERTEX
  8
0
  5
1637C
 10
47.8766
 20
222.595
 30
0.000000
  70
    32
  0
VERTEX
  8
0
  5
1637D
 10
47.8753
 20
222.590
 30
0.000000
  70
    32
  0
VERTEX
  8
0
  5
1637E
 10
47.8740
 20
222.586
 30
0.000000
  70
    32
  0
VERTEX
  8
0
  5
1637F
 10
47.8727
 20
222.582
 30
0.000000
  70
    32
  0
VERTEX
  8
0
  5
16380
 10
47.8715
 20
222.578
 30
0.000000
  70
    32
  0
VERTEX
  8
0
  5
16381
 10
47.8704
 20
222.574
 30
0.000000
  70
    32
  0
VERTEX
  8
0
  5
16382
 10
47.8693
 20
222.569
 30
0.000000
  70
    32
  0
VERTEX
  8
0
  5
16383
 10
47.8682
 20
222.565
 30
0.000000
  70
    32
  0
VERTEX
  8
0
  5
16384
 10
47.8672
 20
222.561
 30
0.000000
  70
    32
  0
VERTEX
  8
0
  5
16385
 10
47.8662
 20
222.557
 30
0.000000
  70
    32
  0
VERTEX
  8
0
  5
16386
 10
47.8653
 20
222.552
 30
0.000000
  70
    32
  0
VERTEX
  8
0
  5
16387
 10
47.8645
 20
222.548
 30
0.000000
  70
    32
  0
VERTEX
  8
0
  5
16388
 10
47.8637
 20
222.544
 30
0.000000
  70
    32
  0
VERTEX
  8
0
  5
16389
 10
47.8629
 20
222.540
 30
0.000000
  70
    32
  0
VERTEX
  8
0
  5
1638A
 10
47.8622
 20
222.536
 30
0.000000
  70
    32
  0
VERTEX
  8
0
  5
1638B
 10
47.8615
 20
222.531
 30
0.000000
  70
    32
  0
VERTEX
  8
0
  5
1638C
 10
47.8609
 20
222.527
 30
0.000000
  70
    32
  0
VERTEX
  8
0
  5
1638D
 10
47.8603
 20
222.523
 30
0.000000
  70
    32
  0
VERTEX
  8
0
  5
1638E
 10
47.8598
 20
222.519
 30
0.000000
  70
    32
  0
VERTEX
  8
0
  5
1638F
 10
47.8594
 20
222.514
 30
0.000000
  70
    32
  0
VERTEX
  8
0
  5
16390
 10
47.8589
 20
222.510
 30
0.000000
  70
    32
  0
VERTEX
  8
0
  5
16391
 10
47.8586
 20
222.506
 30
0.000000
  70
    32
  0
VERTEX
  8
0
  5
16392
 10
47.8582
 20
222.502
 30
0.000000
  70
    32
  0
VERTEX
  8
0
  5
16393
 10
47.8580
 20
222.497
 30
0.000000
  70
    32
  0
VERTEX
  8
0
  5
16394
 10
47.8578
 20
222.493
 30
0.000000
  70
    32
  0
VERTEX
  8
0
  5
16395
 10
47.8576
 20
222.489
 30
0.000000
  70
    32
  0
VERTEX
  8
0
  5
16396
 10
47.8575
 20
222.485
 30
0.000000
  70
    32
  0
VERTEX
  8
0
  5
16397
 10
47.8574
 20
222.480
 30
0.000000
  70
    32
  0
VERTEX
  8
0
  5
16398
 10
47.8574
 20
222.476
 30
0.000000
  70
    32
  0
SEQEND
  8
0
  5
16399
  0
POLYLINE
  5
154FA
  8
0
 10
45.989012748438405
 20
223.2901918815399
 30
0.0
 66
     1
 70
     8
  0
VERTEX
  8
0
  5
1639A
 10
45.9890
 20
223.290
 30
0.000000
  70
    32
  0
VERTEX
  8
0
  5
1639B
 10
45.9793
 20
223.284
 30
0.000000
  70
    32
  0
VERTEX
  8
0
  5
1639C
 10
45.9697
 20
223.278
 30
0.000000
  70
    32
  0
VERTEX
  8
0
  5
1639D
 10
45.9601
 20
223.272
 30
0.000000
  70
    32
  0
VERTEX
  8
0
  5
1639E
 10
45.9507
 20
223.266
 30
0.000000
  70
    32
  0
VERTEX
  8
0
  5
1639F
 10
45.9413
 20
223.260
 30
0.000000
  70
    32
  0
VERTEX
  8
0
  5
163A0
 10
45.9319
 20
223.254
 30
0.000000
  70
    32
  0
VERTEX
  8
0
  5
163A1
 10
45.9227
 20
223.248
 30
0.000000
  70
    32
  0
VERTEX
  8
0
  5
163A2
 10
45.9135
 20
223.242
 30
0.000000
  70
    32
  0
VERTEX
  8
0
  5
163A3
 10
45.9044
 20
223.236
 30
0.000000
  70
    32
  0
VERTEX
  8
0
  5
163A4
 10
45.8953
 20
223.230
 30
0.000000
  70
    32
  0
VERTEX
  8
0
  5
163A5
 10
45.8864
 20
223.224
 30
0.000000
  70
    32
  0
VERTEX
  8
0
  5
163A6
 10
45.8775
 20
223.218
 30
0.000000
  70
    32
  0
VERTEX
  8
0
  5
163A7
 10
45.8686
 20
223.212
 30
0.000000
  70
    32
  0
VERTEX
  8
0
  5
163A8
 10
45.8599
 20
223.205
 30
0.000000
  70
    32
  0
VERTEX
  8
0
  5
163A9
 10
45.8512
 20
223.199
 30
0.000000
  70
    32
  0
VERTEX
  8
0
  5
163AA
 10
45.8426
 20
223.193
 30
0.000000
  70
    32
  0
VERTEX
  8
0
  5
163AB
 10
45.8341
 20
223.187
 30
0.000000
  70
    32
  0
VERTEX
  8
0
  5
163AC
 10
45.8256
 20
223.181
 30
0.000000
  70
    32
  0
VERTEX
  8
0
  5
163AD
 10
45.8172
 20
223.175
 30
0.000000
  70
    32
  0
VERTEX
  8
0
  5
163AE
 10
45.8089
 20
223.169
 30
0.000000
  70
    32
  0
VERTEX
  8
0
  5
163AF
 10
45.8007
 20
223.163
 30
0.000000
  70
    32
  0
VERTEX
  8
0
  5
163B0
 10
45.7925
 20
223.156
 30
0.000000
  70
    32
  0
VERTEX
  8
0
  5
163B1
 10
45.7844
 20
223.150
 30
0.000000
  70
    32
  0
VERTEX
  8
0
  5
163B2
 10
45.7764
 20
223.144
 30
0.000000
  70
    32
  0
VERTEX
  8
0
  5
163B3
 10
45.7684
 20
223.138
 30
0.000000
  70
    32
  0
VERTEX
  8
0
  5
163B4
 10
45.7606
 20
223.132
 30
0.000000
  70
    32
  0
VERTEX
  8
0
  5
163B5
 10
45.7528
 20
223.125
 30
0.000000
  70
    32
  0
VERTEX
  8
0
  5
163B6
 10
45.7450
 20
223.119
 30
0.000000
  70
    32
  0
VERTEX
  8
0
  5
163B7
 10
45.7374
 20
223.113
 30
0.000000
  70
    32
  0
VERTEX
  8
0
  5
163B8
 10
45.7298
 20
223.107
 30
0.000000
  70
    32
  0
VERTEX
  8
0
  5
163B9
 10
45.7223
 20
223.101
 30
0.000000
  70
    32
  0
VERTEX
  8
0
  5
163BA
 10
45.7149
 20
223.094
 30
0.000000
  70
    32
  0
VERTEX
  8
0
  5
163BB
 10
45.7075
 20
223.088
 30
0.000000
  70
    32
  0
VERTEX
  8
0
  5
163BC
 10
45.7003
 20
223.082
 30
0.000000
  70
    32
  0
VERTEX
  8
0
  5
163BD
 10
45.6931
 20
223.076
 30
0.000000
  70
    32
  0
VERTEX
  8
0
  5
163BE
 10
45.6859
 20
223.069
 30
0.000000
  70
    32
  0
VERTEX
  8
0
  5
163BF
 10
45.6789
 20
223.063
 30
0.000000
  70
    32
  0
VERTEX
  8
0
  5
163C0
 10
45.6719
 20
223.057
 30
0.000000
  70
    32
  0
VERTEX
  8
0
  5
163C1
 10
45.6650
 20
223.051
 30
0.000000
  70
    32
  0
VERTEX
  8
0
  5
163C2
 10
45.6582
 20
223.044
 30
0.000000
  70
    32
  0
VERTEX
  8
0
  5
163C3
 10
45.6514
 20
223.038
 30
0.000000
  70
    32
  0
VERTEX
  8
0
  5
163C4
 10
45.6447
 20
223.032
 30
0.000000
  70
    32
  0
VERTEX
  8
0
  5
163C5
 10
45.6381
 20
223.025
 30
0.000000
  70
    32
  0
VERTEX
  8
0
  5
163C6
 10
45.6316
 20
223.019
 30
0.000000
  70
    32
  0
VERTEX
  8
0
  5
163C7
 10
45.6252
 20
223.013
 30
0.000000
  70
    32
  0
VERTEX
  8
0
  5
163C8
 10
45.6188
 20
223.007
 30
0.000000
  70
    32
  0
VERTEX
  8
0
  5
163C9
 10
45.6125
 20
223.000
 30
0.000000
  70
    32
  0
VERTEX
  8
0
  5
163CA
 10
45.6063
 20
222.994
 30
0.000000
  70
    32
  0
VERTEX
  8
0
  5
163CB
 10
45.6001
 20
222.988
 30
0.000000
  70
    32
  0
VERTEX
  8
0
  5
163CC
 10
45.5940
 20
222.981
 30
0.000000
  70
    32
  0
VERTEX
  8
0
  5
163CD
 10
45.5880
 20
222.975
 30
0.000000
  70
    32
  0
VERTEX
  8
0
  5
163CE
 10
45.5821
 20
222.969
 30
0.000000
  70
    32
  0
VERTEX
  8
0
  5
163CF
 10
45.5763
 20
222.962
 30
0.000000
  70
    32
  0
VERTEX
  8
0
  5
163D0
 10
45.5705
 20
222.956
 30
0.000000
  70
    32
  0
VERTEX
  8
0
  5
163D1
 10
45.5648
 20
222.950
 30
0.000000
  70
    32
  0
VERTEX
  8
0
  5
163D2
 10
45.5592
 20
222.943
 30
0.000000
  70
    32
  0
VERTEX
  8
0
  5
163D3
 10
45.5536
 20
222.937
 30
0.000000
  70
    32
  0
VERTEX
  8
0
  5
163D4
 10
45.5482
 20
222.930
 30
0.000000
  70
    32
  0
VERTEX
  8
0
  5
163D5
 10
45.5428
 20
222.924
 30
0.000000
  70
    32
  0
VERTEX
  8
0
  5
163D6
 10
45.5375
 20
222.918
 30
0.000000
  70
    32
  0
VERTEX
  8
0
  5
163D7
 10
45.5322
 20
222.911
 30
0.000000
  70
    32
  0
VERTEX
  8
0
  5
163D8
 10
45.5271
 20
222.905
 30
0.000000
  70
    32
  0
VERTEX
  8
0
  5
163D9
 10
45.5220
 20
222.898
 30
0.000000
  70
    32
  0
VERTEX
  8
0
  5
163DA
 10
45.5170
 20
222.892
 30
0.000000
  70
    32
  0
VERTEX
  8
0
  5
163DB
 10
45.5120
 20
222.886
 30
0.000000
  70
    32
  0
VERTEX
  8
0
  5
163DC
 10
45.5072
 20
222.879
 30
0.000000
  70
    32
  0
VERTEX
  8
0
  5
163DD
 10
45.5024
 20
222.873
 30
0.000000
  70
    32
  0
VERTEX
  8
0
  5
163DE
 10
45.4977
 20
222.866
 30
0.000000
  70
    32
  0
VERTEX
  8
0
  5
163DF
 10
45.4931
 20
222.860
 30
0.000000
  70
    32
  0
VERTEX
  8
0
  5
163E0
 10
45.4885
 20
222.854
 30
0.000000
  70
    32
  0
VERTEX
  8
0
  5
163E1
 10
45.4841
 20
222.847
 30
0.000000
  70
    32
  0
VERTEX
  8
0
  5
163E2
 10
45.4797
 20
222.841
 30
0.000000
  70
    32
  0
VERTEX
  8
0
  5
163E3
 10
45.4753
 20
222.834
 30
0.000000
  70
    32
  0
VERTEX
  8
0
  5
163E4
 10
45.4711
 20
222.828
 30
0.000000
  70
    32
  0
VERTEX
  8
0
  5
163E5
 10
45.4669
 20
222.821
 30
0.000000
  70
    32
  0
VERTEX
  8
0
  5
163E6
 10
45.4629
 20
222.815
 30
0.000000
  70
    32
  0
VERTEX
  8
0
  5
163E7
 10
45.4588
 20
222.808
 30
0.000000
  70
    32
  0
VERTEX
  8
0
  5
163E8
 10
45.4549
 20
222.802
 30
0.000000
  70
    32
  0
VERTEX
  8
0
  5
163E9
 10
45.4511
 20
222.796
 30
0.000000
  70
    32
  0
VERTEX
  8
0
  5
163EA
 10
45.4473
 20
222.789
 30
0.000000
  70
    32
  0
VERTEX
  8
0
  5
163EB
 10
45.4436
 20
222.783
 30
0.000000
  70
    32
  0
VERTEX
  8
0
  5
163EC
 10
45.4400
 20
222.776
 30
0.000000
  70
    32
  0
VERTEX
  8
0
  5
163ED
 10
45.4364
 20
222.770
 30
0.000000
  70
    32
  0
VERTEX
  8
0
  5
163EE
 10
45.4329
 20
222.763
 30
0.000000
  70
    32
  0
VERTEX
  8
0
  5
163EF
 10
45.4296
 20
222.757
 30
0.000000
  70
    32
  0
VERTEX
  8
0
  5
163F0
 10
45.4262
 20
222.750
 30
0.000000
  70
    32
  0
VERTEX
  8
0
  5
163F1
 10
45.4230
 20
222.744
 30
0.000000
  70
    32
  0
VERTEX
  8
0
  5
163F2
 10
45.4198
 20
222.737
 30
0.000000
  70
    32
  0
VERTEX
  8
0
  5
163F3
 10
45.4168
 20
222.731
 30
0.000000
  70
    32
  0
VERTEX
  8
0
  5
163F4
 10
45.4138
 20
222.724
 30
0.000000
  70
    32
  0
VERTEX
  8
0
  5
163F5
 10
45.4108
 20
222.718
 30
0.000000
  70
    32
  0
VERTEX
  8
0
  5
163F6
 10
45.4080
 20
222.711
 30
0.000000
  70
    32
  0
VERTEX
  8
0
  5
163F7
 10
45.4052
 20
222.705
 30
0.000000
  70
    32
  0
VERTEX
  8
0
  5
163F8
 10
45.4025
 20
222.698
 30
0.000000
  70
    32
  0
VERTEX
  8
0
  5
163F9
 10
45.3999
 20
222.692
 30
0.000000
  70
    32
  0
VERTEX
  8
0
  5
163FA
 10
45.3974
 20
222.685
 30
0.000000
  70
    32
  0
VERTEX
  8
0
  5
163FB
 10
45.3949
 20
222.679
 30
0.000000
  70
    32
  0
VERTEX
  8
0
  5
163FC
 10
45.3925
 20
222.672
 30
0.000000
  70
    32
  0
VERTEX
  8
0
  5
163FD
 10
45.3902
 20
222.666
 30
0.000000
  70
    32
  0
VERTEX
  8
0
  5
163FE
 10
45.3880
 20
222.659
 30
0.000000
  70
    32
  0
VERTEX
  8
0
  5
163FF
 10
45.3859
 20
222.653
 30
0.000000
  70
    32
  0
VERTEX
  8
0
  5
16400
 10
45.3838
 20
222.646
 30
0.000000
  70
    32
  0
VERTEX
  8
0
  5
16401
 10
45.3818
 20
222.640
 30
0.000000
  70
    32
  0
VERTEX
  8
0
  5
16402
 10
45.3799
 20
222.633
 30
0.000000
  70
    32
  0
VERTEX
  8
0
  5
16403
 10
45.3780
 20
222.627
 30
0.000000
  70
    32
  0
VERTEX
  8
0
  5
16404
 10
45.3763
 20
222.620
 30
0.000000
  70
    32
  0
VERTEX
  8
0
  5
16405
 10
45.3746
 20
222.614
 30
0.000000
  70
    32
  0
VERTEX
  8
0
  5
16406
 10
45.3730
 20
222.607
 30
0.000000
  70
    32
  0
VERTEX
  8
0
  5
16407
 10
45.3715
 20
222.600
 30
0.000000
  70
    32
  0
VERTEX
  8
0
  5
16408
 10
45.3700
 20
222.594
 30
0.000000
  70
    32
  0
VERTEX
  8
0
  5
16409
 10
45.3687
 20
222.587
 30
0.000000
  70
    32
  0
VERTEX
  8
0
  5
1640A
 10
45.3674
 20
222.581
 30
0.000000
  70
    32
  0
VERTEX
  8
0
  5
1640B
 10
45.3662
 20
222.574
 30
0.000000
  70
    32
  0
VERTEX
  8
0
  5
1640C
 10
45.3650
 20
222.568
 30
0.000000
  70
    32
  0
VERTEX
  8
0
  5
1640D
 10
45.3640
 20
222.561
 30
0.000000
  70
    32
  0
VERTEX
  8
0
  5
1640E
 10
45.3630
 20
222.555
 30
0.000000
  70
    32
  0
VERTEX
  8
0
  5
1640F
 10
45.3621
 20
222.548
 30
0.000000
  70
    32
  0
VERTEX
  8
0
  5
16410
 10
45.3613
 20
222.542
 30
0.000000
  70
    32
  0
VERTEX
  8
0
  5
16411
 10
45.3605
 20
222.535
 30
0.000000
  70
    32
  0
VERTEX
  8
0
  5
16412
 10
45.3599
 20
222.529
 30
0.000000
  70
    32
  0
VERTEX
  8
0
  5
16413
 10
45.3593
 20
222.522
 30
0.000000
  70
    32
  0
VERTEX
  8
0
  5
16414
 10
45.3588
 20
222.515
 30
0.000000
  70
    32
  0
VERTEX
  8
0
  5
16415
 10
45.3583
 20
222.509
 30
0.000000
  70
    32
  0
VERTEX
  8
0
  5
16416
 10
45.3580
 20
222.502
 30
0.000000
  70
    32
  0
VERTEX
  8
0
  5
16417
 10
45.3577
 20
222.496
 30
0.000000
  70
    32
  0
VERTEX
  8
0
  5
16418
 10
45.3575
 20
222.489
 30
0.000000
  70
    32
  0
VERTEX
  8
0
  5
16419
 10
45.3574
 20
222.483
 30
0.000000
  70
    32
  0
VERTEX
  8
0
  5
1641A
 10
45.3574
 20
222.476
 30
0.000000
  70
    32
  0
SEQEND
  8
0
  5
1641B
  0
LINE
  5
154FB
  8
0
 10
52.675708072043108
 20
227.40926026868439
 30
0.0
 11
45.989012748438419
 21
223.29019188154001
 31
0.0
  0
POLYLINE
  5
154FC
  8
0
 10
52.675708072043172
 20
227.40926026868448
 30
0.0
 66
     1
 70
     8
  0
VERTEX
  8
0
  5
1641C
 10
52.6757
 20
227.409
 30
0.000000
  70
    32
  0
VERTEX
  8
0
  5
1641D
 10
52.6854
 20
227.415
 30
0.000000
  70
    32
  0
VERTEX
  8
0
  5
1641E
 10
52.6950
 20
227.421
 30
0.000000
  70
    32
  0
VERTEX
  8
0
  5
1641F
 10
52.7046
 20
227.427
 30
0.000000
  70
    32
  0
VERTEX
  8
0
  5
16420
 10
52.7140
 20
227.433
 30
0.000000
  70
    32
  0
VERTEX
  8
0
  5
16421
 10
52.7235
 20
227.439
 30
0.000000
  70
    32
  0
VERTEX
  8
0
  5
16422
 10
52.7328
 20
227.445
 30
0.000000
  70
    32
  0
VERTEX
  8
0
  5
16423
 10
52.7420
 20
227.451
 30
0.000000
  70
    32
  0
VERTEX
  8
0
  5
16424
 10
52.7512
 20
227.457
 30
0.000000
  70
    32
  0
VERTEX
  8
0
  5
16425
 10
52.7604
 20
227.464
 30
0.000000
  70
    32
  0
VERTEX
  8
0
  5
16426
 10
52.7694
 20
227.470
 30
0.000000
  70
    32
  0
VERTEX
  8
0
  5
16427
 10
52.7784
 20
227.476
 30
0.000000
  70
    32
  0
VERTEX
  8
0
  5
16428
 10
52.7873
 20
227.482
 30
0.000000
  70
    32
  0
VERTEX
  8
0
  5
16429
 10
52.7961
 20
227.488
 30
0.000000
  70
    32
  0
VERTEX
  8
0
  5
1642A
 10
52.8048
 20
227.494
 30
0.000000
  70
    32
  0
VERTEX
  8
0
  5
1642B
 10
52.8135
 20
227.500
 30
0.000000
  70
    32
  0
VERTEX
  8
0
  5
1642C
 10
52.8221
 20
227.506
 30
0.000000
  70
    32
  0
VERTEX
  8
0
  5
1642D
 10
52.8307
 20
227.512
 30
0.000000
  70
    32
  0
VERTEX
  8
0
  5
1642E
 10
52.8391
 20
227.518
 30
0.000000
  70
    32
  0
VERTEX
  8
0
  5
1642F
 10
52.8475
 20
227.525
 30
0.000000
  70
    32
  0
VERTEX
  8
0
  5
16430
 10
52.8558
 20
227.531
 30
0.000000
  70
    32
  0
VERTEX
  8
0
  5
16431
 10
52.8641
 20
227.537
 30
0.000000
  70
    32
  0
VERTEX
  8
0
  5
16432
 10
52.8722
 20
227.543
 30
0.000000
  70
    32
  0
VERTEX
  8
0
  5
16433
 10
52.8803
 20
227.549
 30
0.000000
  70
    32
  0
VERTEX
  8
0
  5
16434
 10
52.8883
 20
227.555
 30
0.000000
  70
    32
  0
VERTEX
  8
0
  5
16435
 10
52.8963
 20
227.562
 30
0.000000
  70
    32
  0
VERTEX
  8
0
  5
16436
 10
52.9042
 20
227.568
 30
0.000000
  70
    32
  0
VERTEX
  8
0
  5
16437
 10
52.9120
 20
227.574
 30
0.000000
  70
    32
  0
VERTEX
  8
0
  5
16438
 10
52.9197
 20
227.580
 30
0.000000
  70
    32
  0
VERTEX
  8
0
  5
16439
 10
52.9273
 20
227.586
 30
0.000000
  70
    32
  0
VERTEX
  8
0
  5
1643A
 10
52.9349
 20
227.593
 30
0.000000
  70
    32
  0
VERTEX
  8
0
  5
1643B
 10
52.9424
 20
227.599
 30
0.000000
  70
    32
  0
VERTEX
  8
0
  5
1643C
 10
52.9498
 20
227.605
 30
0.000000
  70
    32
  0
VERTEX
  8
0
  5
1643D
 10
52.9572
 20
227.611
 30
0.000000
  70
    32
  0
VERTEX
  8
0
  5
1643E
 10
52.9645
 20
227.618
 30
0.000000
  70
    32
  0
VERTEX
  8
0
  5
1643F
 10
52.9717
 20
227.624
 30
0.000000
  70
    32
  0
VERTEX
  8
0
  5
16440
 10
52.9788
 20
227.630
 30
0.000000
  70
    32
  0
VERTEX
  8
0
  5
16441
 10
52.9858
 20
227.636
 30
0.000000
  70
    32
  0
VERTEX
  8
0
  5
16442
 10
52.9928
 20
227.643
 30
0.000000
  70
    32
  0
VERTEX
  8
0
  5
16443
 10
52.9997
 20
227.649
 30
0.000000
  70
    32
  0
VERTEX
  8
0
  5
16444
 10
53.0066
 20
227.655
 30
0.000000
  70
    32
  0
VERTEX
  8
0
  5
16445
 10
53.0133
 20
227.661
 30
0.000000
  70
    32
  0
VERTEX
  8
0
  5
16446
 10
53.0200
 20
227.668
 30
0.000000
  70
    32
  0
VERTEX
  8
0
  5
16447
 10
53.0266
 20
227.674
 30
0.000000
  70
    32
  0
VERTEX
  8
0
  5
16448
 10
53.0331
 20
227.680
 30
0.000000
  70
    32
  0
VERTEX
  8
0
  5
16449
 10
53.0396
 20
227.687
 30
0.000000
  70
    32
  0
VERTEX
  8
0
  5
1644A
 10
53.0459
 20
227.693
 30
0.000000
  70
    32
  0
VERTEX
  8
0
  5
1644B
 10
53.0522
 20
227.699
 30
0.000000
  70
    32
  0
VERTEX
  8
0
  5
1644C
 10
53.0585
 20
227.706
 30
0.000000
  70
    32
  0
VERTEX
  8
0
  5
1644D
 10
53.0646
 20
227.712
 30
0.000000
  70
    32
  0
VERTEX
  8
0
  5
1644E
 10
53.0707
 20
227.718
 30
0.000000
  70
    32
  0
VERTEX
  8
0
  5
1644F
 10
53.0767
 20
227.725
 30
0.000000
  70
    32
  0
VERTEX
  8
0
  5
16450
 10
53.0826
 20
227.731
 30
0.000000
  70
    32
  0
VERTEX
  8
0
  5
16451
 10
53.0885
 20
227.737
 30
0.000000
  70
    32
  0
VERTEX
  8
0
  5
16452
 10
53.0942
 20
227.744
 30
0.000000
  70
    32
  0
VERTEX
  8
0
  5
16453
 10
53.0999
 20
227.750
 30
0.000000
  70
    32
  0
VERTEX
  8
0
  5
16454
 10
53.1055
 20
227.756
 30
0.000000
  70
    32
  0
VERTEX
  8
0
  5
16455
 10
53.1111
 20
227.763
 30
0.000000
  70
    32
  0
VERTEX
  8
0
  5
16456
 10
53.1166
 20
227.769
 30
0.000000
  70
    32
  0
VERTEX
  8
0
  5
16457
 10
53.1219
 20
227.775
 30
0.000000
  70
    32
  0
VERTEX
  8
0
  5
16458
 10
53.1273
 20
227.782
 30
0.000000
  70
    32
  0
VERTEX
  8
0
  5
16459
 10
53.1325
 20
227.788
 30
0.000000
  70
    32
  0
VERTEX
  8
0
  5
1645A
 10
53.1377
 20
227.795
 30
0.000000
  70
    32
  0
VERTEX
  8
0
  5
1645B
 10
53.1427
 20
227.801
 30
0.000000
  70
    32
  0
VERTEX
  8
0
  5
1645C
 10
53.1477
 20
227.807
 30
0.000000
  70
    32
  0
VERTEX
  8
0
  5
1645D
 10
53.1527
 20
227.814
 30
0.000000
  70
    32
  0
VERTEX
  8
0
  5
1645E
 10
53.1575
 20
227.820
 30
0.000000
  70
    32
  0
VERTEX
  8
0
  5
1645F
 10
53.1623
 20
227.827
 30
0.000000
  70
    32
  0
VERTEX
  8
0
  5
16460
 10
53.1670
 20
227.833
 30
0.000000
  70
    32
  0
VERTEX
  8
0
  5
16461
 10
53.1716
 20
227.839
 30
0.000000
  70
    32
  0
VERTEX
  8
0
  5
16462
 10
53.1762
 20
227.846
 30
0.000000
  70
    32
  0
VERTEX
  8
0
  5
16463
 10
53.1807
 20
227.852
 30
0.000000
  70
    32
  0
VERTEX
  8
0
  5
16464
 10
53.1851
 20
227.859
 30
0.000000
  70
    32
  0
VERTEX
  8
0
  5
16465
 10
53.1894
 20
227.865
 30
0.000000
  70
    32
  0
VERTEX
  8
0
  5
16466
 10
53.1936
 20
227.872
 30
0.000000
  70
    32
  0
VERTEX
  8
0
  5
16467
 10
53.1978
 20
227.878
 30
0.000000
  70
    32
  0
VERTEX
  8
0
  5
16468
 10
53.2019
 20
227.885
 30
0.000000
  70
    32
  0
VERTEX
  8
0
  5
16469
 10
53.2059
 20
227.891
 30
0.000000
  70
    32
  0
VERTEX
  8
0
  5
1646A
 10
53.2098
 20
227.897
 30
0.000000
  70
    32
  0
VERTEX
  8
0
  5
1646B
 10
53.2137
 20
227.904
 30
0.000000
  70
    32
  0
VERTEX
  8
0
  5
1646C
 10
53.2174
 20
227.910
 30
0.000000
  70
    32
  0
VERTEX
  8
0
  5
1646D
 10
53.2211
 20
227.917
 30
0.000000
  70
    32
  0
VERTEX
  8
0
  5
1646E
 10
53.2248
 20
227.923
 30
0.000000
  70
    32
  0
VERTEX
  8
0
  5
1646F
 10
53.2283
 20
227.930
 30
0.000000
  70
    32
  0
VERTEX
  8
0
  5
16470
 10
53.2318
 20
227.936
 30
0.000000
  70
    32
  0
VERTEX
  8
0
  5
16471
 10
53.2352
 20
227.943
 30
0.000000
  70
    32
  0
VERTEX
  8
0
  5
16472
 10
53.2385
 20
227.949
 30
0.000000
  70
    32
  0
VERTEX
  8
0
  5
16473
 10
53.2417
 20
227.956
 30
0.000000
  70
    32
  0
VERTEX
  8
0
  5
16474
 10
53.2449
 20
227.962
 30
0.000000
  70
    32
  0
VERTEX
  8
0
  5
16475
 10
53.2480
 20
227.969
 30
0.000000
  70
    32
  0
VERTEX
  8
0
  5
16476
 10
53.2510
 20
227.975
 30
0.000000
  70
    32
  0
VERTEX
  8
0
  5
16477
 10
53.2539
 20
227.982
 30
0.000000
  70
    32
  0
VERTEX
  8
0
  5
16478
 10
53.2567
 20
227.988
 30
0.000000
  70
    32
  0
VERTEX
  8
0
  5
16479
 10
53.2595
 20
227.995
 30
0.000000
  70
    32
  0
VERTEX
  8
0
  5
1647A
 10
53.2622
 20
228.001
 30
0.000000
  70
    32
  0
VERTEX
  8
0
  5
1647B
 10
53.2648
 20
228.008
 30
0.000000
  70
    32
  0
VERTEX
  8
0
  5
1647C
 10
53.2674
 20
228.014
 30
0.000000
  70
    32
  0
VERTEX
  8
0
  5
1647D
 10
53.2698
 20
228.021
 30
0.000000
  70
    32
  0
VERTEX
  8
0
  5
1647E
 10
53.2722
 20
228.027
 30
0.000000
  70
    32
  0
VERTEX
  8
0
  5
1647F
 10
53.2745
 20
228.034
 30
0.000000
  70
    32
  0
VERTEX
  8
0
  5
16480
 10
53.2767
 20
228.040
 30
0.000000
  70
    32
  0
VERTEX
  8
0
  5
16481
 10
53.2789
 20
228.047
 30
0.000000
  70
    32
  0
VERTEX
  8
0
  5
16482
 10
53.2809
 20
228.053
 30
0.000000
  70
    32
  0
VERTEX
  8
0
  5
16483
 10
53.2829
 20
228.060
 30
0.000000
  70
    32
  0
VERTEX
  8
0
  5
16484
 10
53.2848
 20
228.066
 30
0.000000
  70
    32
  0
VERTEX
  8
0
  5
16485
 10
53.2867
 20
228.073
 30
0.000000
  70
    32
  0
VERTEX
  8
0
  5
16486
 10
53.2884
 20
228.079
 30
0.000000
  70
    32
  0
VERTEX
  8
0
  5
16487
 10
53.2901
 20
228.086
 30
0.000000
  70
    32
  0
VERTEX
  8
0
  5
16488
 10
53.2917
 20
228.092
 30
0.000000
  70
    32
  0
VERTEX
  8
0
  5
16489
 10
53.2932
 20
228.099
 30
0.000000
  70
    32
  0
VERTEX
  8
0
  5
1648A
 10
53.2947
 20
228.106
 30
0.000000
  70
    32
  0
VERTEX
  8
0
  5
1648B
 10
53.2961
 20
228.112
 30
0.000000
  70
    32
  0
VERTEX
  8
0
  5
1648C
 10
53.2974
 20
228.119
 30
0.000000
  70
    32
  0
VERTEX
  8
0
  5
1648D
 10
53.2986
 20
228.125
 30
0.000000
  70
    32
  0
VERTEX
  8
0
  5
1648E
 10
53.2997
 20
228.132
 30
0.000000
  70
    32
  0
VERTEX
  8
0
  5
1648F
 10
53.3008
 20
228.138
 30
0.000000
  70
    32
  0
VERTEX
  8
0
  5
16490
 10
53.3017
 20
228.145
 30
0.000000
  70
    32
  0
VERTEX
  8
0
  5
16491
 10
53.3026
 20
228.151
 30
0.000000
  70
    32
  0
VERTEX
  8
0
  5
16492
 10
53.3035
 20
228.158
 30
0.000000
  70
    32
  0
VERTEX
  8
0
  5
16493
 10
53.3042
 20
228.164
 30
0.000000
  70
    32
  0
VERTEX
  8
0
  5
16494
 10
53.3049
 20
228.171
 30
0.000000
  70
    32
  0
VERTEX
  8
0
  5
16495
 10
53.3054
 20
228.177
 30
0.000000
  70
    32
  0
VERTEX
  8
0
  5
16496
 10
53.3060
 20
228.184
 30
0.000000
  70
    32
  0
VERTEX
  8
0
  5
16497
 10
53.3064
 20
228.191
 30
0.000000
  70
    32
  0
VERTEX
  8
0
  5
16498
 10
53.3067
 20
228.197
 30
0.000000
  70
    32
  0
VERTEX
  8
0
  5
16499
 10
53.3070
 20
228.204
 30
0.000000
  70
    32
  0
VERTEX
  8
0
  5
1649A
 10
53.3072
 20
228.210
 30
0.000000
  70
    32
  0
VERTEX
  8
0
  5
1649B
 10
53.3073
 20
228.217
 30
0.000000
  70
    32
  0
VERTEX
  8
0
  5
1649C
 10
53.3074
 20
228.223
 30
0.000000
  70
    32
  0
SEQEND
  8
0
  5
1649D
  0
LINE
  5
154FD
  8
0
 10
53.307360410240733
 20
233.96733516902421
 30
0.0
 11
53.307360410240669
 21
228.2232522618601
 31
0.0
  0
LINE
  5
154FF
  8
0
 10
58.407360410240699
 20
228.2232522618601
 30
0.0
 11
58.407360410240699
 21
233.96733516902421
 31
0.0
  0
POLYLINE
  5
15500
  8
0
 10
58.407360410240699
 20
228.22325226186007
 30
0.0
 66
     1
 70
     8
  0
VERTEX
  8
0
  5
1649E
 10
58.4074
 20
228.223
 30
0.000000
  70
    32
  0
VERTEX
  8
0
  5
1649F
 10
58.4074
 20
228.217
 30
0.000000
  70
    32
  0
VERTEX
  8
0
  5
164A0
 10
58.4075
 20
228.210
 30
0.000000
  70
    32
  0
VERTEX
  8
0
  5
164A1
 10
58.4077
 20
228.204
 30
0.000000
  70
    32
  0
VERTEX
  8
0
  5
164A2
 10
58.4080
 20
228.197
 30
0.000000
  70
    32
  0
VERTEX
  8
0
  5
164A3
 10
58.4083
 20
228.191
 30
0.000000
  70
    32
  0
VERTEX
  8
0
  5
164A4
 10
58.4088
 20
228.184
 30
0.000000
  70
    32
  0
VERTEX
  8
0
  5
164A5
 10
58.4093
 20
228.177
 30
0.000000
  70
    32
  0
VERTEX
  8
0
  5
164A6
 10
58.4099
 20
228.171
 30
0.000000
  70
    32
  0
VERTEX
  8
0
  5
164A7
 10
58.4105
 20
228.164
 30
0.000000
  70
    32
  0
VERTEX
  8
0
  5
164A8
 10
58.4113
 20
228.158
 30
0.000000
  70
    32
  0
VERTEX
  8
0
  5
164A9
 10
58.4121
 20
228.151
 30
0.000000
  70
    32
  0
VERTEX
  8
0
  5
164AA
 10
58.4130
 20
228.145
 30
0.000000
  70
    32
  0
VERTEX
  8
0
  5
164AB
 10
58.4140
 20
228.138
 30
0.000000
  70
    32
  0
VERTEX
  8
0
  5
164AC
 10
58.4150
 20
228.132
 30
0.000000
  70
    32
  0
VERTEX
  8
0
  5
164AD
 10
58.4162
 20
228.125
 30
0.000000
  70
    32
  0
VERTEX
  8
0
  5
164AE
 10
58.4174
 20
228.119
 30
0.000000
  70
    32
  0
VERTEX
  8
0
  5
164AF
 10
58.4187
 20
228.112
 30
0.000000
  70
    32
  0
VERTEX
  8
0
  5
164B0
 10
58.4200
 20
228.106
 30
0.000000
  70
    32
  0
VERTEX
  8
0
  5
164B1
 10
58.4215
 20
228.099
 30
0.000000
  70
    32
  0
VERTEX
  8
0
  5
164B2
 10
58.4230
 20
228.092
 30
0.000000
  70
    32
  0
VERTEX
  8
0
  5
164B3
 10
58.4246
 20
228.086
 30
0.000000
  70
    32
  0
VERTEX
  8
0
  5
164B4
 10
58.4263
 20
228.079
 30
0.000000
  70
    32
  0
VERTEX
  8
0
  5
164B5
 10
58.4280
 20
228.073
 30
0.000000
  70
    32
  0
VERTEX
  8
0
  5
164B6
 10
58.4299
 20
228.066
 30
0.000000
  70
    32
  0
VERTEX
  8
0
  5
164B7
 10
58.4318
 20
228.060
 30
0.000000
  70
    32
  0
VERTEX
  8
0
  5
164B8
 10
58.4338
 20
228.053
 30
0.000000
  70
    32
  0
VERTEX
  8
0
  5
164B9
 10
58.4359
 20
228.047
 30
0.000000
  70
    32
  0
VERTEX
  8
0
  5
164BA
 10
58.4380
 20
228.040
 30
0.000000
  70
    32
  0
VERTEX
  8
0
  5
164BB
 10
58.4402
 20
228.034
 30
0.000000
  70
    32
  0
VERTEX
  8
0
  5
164BC
 10
58.4425
 20
228.027
 30
0.000000
  70
    32
  0
VERTEX
  8
0
  5
164BD
 10
58.4449
 20
228.021
 30
0.000000
  70
    32
  0
VERTEX
  8
0
  5
164BE
 10
58.4474
 20
228.014
 30
0.000000
  70
    32
  0
VERTEX
  8
0
  5
164BF
 10
58.4499
 20
228.008
 30
0.000000
  70
    32
  0
VERTEX
  8
0
  5
164C0
 10
58.4525
 20
228.001
 30
0.000000
  70
    32
  0
VERTEX
  8
0
  5
164C1
 10
58.4552
 20
227.995
 30
0.000000
  70
    32
  0
VERTEX
  8
0
  5
164C2
 10
58.4580
 20
227.988
 30
0.000000
  70
    32
  0
VERTEX
  8
0
  5
164C3
 10
58.4608
 20
227.982
 30
0.000000
  70
    32
  0
VERTEX
  8
0
  5
164C4
 10
58.4638
 20
227.975
 30
0.000000
  70
    32
  0
VERTEX
  8
0
  5
164C5
 10
58.4668
 20
227.969
 30
0.000000
  70
    32
  0
VERTEX
  8
0
  5
164C6
 10
58.4698
 20
227.962
 30
0.000000
  70
    32
  0
VERTEX
  8
0
  5
164C7
 10
58.4730
 20
227.956
 30
0.000000
  70
    32
  0
VERTEX
  8
0
  5
164C8
 10
58.4762
 20
227.949
 30
0.000000
  70
    32
  0
VERTEX
  8
0
  5
164C9
 10
58.4796
 20
227.943
 30
0.000000
  70
    32
  0
VERTEX
  8
0
  5
164CA
 10
58.4829
 20
227.936
 30
0.000000
  70
    32
  0
VERTEX
  8
0
  5
164CB
 10
58.4864
 20
227.930
 30
0.000000
  70
    32
  0
VERTEX
  8
0
  5
164CC
 10
58.4900
 20
227.923
 30
0.000000
  70
    32
  0
VERTEX
  8
0
  5
164CD
 10
58.4936
 20
227.917
 30
0.000000
  70
    32
  0
VERTEX
  8
0
  5
164CE
 10
58.4973
 20
227.910
 30
0.000000
  70
    32
  0
VERTEX
  8
0
  5
164CF
 10
58.5011
 20
227.904
 30
0.000000
  70
    32
  0
VERTEX
  8
0
  5
164D0
 10
58.5049
 20
227.897
 30
0.000000
  70
    32
  0
VERTEX
  8
0
  5
164D1
 10
58.5088
 20
227.891
 30
0.000000
  70
    32
  0
VERTEX
  8
0
  5
164D2
 10
58.5129
 20
227.885
 30
0.000000
  70
    32
  0
VERTEX
  8
0
  5
164D3
 10
58.5169
 20
227.878
 30
0.000000
  70
    32
  0
VERTEX
  8
0
  5
164D4
 10
58.5211
 20
227.872
 30
0.000000
  70
    32
  0
VERTEX
  8
0
  5
164D5
 10
58.5253
 20
227.865
 30
0.000000
  70
    32
  0
VERTEX
  8
0
  5
164D6
 10
58.5297
 20
227.859
 30
0.000000
  70
    32
  0
VERTEX
  8
0
  5
164D7
 10
58.5341
 20
227.852
 30
0.000000
  70
    32
  0
VERTEX
  8
0
  5
164D8
 10
58.5385
 20
227.846
 30
0.000000
  70
    32
  0
VERTEX
  8
0
  5
164D9
 10
58.5431
 20
227.839
 30
0.000000
  70
    32
  0
VERTEX
  8
0
  5
164DA
 10
58.5477
 20
227.833
 30
0.000000
  70
    32
  0
VERTEX
  8
0
  5
164DB
 10
58.5524
 20
227.827
 30
0.000000
  70
    32
  0
VERTEX
  8
0
  5
164DC
 10
58.5572
 20
227.820
 30
0.000000
  70
    32
  0
VERTEX
  8
0
  5
164DD
 10
58.5620
 20
227.814
 30
0.000000
  70
    32
  0
VERTEX
  8
0
  5
164DE
 10
58.5670
 20
227.807
 30
0.000000
  70
    32
  0
VERTEX
  8
0
  5
164DF
 10
58.5720
 20
227.801
 30
0.000000
  70
    32
  0
VERTEX
  8
0
  5
164E0
 10
58.5771
 20
227.795
 30
0.000000
  70
    32
  0
VERTEX
  8
0
  5
164E1
 10
58.5822
 20
227.788
 30
0.000000
  70
    32
  0
VERTEX
  8
0
  5
164E2
 10
58.5875
 20
227.782
 30
0.000000
  70
    32
  0
VERTEX
  8
0
  5
164E3
 10
58.5928
 20
227.775
 30
0.000000
  70
    32
  0
VERTEX
  8
0
  5
164E4
 10
58.5982
 20
227.769
 30
0.000000
  70
    32
  0
VERTEX
  8
0
  5
164E5
 10
58.6036
 20
227.763
 30
0.000000
  70
    32
  0
VERTEX
  8
0
  5
164E6
 10
58.6092
 20
227.756
 30
0.000000
  70
    32
  0
VERTEX
  8
0
  5
164E7
 10
58.6148
 20
227.750
 30
0.000000
  70
    32
  0
VERTEX
  8
0
  5
164E8
 10
58.6205
 20
227.744
 30
0.000000
  70
    32
  0
VERTEX
  8
0
  5
164E9
 10
58.6263
 20
227.737
 30
0.000000
  70
    32
  0
VERTEX
  8
0
  5
164EA
 10
58.6321
 20
227.731
 30
0.000000
  70
    32
  0
VERTEX
  8
0
  5
164EB
 10
58.6380
 20
227.725
 30
0.000000
  70
    32
  0
VERTEX
  8
0
  5
164EC
 10
58.6440
 20
227.718
 30
0.000000
  70
    32
  0
VERTEX
  8
0
  5
164ED
 10
58.6501
 20
227.712
 30
0.000000
  70
    32
  0
VERTEX
  8
0
  5
164EE
 10
58.6563
 20
227.706
 30
0.000000
  70
    32
  0
VERTEX
  8
0
  5
164EF
 10
58.6625
 20
227.699
 30
0.000000
  70
    32
  0
VERTEX
  8
0
  5
164F0
 10
58.6688
 20
227.693
 30
0.000000
  70
    32
  0
VERTEX
  8
0
  5
164F1
 10
58.6752
 20
227.687
 30
0.000000
  70
    32
  0
VERTEX
  8
0
  5
164F2
 10
58.6816
 20
227.680
 30
0.000000
  70
    32
  0
VERTEX
  8
0
  5
164F3
 10
58.6881
 20
227.674
 30
0.000000
  70
    32
  0
VERTEX
  8
0
  5
164F4
 10
58.6947
 20
227.668
 30
0.000000
  70
    32
  0
VERTEX
  8
0
  5
164F5
 10
58.7014
 20
227.661
 30
0.000000
  70
    32
  0
VERTEX
  8
0
  5
164F6
 10
58.7082
 20
227.655
 30
0.000000
  70
    32
  0
VERTEX
  8
0
  5
164F7
 10
58.7150
 20
227.649
 30
0.000000
  70
    32
  0
VERTEX
  8
0
  5
164F8
 10
58.7219
 20
227.643
 30
0.000000
  70
    32
  0
VERTEX
  8
0
  5
164F9
 10
58.7289
 20
227.636
 30
0.000000
  70
    32
  0
VERTEX
  8
0
  5
164FA
 10
58.7359
 20
227.630
 30
0.000000
  70
    32
  0
VERTEX
  8
0
  5
164FB
 10
58.7431
 20
227.624
 30
0.000000
  70
    32
  0
VERTEX
  8
0
  5
164FC
 10
58.7503
 20
227.618
 30
0.000000
  70
    32
  0
VERTEX
  8
0
  5
164FD
 10
58.7575
 20
227.611
 30
0.000000
  70
    32
  0
VERTEX
  8
0
  5
164FE
 10
58.7649
 20
227.605
 30
0.000000
  70
    32
  0
VERTEX
  8
0
  5
164FF
 10
58.7723
 20
227.599
 30
0.000000
  70
    32
  0
VERTEX
  8
0
  5
16500
 10
58.7798
 20
227.593
 30
0.000000
  70
    32
  0
VERTEX
  8
0
  5
16501
 10
58.7874
 20
227.586
 30
0.000000
  70
    32
  0
VERTEX
  8
0
  5
16502
 10
58.7950
 20
227.580
 30
0.000000
  70
    32
  0
VERTEX
  8
0
  5
16503
 10
58.8028
 20
227.574
 30
0.000000
  70
    32
  0
VERTEX
  8
0
  5
16504
 10
58.8106
 20
227.568
 30
0.000000
  70
    32
  0
VERTEX
  8
0
  5
16505
 10
58.8184
 20
227.562
 30
0.000000
  70
    32
  0
VERTEX
  8
0
  5
16506
 10
58.8264
 20
227.555
 30
0.000000
  70
    32
  0
VERTEX
  8
0
  5
16507
 10
58.8344
 20
227.549
 30
0.000000
  70
    32
  0
VERTEX
  8
0
  5
16508
 10
58.8425
 20
227.543
 30
0.000000
  70
    32
  0
VERTEX
  8
0
  5
16509
 10
58.8507
 20
227.537
 30
0.000000
  70
    32
  0
VERTEX
  8
0
  5
1650A
 10
58.8589
 20
227.531
 30
0.000000
  70
    32
  0
VERTEX
  8
0
  5
1650B
 10
58.8672
 20
227.525
 30
0.000000
  70
    32
  0
VERTEX
  8
0
  5
1650C
 10
58.8756
 20
227.518
 30
0.000000
  70
    32
  0
VERTEX
  8
0
  5
1650D
 10
58.8841
 20
227.512
 30
0.000000
  70
    32
  0
VERTEX
  8
0
  5
1650E
 10
58.8926
 20
227.506
 30
0.000000
  70
    32
  0
VERTEX
  8
0
  5
1650F
 10
58.9012
 20
227.500
 30
0.000000
  70
    32
  0
VERTEX
  8
0
  5
16510
 10
58.9099
 20
227.494
 30
0.000000
  70
    32
  0
VERTEX
  8
0
  5
16511
 10
58.9186
 20
227.488
 30
0.000000
  70
    32
  0
VERTEX
  8
0
  5
16512
 10
58.9275
 20
227.482
 30
0.000000
  70
    32
  0
VERTEX
  8
0
  5
16513
 10
58.9364
 20
227.476
 30
0.000000
  70
    32
  0
VERTEX
  8
0
  5
16514
 10
58.9453
 20
227.470
 30
0.000000
  70
    32
  0
VERTEX
  8
0
  5
16515
 10
58.9544
 20
227.464
 30
0.000000
  70
    32
  0
VERTEX
  8
0
  5
16516
 10
58.9635
 20
227.457
 30
0.000000
  70
    32
  0
VERTEX
  8
0
  5
16517
 10
58.9727
 20
227.451
 30
0.000000
  70
    32
  0
VERTEX
  8
0
  5
16518
 10
58.9819
 20
227.445
 30
0.000000
  70
    32
  0
VERTEX
  8
0
  5
16519
 10
58.9913
 20
227.439
 30
0.000000
  70
    32
  0
VERTEX
  8
0
  5
1651A
 10
59.0007
 20
227.433
 30
0.000000
  70
    32
  0
VERTEX
  8
0
  5
1651B
 10
59.0101
 20
227.427
 30
0.000000
  70
    32
  0
VERTEX
  8
0
  5
1651C
 10
59.0197
 20
227.421
 30
0.000000
  70
    32
  0
VERTEX
  8
0
  5
1651D
 10
59.0293
 20
227.415
 30
0.000000
  70
    32
  0
VERTEX
  8
0
  5
1651E
 10
59.0390
 20
227.409
 30
0.000000
  70
    32
  0
SEQEND
  8
0
  5
1651F
  0
LINE
  5
15501
  8
0
 10
65.725708072043176
 20
223.2901918815401
 30
0.0
 11
59.039012748438381
 21
227.40926026868439
 31
0.0
  0
POLYLINE
  5
15502
  8
0
 10
66.357360410240801
 20
222.47619988836419
 30
0.0
 66
     1
 70
     8
  0
VERTEX
  8
0
  5
16520
 10
66.3574
 20
222.476
 30
0.000000
  70
    32
  0
VERTEX
  8
0
  5
16521
 10
66.3573
 20
222.483
 30
0.000000
  70
    32
  0
VERTEX
  8
0
  5
16522
 10
66.3572
 20
222.489
 30
0.000000
  70
    32
  0
VERTEX
  8
0
  5
16523
 10
66.3570
 20
222.496
 30
0.000000
  70
    32
  0
VERTEX
  8
0
  5
16524
 10
66.3567
 20
222.502
 30
0.000000
  70
    32
  0
VERTEX
  8
0
  5
16525
 10
66.3564
 20
222.509
 30
0.000000
  70
    32
  0
VERTEX
  8
0
  5
16526
 10
66.3560
 20
222.515
 30
0.000000
  70
    32
  0
VERTEX
  8
0
  5
16527
 10
66.3554
 20
222.522
 30
0.000000
  70
    32
  0
VERTEX
  8
0
  5
16528
 10
66.3549
 20
222.529
 30
0.000000
  70
    32
  0
VERTEX
  8
0
  5
16529
 10
66.3542
 20
222.535
 30
0.000000
  70
    32
  0
VERTEX
  8
0
  5
1652A
 10
66.3535
 20
222.542
 30
0.000000
  70
    32
  0
VERTEX
  8
0
  5
1652B
 10
66.3526
 20
222.548
 30
0.000000
  70
    32
  0
VERTEX
  8
0
  5
1652C
 10
66.3517
 20
222.555
 30
0.000000
  70
    32
  0
VERTEX
  8
0
  5
1652D
 10
66.3508
 20
222.561
 30
0.000000
  70
    32
  0
VERTEX
  8
0
  5
1652E
 10
66.3497
 20
222.568
 30
0.000000
  70
    32
  0
VERTEX
  8
0
  5
1652F
 10
66.3486
 20
222.574
 30
0.000000
  70
    32
  0
VERTEX
  8
0
  5
16530
 10
66.3474
 20
222.581
 30
0.000000
  70
    32
  0
VERTEX
  8
0
  5
16531
 10
66.3461
 20
222.587
 30
0.000000
  70
    32
  0
VERTEX
  8
0
  5
16532
 10
66.3447
 20
222.594
 30
0.000000
  70
    32
  0
VERTEX
  8
0
  5
16533
 10
66.3432
 20
222.600
 30
0.000000
  70
    32
  0
VERTEX
  8
0
  5
16534
 10
66.3417
 20
222.607
 30
0.000000
  70
    32
  0
VERTEX
  8
0
  5
16535
 10
66.3401
 20
222.614
 30
0.000000
  70
    32
  0
VERTEX
  8
0
  5
16536
 10
66.3384
 20
222.620
 30
0.000000
  70
    32
  0
VERTEX
  8
0
  5
16537
 10
66.3367
 20
222.627
 30
0.000000
  70
    32
  0
VERTEX
  8
0
  5
16538
 10
66.3348
 20
222.633
 30
0.000000
  70
    32
  0
VERTEX
  8
0
  5
16539
 10
66.3329
 20
222.640
 30
0.000000
  70
    32
  0
VERTEX
  8
0
  5
1653A
 10
66.3309
 20
222.646
 30
0.000000
  70
    32
  0
VERTEX
  8
0
  5
1653B
 10
66.3289
 20
222.653
 30
0.000000
  70
    32
  0
VERTEX
  8
0
  5
1653C
 10
66.3267
 20
222.659
 30
0.000000
  70
    32
  0
VERTEX
  8
0
  5
1653D
 10
66.3245
 20
222.666
 30
0.000000
  70
    32
  0
VERTEX
  8
0
  5
1653E
 10
66.3222
 20
222.672
 30
0.000000
  70
    32
  0
VERTEX
  8
0
  5
1653F
 10
66.3198
 20
222.679
 30
0.000000
  70
    32
  0
VERTEX
  8
0
  5
16540
 10
66.3174
 20
222.685
 30
0.000000
  70
    32
  0
VERTEX
  8
0
  5
16541
 10
66.3148
 20
222.692
 30
0.000000
  70
    32
  0
VERTEX
  8
0
  5
16542
 10
66.3122
 20
222.698
 30
0.000000
  70
    32
  0
VERTEX
  8
0
  5
16543
 10
66.3095
 20
222.705
 30
0.000000
  70
    32
  0
VERTEX
  8
0
  5
16544
 10
66.3067
 20
222.711
 30
0.000000
  70
    32
  0
VERTEX
  8
0
  5
16545
 10
66.3039
 20
222.718
 30
0.000000
  70
    32
  0
VERTEX
  8
0
  5
16546
 10
66.3010
 20
222.724
 30
0.000000
  70
    32
  0
VERTEX
  8
0
  5
16547
 10
66.2980
 20
222.731
 30
0.000000
  70
    32
  0
VERTEX
  8
0
  5
16548
 10
66.2949
 20
222.737
 30
0.000000
  70
    32
  0
VERTEX
  8
0
  5
16549
 10
66.2917
 20
222.744
 30
0.000000
  70
    32
  0
VERTEX
  8
0
  5
1654A
 10
66.2885
 20
222.750
 30
0.000000
  70
    32
  0
VERTEX
  8
0
  5
1654B
 10
66.2852
 20
222.757
 30
0.000000
  70
    32
  0
VERTEX
  8
0
  5
1654C
 10
66.2818
 20
222.763
 30
0.000000
  70
    32
  0
VERTEX
  8
0
  5
1654D
 10
66.2783
 20
222.770
 30
0.000000
  70
    32
  0
VERTEX
  8
0
  5
1654E
 10
66.2748
 20
222.776
 30
0.000000
  70
    32
  0
VERTEX
  8
0
  5
1654F
 10
66.2711
 20
222.783
 30
0.000000
  70
    32
  0
VERTEX
  8
0
  5
16550
 10
66.2674
 20
222.789
 30
0.000000
  70
    32
  0
VERTEX
  8
0
  5
16551
 10
66.2637
 20
222.796
 30
0.000000
  70
    32
  0
VERTEX
  8
0
  5
16552
 10
66.2598
 20
222.802
 30
0.000000
  70
    32
  0
VERTEX
  8
0
  5
16553
 10
66.2559
 20
222.808
 30
0.000000
  70
    32
  0
VERTEX
  8
0
  5
16554
 10
66.2519
 20
222.815
 30
0.000000
  70
    32
  0
VERTEX
  8
0
  5
16555
 10
66.2478
 20
222.821
 30
0.000000
  70
    32
  0
VERTEX
  8
0
  5
16556
 10
66.2436
 20
222.828
 30
0.000000
  70
    32
  0
VERTEX
  8
0
  5
16557
 10
66.2394
 20
222.834
 30
0.000000
  70
    32
  0
VERTEX
  8
0
  5
16558
 10
66.2351
 20
222.841
 30
0.000000
  70
    32
  0
VERTEX
  8
0
  5
16559
 10
66.2307
 20
222.847
 30
0.000000
  70
    32
  0
VERTEX
  8
0
  5
1655A
 10
66.2262
 20
222.854
 30
0.000000
  70
    32
  0
VERTEX
  8
0
  5
1655B
 10
66.2216
 20
222.860
 30
0.000000
  70
    32
  0
VERTEX
  8
0
  5
1655C
 10
66.2170
 20
222.866
 30
0.000000
  70
    32
  0
VERTEX
  8
0
  5
1655D
 10
66.2123
 20
222.873
 30
0.000000
  70
    32
  0
VERTEX
  8
0
  5
1655E
 10
66.2075
 20
222.879
 30
0.000000
  70
    32
  0
VERTEX
  8
0
  5
1655F
 10
66.2027
 20
222.886
 30
0.000000
  70
    32
  0
VERTEX
  8
0
  5
16560
 10
66.1977
 20
222.892
 30
0.000000
  70
    32
  0
VERTEX
  8
0
  5
16561
 10
66.1927
 20
222.898
 30
0.000000
  70
    32
  0
VERTEX
  8
0
  5
16562
 10
66.1877
 20
222.905
 30
0.000000
  70
    32
  0
VERTEX
  8
0
  5
16563
 10
66.1825
 20
222.911
 30
0.000000
  70
    32
  0
VERTEX
  8
0
  5
16564
 10
66.1773
 20
222.918
 30
0.000000
  70
    32
  0
VERTEX
  8
0
  5
16565
 10
66.1719
 20
222.924
 30
0.000000
  70
    32
  0
VERTEX
  8
0
  5
16566
 10
66.1666
 20
222.930
 30
0.000000
  70
    32
  0
VERTEX
  8
0
  5
16567
 10
66.1611
 20
222.937
 30
0.000000
  70
    32
  0
VERTEX
  8
0
  5
16568
 10
66.1555
 20
222.943
 30
0.000000
  70
    32
  0
VERTEX
  8
0
  5
16569
 10
66.1499
 20
222.950
 30
0.000000
  70
    32
  0
VERTEX
  8
0
  5
1656A
 10
66.1442
 20
222.956
 30
0.000000
  70
    32
  0
VERTEX
  8
0
  5
1656B
 10
66.1385
 20
222.962
 30
0.000000
  70
    32
  0
VERTEX
  8
0
  5
1656C
 10
66.1326
 20
222.969
 30
0.000000
  70
    32
  0
VERTEX
  8
0
  5
1656D
 10
66.1267
 20
222.975
 30
0.000000
  70
    32
  0
VERTEX
  8
0
  5
1656E
 10
66.1207
 20
222.981
 30
0.000000
  70
    32
  0
VERTEX
  8
0
  5
1656F
 10
66.1146
 20
222.988
 30
0.000000
  70
    32
  0
VERTEX
  8
0
  5
16570
 10
66.1085
 20
222.994
 30
0.000000
  70
    32
  0
VERTEX
  8
0
  5
16571
 10
66.1022
 20
223.000
 30
0.000000
  70
    32
  0
VERTEX
  8
0
  5
16572
 10
66.0959
 20
223.007
 30
0.000000
  70
    32
  0
VERTEX
  8
0
  5
16573
 10
66.0896
 20
223.013
 30
0.000000
  70
    32
  0
VERTEX
  8
0
  5
16574
 10
66.0831
 20
223.019
 30
0.000000
  70
    32
  0
VERTEX
  8
0
  5
16575
 10
66.0766
 20
223.025
 30
0.000000
  70
    32
  0
VERTEX
  8
0
  5
16576
 10
66.0700
 20
223.032
 30
0.000000
  70
    32
  0
VERTEX
  8
0
  5
16577
 10
66.0633
 20
223.038
 30
0.000000
  70
    32
  0
VERTEX
  8
0
  5
16578
 10
66.0566
 20
223.044
 30
0.000000
  70
    32
  0
VERTEX
  8
0
  5
16579
 10
66.0497
 20
223.051
 30
0.000000
  70
    32
  0
VERTEX
  8
0
  5
1657A
 10
66.0428
 20
223.057
 30
0.000000
  70
    32
  0
VERTEX
  8
0
  5
1657B
 10
66.0358
 20
223.063
 30
0.000000
  70
    32
  0
VERTEX
  8
0
  5
1657C
 10
66.0288
 20
223.069
 30
0.000000
  70
    32
  0
VERTEX
  8
0
  5
1657D
 10
66.0217
 20
223.076
 30
0.000000
  70
    32
  0
VERTEX
  8
0
  5
1657E
 10
66.0145
 20
223.082
 30
0.000000
  70
    32
  0
VERTEX
  8
0
  5
1657F
 10
66.0072
 20
223.088
 30
0.000000
  70
    32
  0
VERTEX
  8
0
  5
16580
 10
65.9998
 20
223.094
 30
0.000000
  70
    32
  0
VERTEX
  8
0
  5
16581
 10
65.9924
 20
223.101
 30
0.000000
  70
    32
  0
VERTEX
  8
0
  5
16582
 10
65.9849
 20
223.107
 30
0.000000
  70
    32
  0
VERTEX
  8
0
  5
16583
 10
65.9773
 20
223.113
 30
0.000000
  70
    32
  0
VERTEX
  8
0
  5
16584
 10
65.9697
 20
223.119
 30
0.000000
  70
    32
  0
VERTEX
  8
0
  5
16585
 10
65.9620
 20
223.125
 30
0.000000
  70
    32
  0
VERTEX
  8
0
  5
16586
 10
65.9542
 20
223.132
 30
0.000000
  70
    32
  0
VERTEX
  8
0
  5
16587
 10
65.9463
 20
223.138
 30
0.000000
  70
    32
  0
VERTEX
  8
0
  5
16588
 10
65.9383
 20
223.144
 30
0.000000
  70
    32
  0
VERTEX
  8
0
  5
16589
 10
65.9303
 20
223.150
 30
0.000000
  70
    32
  0
VERTEX
  8
0
  5
1658A
 10
65.9222
 20
223.156
 30
0.000000
  70
    32
  0
VERTEX
  8
0
  5
1658B
 10
65.9141
 20
223.163
 30
0.000000
  70
    32
  0
VERTEX
  8
0
  5
1658C
 10
65.9058
 20
223.169
 30
0.000000
  70
    32
  0
VERTEX
  8
0
  5
1658D
 10
65.8975
 20
223.175
 30
0.000000
  70
    32
  0
VERTEX
  8
0
  5
1658E
 10
65.8891
 20
223.181
 30
0.000000
  70
    32
  0
VERTEX
  8
0
  5
1658F
 10
65.8807
 20
223.187
 30
0.000000
  70
    32
  0
VERTEX
  8
0
  5
16590
 10
65.8721
 20
223.193
 30
0.000000
  70
    32
  0
VERTEX
  8
0
  5
16591
 10
65.8635
 20
223.199
 30
0.000000
  70
    32
  0
VERTEX
  8
0
  5
16592
 10
65.8548
 20
223.205
 30
0.000000
  70
    32
  0
VERTEX
  8
0
  5
16593
 10
65.8461
 20
223.212
 30
0.000000
  70
    32
  0
VERTEX
  8
0
  5
16594
 10
65.8373
 20
223.218
 30
0.000000
  70
    32
  0
VERTEX
  8
0
  5
16595
 10
65.8284
 20
223.224
 30
0.000000
  70
    32
  0
VERTEX
  8
0
  5
16596
 10
65.8194
 20
223.230
 30
0.000000
  70
    32
  0
VERTEX
  8
0
  5
16597
 10
65.8104
 20
223.236
 30
0.000000
  70
    32
  0
VERTEX
  8
0
  5
16598
 10
65.8012
 20
223.242
 30
0.000000
  70
    32
  0
VERTEX
  8
0
  5
16599
 10
65.7920
 20
223.248
 30
0.000000
  70
    32
  0
VERTEX
  8
0
  5
1659A
 10
65.7828
 20
223.254
 30
0.000000
  70
    32
  0
VERTEX
  8
0
  5
1659B
 10
65.7735
 20
223.260
 30
0.000000
  70
    32
  0
VERTEX
  8
0
  5
1659C
 10
65.7640
 20
223.266
 30
0.000000
  70
    32
  0
VERTEX
  8
0
  5
1659D
 10
65.7546
 20
223.272
 30
0.000000
  70
    32
  0
VERTEX
  8
0
  5
1659E
 10
65.7450
 20
223.278
 30
0.000000
  70
    32
  0
VERTEX
  8
0
  5
1659F
 10
65.7354
 20
223.284
 30
0.000000
  70
    32
  0
VERTEX
  8
0
  5
165A0
 10
65.7257
 20
223.290
 30
0.000000
  70
    32
  0
SEQEND
  8
0
  5
165A1
  0
POLYLINE
  5
15503
  8
0
 10
63.857360410240737
 20
222.47619988836422
 30
0.0
 66
     1
 70
     8
  0
VERTEX
  8
0
  5
165A2
 10
63.8574
 20
222.476
 30
0.000000
  70
    32
  0
VERTEX
  8
0
  5
165A3
 10
63.8573
 20
222.480
 30
0.000000
  70
    32
  0
VERTEX
  8
0
  5
165A4
 10
63.8573
 20
222.485
 30
0.000000
  70
    32
  0
VERTEX
  8
0
  5
165A5
 10
63.8571
 20
222.489
 30
0.000000
  70
    32
  0
VERTEX
  8
0
  5
165A6
 10
63.8570
 20
222.493
 30
0.000000
  70
    32
  0
VERTEX
  8
0
  5
165A7
 10
63.8567
 20
222.497
 30
0.000000
  70
    32
  0
VERTEX
  8
0
  5
165A8
 10
63.8565
 20
222.502
 30
0.000000
  70
    32
  0
VERTEX
  8
0
  5
165A9
 10
63.8562
 20
222.506
 30
0.000000
  70
    32
  0
VERTEX
  8
0
  5
165AA
 10
63.8558
 20
222.510
 30
0.000000
  70
    32
  0
VERTEX
  8
0
  5
165AB
 10
63.8554
 20
222.514
 30
0.000000
  70
    32
  0
VERTEX
  8
0
  5
165AC
 10
63.8549
 20
222.519
 30
0.000000
  70
    32
  0
VERTEX
  8
0
  5
165AD
 10
63.8544
 20
222.523
 30
0.000000
  70
    32
  0
VERTEX
  8
0
  5
165AE
 10
63.8538
 20
222.527
 30
0.000000
  70
    32
  0
VERTEX
  8
0
  5
165AF
 10
63.8532
 20
222.531
 30
0.000000
  70
    32
  0
VERTEX
  8
0
  5
165B0
 10
63.8525
 20
222.536
 30
0.000000
  70
    32
  0
VERTEX
  8
0
  5
165B1
 10
63.8518
 20
222.540
 30
0.000000
  70
    32
  0
VERTEX
  8
0
  5
165B2
 10
63.8511
 20
222.544
 30
0.000000
  70
    32
  0
VERTEX
  8
0
  5
165B3
 10
63.8503
 20
222.548
 30
0.000000
  70
    32
  0
VERTEX
  8
0
  5
165B4
 10
63.8494
 20
222.552
 30
0.000000
  70
    32
  0
VERTEX
  8
0
  5
165B5
 10
63.8485
 20
222.557
 30
0.000000
  70
    32
  0
VERTEX
  8
0
  5
165B6
 10
63.8475
 20
222.561
 30
0.000000
  70
    32
  0
VERTEX
  8
0
  5
165B7
 10
63.8465
 20
222.565
 30
0.000000
  70
    32
  0
VERTEX
  8
0
  5
165B8
 10
63.8455
 20
222.569
 30
0.000000
  70
    32
  0
VERTEX
  8
0
  5
165B9
 10
63.8444
 20
222.574
 30
0.000000
  70
    32
  0
VERTEX
  8
0
  5
165BA
 10
63.8432
 20
222.578
 30
0.000000
  70
    32
  0
VERTEX
  8
0
  5
165BB
 10
63.8420
 20
222.582
 30
0.000000
  70
    32
  0
VERTEX
  8
0
  5
165BC
 10
63.8407
 20
222.586
 30
0.000000
  70
    32
  0
VERTEX
  8
0
  5
165BD
 10
63.8394
 20
222.590
 30
0.000000
  70
    32
  0
VERTEX
  8
0
  5
165BE
 10
63.8381
 20
222.595
 30
0.000000
  70
    32
  0
VERTEX
  8
0
  5
165BF
 10
63.8367
 20
222.599
 30
0.000000
  70
    32
  0
VERTEX
  8
0
  5
165C0
 10
63.8352
 20
222.603
 30
0.000000
  70
    32
  0
VERTEX
  8
0
  5
165C1
 10
63.8337
 20
222.607
 30
0.000000
  70
    32
  0
VERTEX
  8
0
  5
165C2
 10
63.8322
 20
222.612
 30
0.000000
  70
    32
  0
VERTEX
  8
0
  5
165C3
 10
63.8306
 20
222.616
 30
0.000000
  70
    32
  0
VERTEX
  8
0
  5
165C4
 10
63.8290
 20
222.620
 30
0.000000
  70
    32
  0
VERTEX
  8
0
  5
165C5
 10
63.8273
 20
222.624
 30
0.000000
  70
    32
  0
VERTEX
  8
0
  5
165C6
 10
63.8255
 20
222.628
 30
0.000000
  70
    32
  0
VERTEX
  8
0
  5
165C7
 10
63.8237
 20
222.633
 30
0.000000
  70
    32
  0
VERTEX
  8
0
  5
165C8
 10
63.8219
 20
222.637
 30
0.000000
  70
    32
  0
VERTEX
  8
0
  5
165C9
 10
63.8200
 20
222.641
 30
0.000000
  70
    32
  0
VERTEX
  8
0
  5
165CA
 10
63.8181
 20
222.645
 30
0.000000
  70
    32
  0
VERTEX
  8
0
  5
165CB
 10
63.8161
 20
222.649
 30
0.000000
  70
    32
  0
VERTEX
  8
0
  5
165CC
 10
63.8140
 20
222.654
 30
0.000000
  70
    32
  0
VERTEX
  8
0
  5
165CD
 10
63.8120
 20
222.658
 30
0.000000
  70
    32
  0
VERTEX
  8
0
  5
165CE
 10
63.8098
 20
222.662
 30
0.000000
  70
    32
  0
VERTEX
  8
0
  5
165CF
 10
63.8076
 20
222.666
 30
0.000000
  70
    32
  0
VERTEX
  8
0
  5
165D0
 10
63.8054
 20
222.670
 30
0.000000
  70
    32
  0
VERTEX
  8
0
  5
165D1
 10
63.8031
 20
222.675
 30
0.000000
  70
    32
  0
VERTEX
  8
0
  5
165D2
 10
63.8008
 20
222.679
 30
0.000000
  70
    32
  0
VERTEX
  8
0
  5
165D3
 10
63.7984
 20
222.683
 30
0.000000
  70
    32
  0
VERTEX
  8
0
  5
165D4
 10
63.7960
 20
222.687
 30
0.000000
  70
    32
  0
VERTEX
  8
0
  5
165D5
 10
63.7935
 20
222.691
 30
0.000000
  70
    32
  0
VERTEX
  8
0
  5
165D6
 10
63.7910
 20
222.696
 30
0.000000
  70
    32
  0
VERTEX
  8
0
  5
165D7
 10
63.7884
 20
222.700
 30
0.000000
  70
    32
  0
VERTEX
  8
0
  5
165D8
 10
63.7858
 20
222.704
 30
0.000000
  70
    32
  0
VERTEX
  8
0
  5
165D9
 10
63.7831
 20
222.708
 30
0.000000
  70
    32
  0
VERTEX
  8
0
  5
165DA
 10
63.7804
 20
222.712
 30
0.000000
  70
    32
  0
VERTEX
  8
0
  5
165DB
 10
63.7777
 20
222.716
 30
0.000000
  70
    32
  0
VERTEX
  8
0
  5
165DC
 10
63.7749
 20
222.721
 30
0.000000
  70
    32
  0
VERTEX
  8
0
  5
165DD
 10
63.7720
 20
222.725
 30
0.000000
  70
    32
  0
VERTEX
  8
0
  5
165DE
 10
63.7691
 20
222.729
 30
0.000000
  70
    32
  0
VERTEX
  8
0
  5
165DF
 10
63.7661
 20
222.733
 30
0.000000
  70
    32
  0
VERTEX
  8
0
  5
165E0
 10
63.7631
 20
222.737
 30
0.000000
  70
    32
  0
VERTEX
  8
0
  5
165E1
 10
63.7601
 20
222.741
 30
0.000000
  70
    32
  0
VERTEX
  8
0
  5
165E2
 10
63.7570
 20
222.746
 30
0.000000
  70
    32
  0
VERTEX
  8
0
  5
165E3
 10
63.7538
 20
222.750
 30
0.000000
  70
    32
  0
VERTEX
  8
0
  5
165E4
 10
63.7506
 20
222.754
 30
0.000000
  70
    32
  0
VERTEX
  8
0
  5
165E5
 10
63.7474
 20
222.758
 30
0.000000
  70
    32
  0
VERTEX
  8
0
  5
165E6
 10
63.7441
 20
222.762
 30
0.000000
  70
    32
  0
VERTEX
  8
0
  5
165E7
 10
63.7407
 20
222.766
 30
0.000000
  70
    32
  0
VERTEX
  8
0
  5
165E8
 10
63.7373
 20
222.770
 30
0.000000
  70
    32
  0
VERTEX
  8
0
  5
165E9
 10
63.7339
 20
222.775
 30
0.000000
  70
    32
  0
VERTEX
  8
0
  5
165EA
 10
63.7304
 20
222.779
 30
0.000000
  70
    32
  0
VERTEX
  8
0
  5
165EB
 10
63.7269
 20
222.783
 30
0.000000
  70
    32
  0
VERTEX
  8
0
  5
165EC
 10
63.7233
 20
222.787
 30
0.000000
  70
    32
  0
VERTEX
  8
0
  5
165ED
 10
63.7197
 20
222.791
 30
0.000000
  70
    32
  0
VERTEX
  8
0
  5
165EE
 10
63.7160
 20
222.795
 30
0.000000
  70
    32
  0
VERTEX
  8
0
  5
165EF
 10
63.7122
 20
222.799
 30
0.000000
  70
    32
  0
VERTEX
  8
0
  5
165F0
 10
63.7085
 20
222.803
 30
0.000000
  70
    32
  0
VERTEX
  8
0
  5
165F1
 10
63.7047
 20
222.808
 30
0.000000
  70
    32
  0
VERTEX
  8
0
  5
165F2
 10
63.7008
 20
222.812
 30
0.000000
  70
    32
  0
VERTEX
  8
0
  5
165F3
 10
63.6969
 20
222.816
 30
0.000000
  70
    32
  0
VERTEX
  8
0
  5
165F4
 10
63.6929
 20
222.820
 30
0.000000
  70
    32
  0
VERTEX
  8
0
  5
165F5
 10
63.6889
 20
222.824
 30
0.000000
  70
    32
  0
VERTEX
  8
0
  5
165F6
 10
63.6848
 20
222.828
 30
0.000000
  70
    32
  0
VERTEX
  8
0
  5
165F7
 10
63.6807
 20
222.832
 30
0.000000
  70
    32
  0
VERTEX
  8
0
  5
165F8
 10
63.6766
 20
222.836
 30
0.000000
  70
    32
  0
VERTEX
  8
0
  5
165F9
 10
63.6724
 20
222.840
 30
0.000000
  70
    32
  0
VERTEX
  8
0
  5
165FA
 10
63.6681
 20
222.844
 30
0.000000
  70
    32
  0
VERTEX
  8
0
  5
165FB
 10
63.6638
 20
222.848
 30
0.000000
  70
    32
  0
VERTEX
  8
0
  5
165FC
 10
63.6595
 20
222.853
 30
0.000000
  70
    32
  0
VERTEX
  8
0
  5
165FD
 10
63.6551
 20
222.857
 30
0.000000
  70
    32
  0
VERTEX
  8
0
  5
165FE
 10
63.6506
 20
222.861
 30
0.000000
  70
    32
  0
VERTEX
  8
0
  5
165FF
 10
63.6461
 20
222.865
 30
0.000000
  70
    32
  0
VERTEX
  8
0
  5
16600
 10
63.6416
 20
222.869
 30
0.000000
  70
    32
  0
VERTEX
  8
0
  5
16601
 10
63.6370
 20
222.873
 30
0.000000
  70
    32
  0
VERTEX
  8
0
  5
16602
 10
63.6324
 20
222.877
 30
0.000000
  70
    32
  0
VERTEX
  8
0
  5
16603
 10
63.6277
 20
222.881
 30
0.000000
  70
    32
  0
VERTEX
  8
0
  5
16604
 10
63.6230
 20
222.885
 30
0.000000
  70
    32
  0
VERTEX
  8
0
  5
16605
 10
63.6182
 20
222.889
 30
0.000000
  70
    32
  0
VERTEX
  8
0
  5
16606
 10
63.6134
 20
222.893
 30
0.000000
  70
    32
  0
VERTEX
  8
0
  5
16607
 10
63.6086
 20
222.897
 30
0.000000
  70
    32
  0
VERTEX
  8
0
  5
16608
 10
63.6037
 20
222.901
 30
0.000000
  70
    32
  0
VERTEX
  8
0
  5
16609
 10
63.5987
 20
222.905
 30
0.000000
  70
    32
  0
VERTEX
  8
0
  5
1660A
 10
63.5937
 20
222.909
 30
0.000000
  70
    32
  0
VERTEX
  8
0
  5
1660B
 10
63.5887
 20
222.913
 30
0.000000
  70
    32
  0
VERTEX
  8
0
  5
1660C
 10
63.5836
 20
222.917
 30
0.000000
  70
    32
  0
VERTEX
  8
0
  5
1660D
 10
63.5784
 20
222.921
 30
0.000000
  70
    32
  0
VERTEX
  8
0
  5
1660E
 10
63.5732
 20
222.925
 30
0.000000
  70
    32
  0
VERTEX
  8
0
  5
1660F
 10
63.5680
 20
222.929
 30
0.000000
  70
    32
  0
VERTEX
  8
0
  5
16610
 10
63.5627
 20
222.933
 30
0.000000
  70
    32
  0
VERTEX
  8
0
  5
16611
 10
63.5574
 20
222.937
 30
0.000000
  70
    32
  0
VERTEX
  8
0
  5
16612
 10
63.5520
 20
222.941
 30
0.000000
  70
    32
  0
VERTEX
  8
0
  5
16613
 10
63.5466
 20
222.945
 30
0.000000
  70
    32
  0
VERTEX
  8
0
  5
16614
 10
63.5411
 20
222.949
 30
0.000000
  70
    32
  0
VERTEX
  8
0
  5
16615
 10
63.5356
 20
222.953
 30
0.000000
  70
    32
  0
VERTEX
  8
0
  5
16616
 10
63.5301
 20
222.957
 30
0.000000
  70
    32
  0
VERTEX
  8
0
  5
16617
 10
63.5245
 20
222.961
 30
0.000000
  70
    32
  0
VERTEX
  8
0
  5
16618
 10
63.5188
 20
222.965
 30
0.000000
  70
    32
  0
VERTEX
  8
0
  5
16619
 10
63.5131
 20
222.969
 30
0.000000
  70
    32
  0
VERTEX
  8
0
  5
1661A
 10
63.5074
 20
222.973
 30
0.000000
  70
    32
  0
VERTEX
  8
0
  5
1661B
 10
63.5016
 20
222.977
 30
0.000000
  70
    32
  0
VERTEX
  8
0
  5
1661C
 10
63.4957
 20
222.981
 30
0.000000
  70
    32
  0
VERTEX
  8
0
  5
1661D
 10
63.4899
 20
222.985
 30
0.000000
  70
    32
  0
VERTEX
  8
0
  5
1661E
 10
63.4839
 20
222.988
 30
0.000000
  70
    32
  0
VERTEX
  8
0
  5
1661F
 10
63.4780
 20
222.992
 30
0.000000
  70
    32
  0
VERTEX
  8
0
  5
16620
 10
63.4720
 20
222.996
 30
0.000000
  70
    32
  0
VERTEX
  8
0
  5
16621
 10
63.4659
 20
223.000
 30
0.000000
  70
    32
  0
VERTEX
  8
0
  5
16622
 10
63.4598
 20
223.004
 30
0.000000
  70
    32
  0
SEQEND
  8
0
  5
16623
  0
LINE
  5
15504
  8
0
 10
56.503714246708789
 20
227.43136037085259
 30
0.0
 11
63.45979118592868
 21
223.0041278157027
 31
0.0
  0
POLYLINE
  5
15509
  8
0
 66
     1
 10
0.0
 20
0.0
 30
0.0
 70
   128
  0
VERTEX
  5
1619D
  8
0
 10
63.507360410241063
 20
201.54602797595669
 30
0.0
  0
VERTEX
  5
1619E
  8
0
 10
63.616076370153451
 20
201.52099661570691
 30
0.0
  0
VERTEX
  5
1619F
  8
0
 10
63.734824536747048
 20
201.4192018955404
 30
0.0
  0
VERTEX
  5
161A0
  8
0
 10
63.809718346791101
 20
201.2555185727887
 30
0.0
  0
VERTEX
  5
161A1
  8
0
 10
63.848903453130099
 20
201.02274464568299
 30
0.0
  0
VERTEX
  5
161A2
  8
0
 10
63.85533900374309
 20
200.91284726672299
 30
0.0
  0
VERTEX
  5
161A3
  8
0
 10
63.857360410240851
 20
200.7934031465239
 30
0.0
  0
SEQEND
  5
161A4
  8
0
  0
POLYLINE
  5
1550A
  8
0
 66
     1
 10
0.0
 20
0.0
 30
0.0
 70
   128
  0
VERTEX
  5
161A5
  8
0
 10
48.207360410240987
 20
201.54602797595669
 30
0.0
  0
VERTEX
  5
161A6
  8
0
 10
48.098644450328258
 20
201.52099661570691
 30
0.0
  0
VERTEX
  5
161A7
  8
0
 10
47.979896283734661
 20
201.4192018955404
 30
0.0
  0
VERTEX
  5
161A8
  8
0
 10
47.905002473690729
 20
201.25551857278859
 30
0.0
  0
VERTEX
  5
161A9
  8
0
 10
47.865817367351603
 20
201.02274464568291
 30
0.0
  0
VERTEX
  5
161AA
  8
0
 10
47.859381816738619
 20
200.91284726672291
 30
0.0
  0
VERTEX
  5
161AB
  8
0
 10
47.857360410240858
 20
200.79340314652379
 30
0.0
  0
SEQEND
  5
161AC
  8
0
  0
LINE
  5
1550E
  8
0
 10
58.407360410240578
 20
233.96733516902421
 30
0.0
 11
53.307360410240669
 21
233.96733516902421
 31
0.0
  0
LINE
  5
15517
  8
0
 10
475.39736041024099
 20
176.0573351690241
 30
0.0
 11
475.39736041024088
 21
171.0673351690242
 31
0.0
  0
LINE
  5
15518
  8
0
 10
483.39736041024088
 20
171.06733516902409
 30
0.0
 11
483.39736041024088
 21
176.0573351690241
 31
0.0
  0
ARC
  5
15533
  8
0
 10
482.53617938545722
 20
186.8441780530074
 30
0.0
 40
21.077136123686088
 50
270.30223427827309
 51
273.77089600366457
  0
ARC
  5
15534
  8
0
 10
482.75807478831928
 20
186.83854927746569
 30
0.0
 40
21.07150496944401
 50
260.82264952651849
 51
269.69895383400262
  0
LINE
  5
15535
  8
0
 10
479.39736041024088
 20
166.03677241715209
 30
0.0
 11
479.39736041024088
 21
170.56733516902409
 31
0.0
  0
LINE
  5
15536
  8
0
 10
474.87236041024079
 20
170.56733516902409
 30
0.0
 11
483.92236041023989
 21
170.56733516902409
 31
0.0
  0
ARC
  5
15537
  8
0
 10
476.03617938545739
 20
186.84417805300629
 30
0.0
 40
21.077136123684809
 50
270.30223427827309
 51
279.1761623612062
  0
ARC
  5
15538
  8
0
 10
476.25807478831888
 20
186.83854927746069
 30
0.0
 40
21.071504969439001
 50
266.22936642120618
 51
269.69895383400262
  0
LINE
  5
1553B
  8
0
 10
474.87236041024079
 20
171.06733516902409
 30
0.0
 11
483.92236041024069
 21
171.06733516902409
 31
0.0
  0
LINE
  5
1553F
  8
0
 10
474.87236041024079
 20
165.76733516902411
 30
0.0
 11
483.92236041023978
 21
165.76733516902419
 31
0.0
  0
POLYLINE
  5
15587
  8
0
 66
     1
 10
0.0
 20
0.0
 30
0.0
 70
   128
  0
VERTEX
  5
161AD
  8
0
 10
468.89955703820362
 20
200.94335303094121
 30
0.0
  0
VERTEX
  5
161AE
  8
0
 10
468.91975263277698
 20
201.19951321277489
 30
0.0
  0
VERTEX
  5
161AF
  8
0
 10
468.9674822298893
 20
201.393853283753
 30
0.0
  0
VERTEX
  5
161B0
  8
0
 10
469.04899543139379
 20
201.51546132672919
 30
0.0
  0
VERTEX
  5
161B1
  8
0
 10
469.16894426284051
 20
201.55733516902399
 30
0.0
  0
SEQEND
  5
161B2
  8
0
  0
LINE
  5
15588
  8
0
 10
468.89955703820362
 20
200.94335303094121
 30
0.0
 11
468.89736041024088
 21
201.06733516902401
 31
0.0
  0
LINE
  5
15589
  8
0
 10
468.89736041024088
 20
201.06733516902401
 30
0.0
 11
468.89736041024111
 21
208.06628523078089
 31
0.0
  0
LINE
  5
1558A
  8
0
 10
469.16894426284051
 20
201.55733516902399
 30
0.0
 11
470.95129125708149
 21
201.55733516902399
 31
0.0
  0
LINE
  5
1558C
  8
0
 10
489.89736041024088
 20
201.06733516902401
 30
0.0
 11
489.89736041024088
 21
208.06628523078081
 31
0.0
  0
LINE
  5
1558D
  8
0
 10
489.89736041024088
 20
201.06733516902401
 30
0.0
 11
489.89516378227842
 21
200.9433530309411
 31
0.0
  0
POLYLINE
  5
1558E
  8
0
 66
     1
 10
0.0
 20
0.0
 30
0.0
 70
   128
  0
VERTEX
  5
161B3
  8
0
 10
489.62577655764147
 20
201.55733516902399
 30
0.0
  0
VERTEX
  5
161B4
  8
0
 10
489.73761539218498
 20
201.52181120082659
 30
0.0
  0
VERTEX
  5
161B5
  8
0
 10
489.82044504629471
 20
201.40998826550521
 30
0.0
  0
VERTEX
  5
161B6
  8
0
 10
489.8721111041869
 20
201.21844360540589
 30
0.0
  0
VERTEX
  5
161B7
  8
0
 10
489.89516378227842
 20
200.9433530309411
 30
0.0
  0
SEQEND
  5
161B8
  8
0
  0
LINE
  5
1558F
  8
0
 10
487.84342956340191
 20
201.5573351690239
 30
0.0
 11
489.62577655764147
 21
201.55733516902399
 31
0.0
  0
ARC
  5
15593
  8
0
 10
486.39736041024071
 20
201.06733516902401
 30
0.0
 40
3.5000000000001639
 50
314.18090954933552
 51
357.96996007900009
  0
ARC
  5
15594
  8
0
 10
472.39736041024059
 20
201.06733516902389
 30
0.0
 40
3.4999999999997038
 50
182.0300399209998
 51
225.81909045067371
  0
LINE
  5
15595
  8
0
 10
471.39736041024099
 20
200.06733516902401
 30
0.0
 11
471.39736041024099
 21
200.79340314652379
 31
0.0
  0
LINE
  5
15596
  8
0
 10
471.39736041024099
 20
200.06733516902401
 30
0.0
 11
472.32236041024078
 21
200.06733516902401
 31
0.0
  0
LINE
  5
15597
  8
0
 10
486.47236041024092
 20
200.06733516902409
 30
0.0
 11
487.39736041024099
 21
200.06733516902401
 31
0.0
  0
LINE
  5
15598
  8
0
 10
487.39736041024099
 20
200.06733516902401
 30
0.0
 11
487.39736041024099
 21
200.7934031465237
 31
0.0
  0
LINE
  5
1559B
  8
0
 10
483.92236041024091
 20
197.56733516902401
 30
0.0
 11
481.89736041024082
 21
197.56733516902401
 31
0.0
  0
ARC
  5
1559D
  8
0
 10
486.39736041024099
 20
201.06733516902401
 30
0.0
 40
3.499999999999984
 50
271.22786068500858
 51
314.1809095493262
  0
ARC
  5
1559E
  8
0
 10
472.39736041024082
 20
201.06733516902401
 30
0.0
 40
3.4999999999999738
 50
225.81909045067371
 51
268.77213931498812
  0
LINE
  5
155BA
  8
0
 10
160.60458366050889
 20
43.267335169024307
 30
0.0
 11
168.11013715997399
 21
43.267335169024243
 31
0.0
  0
LINE
  5
155BD
  8
0
 10
156.85180691077639
 20
49.767335169024129
 30
0.0
 11
160.60458366050889
 21
43.267335169024243
 31
0.0
  0
LINE
  5
155BF
  8
0
 10
171.86291390970661
 20
49.767335169024363
 30
0.0
 11
168.11013715997399
 21
56.26733516902425
 31
0.0
  0
LINE
  5
155C2
  8
0
 10
168.11013715997399
 20
56.26733516902425
 30
0.0
 11
160.60458366050889
 21
56.26733516902425
 31
0.0
  0
LINE
  5
155C6
  8
0
 10
160.60458366050901
 20
56.26733516902425
 30
0.0
 11
156.8518069107763
 21
49.76733516902425
 31
0.0
  0
LINE
  5
155CA
  8
0
 10
168.11013715997399
 20
43.267335169024307
 30
0.0
 11
171.86291390970661
 21
49.76733516902425
 31
0.0
  0
ARC
  5
155CB
  8
0
 10
164.35736041024151
 20
49.767335169024022
 30
0.0
 40
8.4226497308103738
 50
330.8706651555438
 51
29.12933484445616
  0
ARC
  5
155CC
  8
0
 10
164.35736041024151
 20
49.767335169024022
 30
0.0
 40
9.0000000000000071
 50
160.81186354627741
 51
199.18813645372259
  0
ARC
  5
155CD
  8
0
 10
164.35736041024151
 20
49.767335169024022
 30
0.0
 40
8.9999999999999893
 50
332.89931465176261
 51
27.10068534823737
  0
LINE
  5
155DC
  8
0
 10
208.85736041024151
 20
40.32809348358159
 30
0.0
 11
208.85736041024151
 21
59.206576854466448
 31
0.0
  0
POLYLINE
  5
155DD
  8
0
 66
     1
 10
0.0
 20
0.0
 30
0.0
 70
   128
  0
VERTEX
  5
161B9
  8
0
 10
210.0388668681544
 20
39.269531796986598
 30
0.0
  0
VERTEX
  5
161BA
  8
0
 10
209.4337050893875
 20
39.346886989476623
 30
0.0
  0
VERTEX
  5
161BB
  8
0
 10
209.04024061762681
 20
39.594983693958973
 30
0.0
  0
VERTEX
  5
161BC
  8
0
 10
208.87746292747451
 20
40.015936226115741
 30
0.0
  0
VERTEX
  5
161BD
  8
0
 10
208.85736041024151
 20
40.32809348358159
 30
0.0
  0
SEQEND
  5
161BE
  8
0
  0
LINE
  5
155DE
  8
0
 10
209.85736041024151
 20
39.267335169024022
 30
0.0
 11
210.0388668681544
 21
39.269531796986598
 31
0.0
  0
LINE
  5
155DF
  8
0
 10
155.85736041024151
 20
39.267335169024022
 30
0.0
 11
209.85736041024151
 21
39.267335169024022
 31
0.0
  0
ARC
  5
155E1
  8
0
 10
201.35736041024151
 20
49.767335169024022
 30
0.0
 40
4.1000000000000041
 50
270.0
 51
90.0
  0
LINE
  5
155E2
  8
0
 10
169.4957778060292
 20
53.867335169024038
 30
0.0
 11
201.35736041024151
 21
53.867335169024038
 31
0.0
  0
LINE
  5
155E3
  8
0
 10
201.35736041024151
 20
45.667335169024
 30
0.0
 11
169.49577780602911
 21
45.667335169024
 31
0.0
  0
LINE
  5
155E7
  8
0
 10
155.85736041024151
 20
60.267335169024022
 30
0.0
 11
209.85736041024151
 21
60.267335169024022
 31
0.0
  0
LINE
  5
155E8
  8
0
 10
210.0388668681544
 20
60.265138541061447
 30
0.0
 11
209.85736041024151
 21
60.267335169024022
 31
0.0
  0
POLYLINE
  5
155E9
  8
0
 66
     1
 10
0.0
 20
0.0
 30
0.0
 70
   128
  0
VERTEX
  5
161BF
  8
0
 10
208.85736041024151
 20
59.206576854466448
 30
0.0
  0
VERTEX
  5
161C0
  8
0
 10
208.93797965135499
 20
59.75740895331694
 30
0.0
  0
VERTEX
  5
161C1
  8
0
 10
209.05613228635349
 20
59.95823259123722
 30
0.0
  0
VERTEX
  5
161C2
  8
0
 10
209.23436128158389
 20
60.104855244571581
 30
0.0
  0
VERTEX
  5
161C3
  8
0
 10
209.7200202401628
 20
60.243844862026201
 30
0.0
  0
VERTEX
  5
161C4
  8
0
 10
210.0388668681544
 20
60.265138541061447
 30
0.0
  0
SEQEND
  5
161C5
  8
0
  0
LINE
  5
155EB
  8
0
 10
155.85736041024151
 20
39.267335169024022
 30
0.0
 11
155.85736041024151
 21
60.267335169024022
 31
0.0
  0
ARC
  5
155F9
  8
0
 10
209.8573604102414
 20
52.767335169023113
 30
0.0
 40
7.500000000000929
 50
74.533990046580584
 51
88.613257413538207
  0
LINE
  5
155FB
  8
0
 10
211.85736041024151
 20
57.35018481255031
 30
0.0
 11
211.81123629038339
 21
57.369765944711958
 31
0.0
  0
ARC
  5
155FC
  8
0
 10
209.8573604102416
 20
52.767335169024811
 30
0.0
 40
4.9999999999991891
 50
66.997258283090986
 51
90.0
  0
LINE
  5
155FD
  8
0
 10
209.26508341886881
 20
57.767335169024022
 30
0.0
 11
209.85736041024151
 21
57.767335169024022
 31
0.0
  0
LINE
  5
155FE
  8
0
 10
209.26508341886881
 20
57.767335169024022
 30
0.0
 11
209.26508341886881
 21
41.767335169024022
 31
0.0
  0
LINE
  5
155FF
  8
0
 10
209.26508341886881
 20
41.767335169024022
 30
0.0
 11
209.85736041024151
 21
41.767335169024022
 31
0.0
  0
ARC
  5
15600
  8
0
 10
209.8573604102416
 20
46.767335169023333
 30
0.0
 40
4.9999999999992779
 50
270.0
 51
293.00274171690899
  0
LINE
  5
15601
  8
0
 10
211.81123629038339
 20
42.16490439333608
 30
0.0
 11
211.85736041024151
 21
42.184485525497728
 31
0.0
  0
ARC
  5
15603
  8
0
 10
209.85736041024151
 20
46.767335169024363
 30
0.0
 40
7.5000000000003153
 50
271.38674258646182
 51
285.4660099534234
  0
LINE
  5
15604
  8
0
 10
228.1965465900285
 20
49.120981332555971
 30
0.0
 11
226.8573604102414
 21
48.552454894412108
 31
0.0
  0
ARC
  5
15605
  8
0
 10
231.12736041024141
 20
42.217335169024409
 30
0.0
 40
7.4999999999996323
 50
91.914523628314569
 51
113.002741716909
  0
LINE
  5
15606
  8
0
 10
230.87679648705139
 20
49.713148515179107
 30
0.0
 11
230.87679648705139
 21
49.821521822869038
 31
0.0
  0
ARC
  5
15607
  8
0
 10
231.12736041024141
 20
57.317335169023629
 30
0.0
 40
7.4999999999995559
 50
246.99725828309101
 51
268.08547637168539
  0
LINE
  5
15608
  8
0
 10
226.8573604102414
 20
50.98221544363593
 30
0.0
 11
228.1965465900285
 21
50.413689005492067
 31
0.0
  0
LINE
  5
1560A
  8
0
 10
228.11475349983749
 20
52.948987507221659
 30
0.0
 11
227.5421394206638
 21
53.200148516660192
 31
0.0
  0
ARC
  5
1560B
  8
0
 10
231.12736041024141
 20
59.817335169023977
 30
0.0
 40
7.4999999999999636
 50
246.31669687402831
 51
270.0
  0
ARC
  5
1560C
  8
0
 10
231.12736041024161
 20
39.717335169023841
 30
0.0
 40
7.5000000000001688
 50
90.0
 51
113.68330312597161
  0
LINE
  5
1560D
  8
0
 10
227.54213942066369
 20
46.334521821387789
 30
0.0
 11
228.11475349983749
 21
46.585682830826379
 31
0.0
  0
LINE
  5
1560F
  8
0
 10
231.12736041024149
 20
52.317335169024091
 30
0.0
 11
255.4882758199368
 21
52.317335169024091
 31
0.0
  0
LINE
  5
15610
  8
0
 10
255.43827581995211
 20
47.217335169024011
 30
0.0
 11
231.12736041024149
 21
47.217335169024061
 31
0.0
  0
LINE
  5
15611
  8
0
 10
212.86996732064549
 20
39.898987507221712
 30
0.0
 11
225.18019782284699
 21
45.298522782037253
 31
0.0
  0
LINE
  5
15612
  8
0
 10
224.3999493126355
 20
47.509206987986431
 30
0.0
 11
211.85736041024151
 21
42.184485525497728
 31
0.0
  0
ARC
  5
15613
  8
0
 10
209.85736041024151
 20
46.767335169024022
 30
0.0
 40
7.499999999999968
 50
285.4660099534234
 51
293.68330312597459
  0
LINE
  5
15614
  8
0
 10
225.18019782284711
 20
54.236147556010792
 30
0.0
 11
212.86996732064549
 21
59.63568283082634
 31
0.0
  0
LINE
  5
15615
  8
0
 10
211.85736041024151
 20
57.35018481255031
 30
0.0
 11
224.3999493126355
 21
52.025463350061607
 31
0.0
  0
ARC
  5
15616
  8
0
 10
209.85736041024151
 20
52.767335169023909
 30
0.0
 40
7.5000000000000666
 50
66.316696874028324
 51
74.533990046580584
  0
CIRCLE
  5
15625
  8
0
 10
276.85736041024069
 20
190.05733516902399
 30
0.0
 40
4.0000000000017897
  0
CIRCLE
  5
15627
  8
0
 10
238.85736041024069
 20
206.05733516902399
 30
0.0
 40
4.0000000000017906
  0
ARC
  5
1562A
  8
0
 10
276.85736041024069
 20
190.05733516902399
 30
0.0
 40
8.0000000000000142
 50
286.04497562814009
 51
46.707000000000662
  0
LINE
  5
1562B
  8
0
 10
259.42465183649432
 20
195.48989111230651
 30
0.0
 11
256.03704334110171
 21
198.6814305500202
 31
0.0
  0
LINE
  5
1562C
  8
0
 10
272.8082522810995
 20
204.86326466296171
 30
0.0
 11
282.34319587898841
 21
195.88018749497471
 31
0.0
  0
ARC
  5
1562D
  8
0
 10
261.52287880984932
 20
204.50428287597089
 30
0.0
 40
8.0000000000000071
 50
194.32416869237639
 51
226.7070000000007
  0
LINE
  5
1562E
  8
0
 10
236.75736041024069
 20
156.76733516902399
 30
0.0
 11
236.75736041024069
 21
160.26733516902399
 31
0.0
  0
LINE
  5
1562F
  8
0
 10
242.95736041024071
 20
160.26733516902399
 30
0.0
 11
242.95736041024071
 21
156.76733516902399
 31
0.0
  0
LINE
  5
15631
  8
0
 10
230.85736041024069
 20
174.05733516902399
 30
0.0
 11
230.85736041024069
 21
155.76733516902399
 31
0.0
  0
ARC
  5
15632
  8
0
 10
276.85736041024069
 20
190.05733516902399
 30
0.0
 40
7.000000000000016
 50
315.0
 51
95.233395729602734
  0
ARC
  5
15633
  8
0
 10
238.85736041024069
 20
206.55733516902399
 30
0.0
 40
8.0000000000000142
 50
90.0
 51
180.0
  0
ARC
  5
15634
  8
0
 10
279.85736041024069
 20
176.08677242054691
 30
0.0
 40
4.9999999999999707
 50
135.0
 51
180.0
  0
LINE
  5
15635
  8
0
 10
246.06312212637721
 20
211.73470405871711
 30
0.0
 11
245.21040526111159
 21
212.5024937728432
 31
0.0
  0
ARC
  5
15636
  8
0
 10
228.85736041024069
 20
198.05733516902399
 30
0.0
 40
1.9999999999999849
 50
300.00000000000051
 51
0.0
  0
LINE
  5
15637
  8
0
 10
251.1573604102407
 20
201.30733516902399
 30
0.0
 11
251.1573604102407
 21
204.9216878787667
 31
0.0
  0
ARC
  5
15638
  8
0
 10
257.1573604102407
 20
201.30733516902399
 30
0.0
 40
6.0
 50
180.0
 51
275.233395729606
  0
LINE
  5
15639
  8
0
 10
276.21886919068288
 20
197.02815498899841
 30
0.0
 11
257.70463859843312
 21
195.332346751903
 31
0.0
  0
ARC
  5
1563A
  8
0
 10
268.85736041024069
 20
155.76733516902399
 30
0.0
 40
6.0
 50
270.0
 51
0.0
  0
LINE
  5
1563B
  8
0
 10
230.85736041024069
 20
206.55733516902399
 30
0.0
 11
230.85736041024069
 21
198.05733516902399
 31
0.0
  0
ARC
  5
1563C
  8
0
 10
236.85736041024069
 20
155.76733516902399
 30
0.0
 40
5.9999999999999849
 50
180.0
 51
270.0
  0
ARC
  5
1563D
  8
0
 10
239.85736041024069
 20
206.5573351690241
 30
0.0
 40
7.999999999999881
 50
48.000000000001172
 51
90.0
  0
ARC
  5
1563E
  8
0
 10
246.1573604102407
 20
204.9216878787667
 30
0.0
 40
5.000000000000008
 50
0.0
 51
9.2593160448534881
  0
ARC
  5
1563F
  8
0
 10
239.85736041024069
 20
160.26733516902399
 30
0.0
 40
3.1000000000000081
 50
0.0
 51
180.0
  0
ARC
  5
15640
  8
0
 10
239.85736041024069
 20
156.76733516902399
 30
0.0
 40
3.1000000000000081
 50
180.0
 51
0.0
  0
LINE
  5
15641
  8
0
 10
268.95736041024071
 20
160.26733516902399
 30
0.0
 11
268.95736041024071
 21
156.76733516902399
 31
0.0
  0
ARC
  5
15642
  8
0
 10
265.85736041024069
 20
160.26733516902399
 30
0.0
 40
3.1000000000000218
 50
0.0
 51
180.0
  0
LINE
  5
15643
  8
0
 10
262.75736041024072
 20
156.76733516902399
 30
0.0
 11
262.75736041024072
 21
160.26733516902399
 31
0.0
  0
ARC
  5
15644
  8
0
 10
265.85736041024069
 20
156.76733516902399
 30
0.0
 40
3.1000000000000218
 50
180.0
 51
0.0
  0
LINE
  5
15645
  8
0
 10
238.85736041024069
 20
214.55733516902399
 30
0.0
 11
239.85736041024069
 21
214.55733516902399
 31
0.0
  0
ARC
  5
15646
  8
0
 10
228.85736041024069
 20
174.05733516902399
 30
0.0
 40
2.0
 50
0.0
 51
59.99999999999946
  0
LINE
  5
15647
  8
0
 10
276.32182650430798
 20
179.62230632647959
 30
0.0
 11
281.8071078785465
 21
185.1075877007182
 31
0.0
  0
LINE
  5
15648
  8
0
 10
274.85736041024069
 20
155.76733516902399
 30
0.0
 11
274.8573604102408
 21
176.08677242054691
 31
0.0
  0
LINE
  5
15649
  8
0
 10
236.85736041024069
 20
149.76733516902399
 30
0.0
 11
268.85736041024069
 21
149.76733516902399
 31
0.0
  0
LINE
  5
1564A
  8
0
 10
228.85736041024069
 20
176.05733516902399
 30
0.0
 11
224.35736041024069
 21
176.05733516902399
 31
0.0
  0
LINE
  5
1564B
  8
0
 10
224.35736041024069
 20
176.05733516902399
 30
0.0
 11
224.35736041024069
 21
196.05733516902399
 31
0.0
  0
LINE
  5
1564C
  8
0
 10
224.35736041024069
 20
196.05733516902399
 30
0.0
 11
228.85736041024069
 21
196.05733516902399
 31
0.0
  0
ARC
  5
1564D
  8
0
 10
228.85736041024069
 20
198.05733516902399
 30
0.0
 40
1.9999999999999789
 50
270.0
 51
300.00000000000341
  0
ARC
  5
1564E
  8
0
 10
228.8573604102408
 20
174.05733516902421
 30
0.0
 40
1.9999999999998339
 50
59.999999999996639
 51
90.0
  0
LINE
  5
1566F
  8
0
 10
282.85736041024069
 20
339.75826138462469
 30
0.0
 11
282.85736041024069
 21
341.4582613845435
 31
0.0
  0
LINE
  5
15672
  8
0
 10
282.65736041025099
 20
339.55826138461271
 30
0.0
 11
282.85736041029281
 21
339.75826138462469
 31
0.0
  0
LINE
  5
15673
  8
0
 10
282.85736041026388
 20
341.4582613845435
 30
0.0
 11
282.73236041018907
 21
341.58326138462479
 31
0.0
  0
LINE
  5
15676
  8
0
 10
255.2882758198995
 20
341.45826138454328
 30
0.0
 11
255.2882758198995
 21
339.75826138462469
 31
0.0
  0
LINE
  5
15677
  8
0
 10
255.2882758199151
 20
339.75826138462469
 30
0.0
 11
255.43827581992491
 21
339.60826138462471
 31
0.0
  0
LINE
  5
1567A
  8
0
 10
255.48827581994021
 20
341.65826138460682
 30
0.0
 11
255.28827581988719
 21
341.45826138454328
 31
0.0
  0
LINE
  5
1567C
  8
0
 10
284.85736041024069
 20
334.55826138462459
 30
0.0
 11
284.85736041024069
 21
339.55826138462481
 31
0.0
  0
LINE
  5
1567D
  8
0
 10
282.85736041015838
 20
334.3082613846247
 30
0.0
 11
282.60736041020903
 21
334.55826138462697
 31
0.0
  0
LINE
  5
15680
  8
0
 10
282.85736041024069
 20
332.80826138466841
 30
0.0
 11
282.85736041024069
 21
334.3082613846247
 31
0.0
  0
LINE
  5
15682
  8
0
 10
282.60736041020903
 20
332.55826138467432
 30
0.0
 11
282.8573604102001
 21
332.80826138466841
 31
0.0
  0
LINE
  5
15684
  8
0
 10
255.48827581991009
 20
334.50826138462457
 30
0.0
 11
255.28827581995239
 21
334.3082613846247
 31
0.0
  0
LINE
  5
15685
  8
0
 10
255.2882758198995
 20
334.3082613846247
 30
0.0
 11
255.2882758198995
 21
332.8082613846683
 31
0.0
  0
LINE
  5
15687
  8
0
 10
255.28827581991069
 20
332.8082613846683
 30
0.0
 11
255.5382758199018
 21
332.55826138467421
 31
0.0
  0
LINE
  5
156A0
  8
0
 10
261.89736041024071
 20
339.55826138462459
 30
0.0
 11
256.09016434820199
 21
339.55826138462447
 31
0.0
  0
LINE
  5
156A5
  8
0
 10
284.85736041024069
 20
339.55826138462481
 30
0.0
 11
266.89736041024082
 21
339.55826138462379
 31
0.0
  0
LINE
  5
156A8
  8
0
 10
282.60736041020903
 20
332.55826138467432
 30
0.0
 11
271.10736041027241
 21
332.55826138467432
 31
0.0
  0
LINE
  5
156AD
  8
0
 10
256.09016434820199
 20
334.55826138462459
 30
0.0
 11
261.89736041024071
 21
334.55826138462459
 31
0.0
  0
LINE
  5
156B2
  8
0
 10
266.89736041024082
 20
334.5582613846239
 30
0.0
 11
284.85736041024069
 21
334.5582613846247
 31
0.0
  0
LINE
  5
156B7
  8
0
 10
239.69736041024061
 20
344.13326138462457
 30
0.0
 11
229.8573604102406
 21
344.13326138462469
 31
0.0
  0
LINE
  5
156DC
  8
0
 10
240.69736041024061
 20
341.58326138462479
 30
0.0
 11
229.85736041024049
 21
341.58326138462479
 31
0.0
  0
LINE
  5
156F7
  8
0
 10
62.932360410241067
 20
186.05733516902399
 30
0.0
 11
64.273878598623867
 21
186.05733516902399
 31
0.0
  0
LINE
  5
156F8
  8
0
 10
64.273878598623867
 20
194.05733516902399
 30
0.0
 11
62.932360410241067
 21
194.05733516902399
 31
0.0
  0
ARC
  5
156F9
  8
0
 10
4.4073604102293871
 20
190.05733516902399
 30
0.0
 40
60.000000000011909
 50
356.1774462707225
 51
0.0
  0
ARC
  5
156FA
  8
0
 10
4.4073604102293871
 20
190.05733516902399
 30
0.0
 40
60.000000000011909
 50
0.0
 51
3.822553729277482
  0
ARC
  5
156FB
  8
0
 10
107.3073604102604
 20
190.05733516902399
 30
0.0
 40
60.0000000000217
 50
181.91021317170819
 51
183.82255372929049
  0
ARC
  5
156FC
  8
0
 10
107.3073604102604
 20
190.05733516902399
 30
0.0
 40
60.0000000000217
 50
176.17744627070951
 51
178.08978682829181
  0
LINE
  5
156FD
  8
0
 10
47.440842221857849
 20
186.05733516902399
 30
0.0
 11
48.78236041024104
 21
186.05733516902399
 31
0.0
  0
LINE
  5
156FE
  8
0
 10
48.78236041024104
 20
194.05733516902399
 30
0.0
 11
47.440842221857849
 21
194.05733516902399
 31
0.0
  0
LINE
  5
1571D
  8
0
 10
64.273878598623867
 20
186.05733516902399
 30
0.0
 11
64.273878598623867
 21
194.05733516902399
 31
0.0
  0
LINE
  5
1571E
  8
0
 10
47.340703007978902
 20
192.0573351690241
 30
0.0
 11
47.340703007978902
 21
188.05733516902379
 31
0.0
  0
LINE
  5
1571F
  8
0
 10
47.440842221857849
 20
194.05733516902399
 30
0.0
 11
47.440842221857849
 21
186.0573351690071
 31
0.0
  0
POLYLINE
  5
15743
  8
0
 66
     1
 10
0.0
 20
0.0
 30
0.0
 70
   128
  0
VERTEX
  5
161C6
  8
0
 10
48.78236041024104
 20
175.78938597659291
 30
0.0
  0
VERTEX
  5
161C7
  8
0
 10
48.789795374334062
 20
175.92549937525141
 30
0.0
  0
VERTEX
  5
161C8
  8
0
 10
48.814947206034617
 20
176.01648141349469
 30
0.0
  0
VERTEX
  5
161C9
  8
0
 10
48.840453261753339
 20
176.04703423199709
 30
0.0
  0
VERTEX
  5
161CA
  8
0
 10
48.874033497045097
 20
176.05733516902399
 30
0.0
  0
SEQEND
  5
161CB
  8
0
  0
POLYLINE
  5
15745
  8
0
 66
     1
 10
0.0
 20
0.0
 30
0.0
 70
   128
  0
VERTEX
  5
161CC
  8
0
 10
48.874033497045097
 20
196.05733516902399
 30
0.0
  0
VERTEX
  5
161CD
  8
0
 10
48.79499829474679
 20
196.15827923426451
 30
0.0
  0
VERTEX
  5
161CE
  8
0
 10
48.78236041024104
 20
196.32528436145509
 30
0.0
  0
SEQEND
  5
161CF
  8
0
  0
LINE
  5
15747
  8
0
 10
49.357360435473709
 20
196.05733516902399
 30
0.0
 11
48.874033497045097
 21
196.05733516902399
 31
0.0
  0
LINE
  5
15748
  8
0
 10
48.874033497045097
 20
176.05733516902399
 30
0.0
 11
51.857360410241078
 21
176.05733516902399
 31
0.0
  0
POLYLINE
  5
1574C
  8
0
 66
     1
 10
0.0
 20
0.0
 30
0.0
 70
   128
  0
VERTEX
  5
161D0
  8
0
 10
62.840687323437059
 20
176.05733516902399
 30
0.0
  0
VERTEX
  5
161D1
  8
0
 10
62.889162760274019
 20
176.03284516002029
 30
0.0
  0
VERTEX
  5
161D2
  8
0
 10
62.91972252573526
 20
175.9563911037834
 30
0.0
  0
VERTEX
  5
161D3
  8
0
 10
62.929307915309671
 20
175.88294849164461
 30
0.0
  0
VERTEX
  5
161D4
  8
0
 10
62.932360410241067
 20
175.78938597659291
 30
0.0
  0
SEQEND
  5
161D5
  8
0
  0
POLYLINE
  5
1574D
  8
0
 66
     1
 10
0.0
 20
0.0
 30
0.0
 70
   128
  0
VERTEX
  5
161D6
  8
0
 10
62.932360410241067
 20
196.32528436145509
 30
0.0
  0
VERTEX
  5
161D7
  8
0
 10
62.924925446148052
 20
196.18917096279651
 30
0.0
  0
VERTEX
  5
161D8
  8
0
 10
62.899773614447497
 20
196.0981889245532
 30
0.0
  0
VERTEX
  5
161D9
  8
0
 10
62.874267558728782
 20
196.06763610605091
 30
0.0
  0
VERTEX
  5
161DA
  8
0
 10
62.840687323437059
 20
196.05733516902399
 30
0.0
  0
SEQEND
  5
161DB
  8
0
  0
LINE
  5
1574F
  8
0
 10
62.357360410241142
 20
196.05733516902399
 30
0.0
 11
62.840687323437059
 21
196.05733516902399
 31
0.0
  0
LINE
  5
15750
  8
0
 10
62.840687323437059
 20
176.05733516902399
 30
0.0
 11
59.857360410241078
 21
176.05733516902399
 31
0.0
  0
POLYLINE
  5
15752
  8
0
 66
     1
 10
0.0
 20
0.0
 30
0.0
 70
   128
  0
VERTEX
  5
161DC
  8
0
 10
51.332360410241051
 20
175.78938597659291
 30
0.0
  0
VERTEX
  5
161DD
  8
0
 10
51.380990610034871
 20
176.00323655754991
 30
0.0
  0
VERTEX
  5
161DE
  8
0
 10
51.503933285494831
 20
176.05733516902399
 30
0.0
  0
SEQEND
  5
161DF
  8
0
  0
POLYLINE
  5
15753
  8
0
 66
     1
 10
0.0
 20
0.0
 30
0.0
 70
   128
  0
VERTEX
  5
161E0
  8
0
 10
60.382360410241063
 20
175.78938597659291
 30
0.0
  0
VERTEX
  5
161E1
  8
0
 10
60.371215806720329
 20
175.9147396848235
 30
0.0
  0
VERTEX
  5
161E2
  8
0
 10
60.333730210447179
 20
176.00323655754991
 30
0.0
  0
VERTEX
  5
161E3
  8
0
 10
60.282484932083662
 20
176.04379202095581
 30
0.0
  0
VERTEX
  5
161E4
  8
0
 10
60.210787534987219
 20
176.05733516902399
 30
0.0
  0
SEQEND
  5
161E5
  8
0
  0
LINE
  5
15758
  8
0
 10
51.332360410241051
 20
175.78938597659291
 30
0.0
 11
51.332360410241051
 21
171.06733516902389
 31
0.0
  0
LINE
  5
1575D
  8
0
 10
60.382360410241063
 20
171.06733516902409
 30
0.0
 11
60.382360410241063
 21
175.78938597659291
 31
0.0
  0
LINE
  5
15765
  8
0
 10
51.332360410241108
 20
149.76733516902399
 30
0.0
 11
51.332360410240987
 21
165.76733516902411
 31
0.0
  0
LINE
  5
1576A
  8
0
 10
51.332360410241051
 20
149.76733516902399
 30
0.0
 11
48.78236041024104
 21
149.76733516902399
 31
0.0
  0
LINE
  5
1576C
  8
0
 10
48.78236041024104
 20
197.56813883272059
 30
0.0
 11
48.78236041024104
 21
149.76733516902399
 31
0.0
  0
LINE
  5
15770
  8
0
 10
62.93236041024101
 20
149.76733516902399
 30
0.0
 11
60.382360410240999
 21
149.76733516902399
 31
0.0
  0
LINE
  5
15772
  8
0
 10
62.932360410241408
 20
197.56813883272059
 30
0.0
 11
62.93236041024101
 21
149.76733516902399
 31
0.0
  0
LINE
  5
15779
  8
0
 10
472.32236041024078
 20
194.05733516902399
 30
0.0
 11
470.98084222185781
 21
194.05733516902399
 31
0.0
  0
LINE
  5
1577A
  8
0
 10
470.98084222185781
 20
186.05733516902399
 30
0.0
 11
472.32236041024078
 21
186.05733516902399
 31
0.0
  0
ARC
  5
1577B
  8
0
 10
530.84736041025235
 20
190.05733516902399
 30
0.0
 40
60.00000000001188
 50
176.1774462707225
 51
180.0
  0
ARC
  5
1577C
  8
0
 10
530.84736041025235
 20
190.05733516902399
 30
0.0
 40
60.00000000001188
 50
180.0
 51
183.82255372927739
  0
ARC
  5
1577D
  8
0
 10
427.94736041022128
 20
190.05733516902399
 30
0.0
 40
60.000000000021707
 50
1.9102131717081761
 51
3.822553729290481
  0
ARC
  5
1577E
  8
0
 10
427.94736041022128
 20
190.05733516902399
 30
0.0
 40
60.000000000021707
 50
356.17744627070948
 51
358.08978682829178
  0
LINE
  5
1577F
  8
0
 10
487.81387859862377
 20
194.05733516902399
 30
0.0
 11
486.4723604102407
 21
194.05733516902399
 31
0.0
  0
LINE
  5
15780
  8
0
 10
486.4723604102407
 20
186.05733516902399
 30
0.0
 11
487.81387859862377
 21
186.05733516902399
 31
0.0
  0
LINE
  5
15781
  8
0
 10
474.89736041029039
 20
193.05733516902399
 30
0.0
 11
474.87236041024079
 21
193.05733516902399
 31
0.0
  0
LINE
  5
15782
  8
0
 10
474.87236041024079
 20
187.05733516902399
 30
0.0
 11
474.89736041029039
 21
187.05733516902399
 31
0.0
  0
LINE
  5
15784
  8
0
 10
470.98084222185781
 20
201.08733516902589
 30
0.0
 11
472.34736041024081
 21
201.08733516902589
 31
0.0
  0
ARC
  5
15785
  8
0
 10
530.84736041025235
 20
205.08733516902589
 30
0.0
 40
60.000000000011909
 50
177.15414222491529
 51
180.0
  0
ARC
  5
15786
  8
0
 10
530.84736041025235
 20
205.08733516902589
 30
0.0
 40
60.000000000011909
 50
180.0
 51
183.82255372927739
  0
ARC
  5
15787
  8
0
 10
427.94736041022128
 20
205.08733516902589
 30
0.0
 40
60.000000000021707
 50
1.9102131717081761
 51
2.845857775084633
  0
ARC
  5
15788
  8
0
 10
427.94736041022128
 20
205.08733516902589
 30
0.0
 40
60.000000000021707
 50
356.17744627070948
 51
358.08978682829178
  0
LINE
  5
1578A
  8
0
 10
486.44736041024089
 20
201.08733516902589
 30
0.0
 11
487.81387859862389
 21
201.08733516902589
 31
0.0
  0
ARC
  5
15792
  8
0
 10
427.94736041022139
 20
206.05733516902399
 30
0.0
 40
60.000000000021707
 50
1.9102131717081761
 51
1.9187646245570511
  0
LINE
  5
15795
  8
0
 10
482.09736041024081
 20
184.05733516902399
 30
0.0
 11
483.79736041015951
 21
184.05733516902399
 31
0.0
  0
LINE
  5
15796
  8
0
 10
483.79736041015951
 20
196.05733516902399
 30
0.0
 11
482.09736041024081
 21
196.05733516902399
 31
0.0
  0
LINE
  5
15797
  8
0
 10
482.09736041024081
 20
196.057335169076
 30
0.0
 11
481.89736041022871
 21
195.85733516903429
 31
0.0
  0
LINE
  5
15798
  8
0
 10
481.89736041022871
 20
184.25733516901369
 30
0.0
 11
482.09736041024081
 21
184.05733516897189
 31
0.0
  0
LINE
  5
15799
  8
0
 10
483.79736041015951
 20
184.05733516900079
 30
0.0
 11
483.92236041024069
 21
184.1823351690756
 31
0.0
  0
LINE
  5
1579A
  8
0
 10
483.92236041024091
 20
195.9323351689722
 30
0.0
 11
483.79736041015951
 21
196.05733516904721
 31
0.0
  0
LINE
  5
1579B
  8
0
 10
482.09736041024081
 20
198.72486828542691
 30
0.0
 11
483.79736041015963
 21
198.72486828542691
 31
0.0
  0
LINE
  5
1579E
  8
0
 10
481.89736041023968
 20
198.92486828545691
 30
0.0
 11
482.09736041024081
 21
198.72486828544251
 31
0.0
  0
LINE
  5
1579F
  8
0
 10
483.79736041015963
 20
198.72486828541469
 30
0.0
 11
483.997360410223
 21
198.92486828546771
 31
0.0
  0
LINE
  5
157A3
  8
0
 10
476.64736041024082
 20
196.05733516902399
 30
0.0
 11
475.14736041028442
 21
196.05733516902399
 31
0.0
  0
LINE
  5
157A4
  8
0
 10
475.14736041028442
 20
184.05733516902399
 30
0.0
 11
476.64736041024082
 21
184.05733516902399
 31
0.0
  0
LINE
  5
157A5
  8
0
 10
476.64736041024082
 20
184.0573351691063
 30
0.0
 11
476.8973604102431
 21
184.3073351690557
 31
0.0
  0
LINE
  5
157A6
  8
0
 10
476.8973604102431
 20
195.80733516899221
 30
0.0
 11
476.64736041024082
 21
196.05733516894171
 31
0.0
  0
LINE
  5
157A7
  8
0
 10
475.14736041028442
 20
196.0573351689834
 30
0.0
 11
474.89736041029039
 21
195.80733516899221
 31
0.0
  0
LINE
  5
157A8
  8
0
 10
474.89736041029039
 20
184.3073351690557
 30
0.0
 11
475.14736041028442
 21
184.05733516906449
 31
0.0
  0
LINE
  5
157AA
  8
0
 10
475.14736041028448
 20
198.72486828542691
 30
0.0
 11
476.64736041024088
 21
198.72486828542691
 31
0.0
  0
LINE
  5
157AB
  8
0
 10
476.64736041024088
 20
198.72486828547989
 30
0.0
 11
476.8973604102431
 21
198.97486828542921
 31
0.0
  0
LINE
  5
157AE
  8
0
 10
474.89736041029039
 20
198.97486828542921
 30
0.0
 11
475.14736041028448
 21
198.72486828543819
 31
0.0
  0
LINE
  5
157AF
  8
0
 10
476.89736041024082
 20
182.05733516902399
 30
0.0
 11
481.89736041024082
 21
182.05733516902399
 31
0.0
  0
LINE
  5
157B3
  8
0
 10
470.98084222185781
 20
194.05733516902399
 30
0.0
 11
470.98084222185781
 21
186.05733516902399
 31
0.0
  0
LINE
  5
157B5
  8
0
 10
487.91401781250278
 20
188.05733516902379
 30
0.0
 11
487.91401781250278
 21
192.0573351690241
 31
0.0
  0
LINE
  5
157B6
  8
0
 10
487.81387859862377
 20
186.0573351690071
 30
0.0
 11
487.81387859862377
 21
194.05733516904081
 31
0.0
  0
LINE
  5
157B7
  8
0
 10
472.34736041024081
 20
208.06628523078089
 30
0.0
 11
472.34736041024109
 21
197.58733516902419
 31
0.0
  0
LINE
  5
157B9
  8
0
 10
470.98084222185781
 20
208.06628523078089
 30
0.0
 11
470.98084222185781
 21
201.08733516902581
 31
0.0
  0
LINE
  5
157BA
  8
0
 10
487.91401781250289
 20
203.08733516902589
 30
0.0
 11
487.91401781250289
 21
207.08733516902589
 31
0.0
  0
LINE
  5
157BB
  8
0
 10
487.813878598624
 20
201.08733516900901
 30
0.0
 11
487.81387859862389
 21
208.06628523078061
 31
0.0
  0
LINE
  5
157BC
  8
0
 10
486.44736041024089
 20
197.58733516902419
 30
0.0
 11
486.44736041024089
 21
208.06628523078081
 31
0.0
  0
LINE
  5
157C7
  8
0
 10
483.997360410223
 20
208.06628523078089
 30
0.0
 11
483.99736041022288
 21
197.58733516902419
 31
0.0
  0
LINE
  5
157CD
  8
0
 10
481.89736041024082
 20
182.05733516902399
 30
0.0
 11
481.89736041024082
 21
208.06628523078081
 31
0.0
  0
LINE
  5
157D2
  8
0
 10
474.89736041029039
 20
184.3073351690557
 30
0.0
 11
474.89736041029039
 21
195.80733516899221
 31
0.0
  0
LINE
  5
157D5
  8
0
 10
474.89736041029039
 20
198.97486828542921
 30
0.0
 11
474.89736041029039
 21
208.06628523078081
 31
0.0
  0
LINE
  5
157DA
  8
0
 10
476.89736041024082
 20
208.06628523078081
 30
0.0
 11
476.89736041024082
 21
182.05733516902399
 31
0.0
  0
LINE
  5
157F3
  8
0
 10
483.92236041024069
 20
149.76733516902399
 30
0.0
 11
486.47236041024081
 21
149.76733516902399
 31
0.0
  0
LINE
  5
157F9
  8
0
 10
472.32236041024078
 20
149.76733516902399
 30
0.0
 11
474.87236041024079
 21
149.76733516902399
 31
0.0
  0
LINE
  5
157FC
  8
0
 10
483.92236041023932
 20
149.76733516902399
 30
0.0
 11
483.92236041024091
 21
198.84986828548949
 31
0.0
  0
LINE
  5
157FD
  8
0
 10
486.47236041024053
 20
149.76733516902399
 30
0.0
 11
486.47236041024081
 21
201.08733516902589
 31
0.0
  0
LINE
  5
157FF
  8
0
 10
472.32236041024078
 20
149.76733516902399
 30
0.0
 11
472.32236041024078
 21
201.08733516902589
 31
0.0
  0
LINE
  5
15804
  8
0
 10
474.8723604102409
 20
149.76733516902399
 30
0.0
 11
474.8723604102409
 21
202.0873351690241
 31
0.0
  0
POLYLINE
  5
15811
  8
0
 66
     1
 10
0.0
 20
0.0
 30
0.0
 70
   128
  0
VERTEX
  5
161E6
  8
0
 10
483.92236041024091
 20
175.78938597659291
 30
0.0
  0
VERTEX
  5
161E7
  8
0
 10
483.87373021044709
 20
176.00323655754991
 30
0.0
  0
VERTEX
  5
161E8
  8
0
 10
483.75078753498713
 20
176.05733516902399
 30
0.0
  0
SEQEND
  5
161E9
  8
0
  0
POLYLINE
  5
15812
  8
0
 66
     1
 10
0.0
 20
0.0
 30
0.0
 70
   128
  0
VERTEX
  5
161EA
  8
0
 10
483.75078753498713
 20
196.05733516902399
 30
0.0
  0
VERTEX
  5
161EB
  8
0
 10
483.88969001093551
 20
196.13688750572319
 30
0.0
  0
VERTEX
  5
161EC
  8
0
 10
483.92236041024091
 20
196.32528436145509
 30
0.0
  0
SEQEND
  5
161ED
  8
0
  0
POLYLINE
  5
15813
  8
0
 66
     1
 10
0.0
 20
0.0
 30
0.0
 70
   128
  0
VERTEX
  5
161EE
  8
0
 10
474.8723604102409
 20
175.78938597659291
 30
0.0
  0
VERTEX
  5
161EF
  8
0
 10
474.88350501376169
 20
175.9147396848235
 30
0.0
  0
VERTEX
  5
161F0
  8
0
 10
474.92099061003478
 20
176.00323655754991
 30
0.0
  0
VERTEX
  5
161F1
  8
0
 10
474.97223588839842
 20
176.04379202095581
 30
0.0
  0
VERTEX
  5
161F2
  8
0
 10
475.0439332854948
 20
176.05733516902399
 30
0.0
  0
SEQEND
  5
161F3
  8
0
  0
POLYLINE
  5
15814
  8
0
 66
     1
 10
0.0
 20
0.0
 30
0.0
 70
   128
  0
VERTEX
  5
161F4
  8
0
 10
474.8723604102409
 20
196.32528436145509
 30
0.0
  0
VERTEX
  5
161F5
  8
0
 10
474.88350501376169
 20
196.19993065322441
 30
0.0
  0
VERTEX
  5
161F6
  8
0
 10
474.92099061003478
 20
196.111433780498
 30
0.0
  0
VERTEX
  5
161F7
  8
0
 10
474.97223588839842
 20
196.07087831709219
 30
0.0
  0
VERTEX
  5
161F8
  8
0
 10
475.0439332854948
 20
196.05733516902399
 30
0.0
  0
SEQEND
  5
161F9
  8
0
  0
LINE
  5
15815
  8
0
 10
481.89736041024082
 20
196.05733516902399
 30
0.0
 11
482.09736041024081
 21
196.05733516902399
 31
0.0
  0
LINE
  5
15817
  8
0
 10
475.0439332854948
 20
196.05733516902399
 30
0.0
 11
475.14736041032501
 21
196.05733516902399
 31
0.0
  0
LINE
  5
15818
  8
0
 10
476.64736041015851
 20
196.05733516902399
 30
0.0
 11
476.89736041024082
 21
196.05733516902399
 31
0.0
  0
LINE
  5
15819
  8
0
 10
483.75078753498713
 20
176.05733516902399
 30
0.0
 11
475.0439332854948
 21
176.05733516902399
 31
0.0
  0
LINE
  5
15820
  8
0
 10
280.85736041024143
 20
56.842335169023841
 30
0.0
 11
280.85736041024143
 21
58.183853357406861
 31
0.0
  0
LINE
  5
15821
  8
0
 10
272.85736041024143
 20
58.183853357406861
 30
0.0
 11
272.85736041024143
 21
56.842335169024061
 31
0.0
  0
ARC
  5
15822
  8
0
 10
276.85736041024143
 20
-1.6826648309876191
 30
0.0
 40
60.000000000011909
 50
86.177446270722513
 51
90.0
  0
ARC
  5
15823
  8
0
 10
276.85736041024143
 20
-1.6826648309876191
 30
0.0
 40
60.000000000011909
 50
90.0
 51
93.822553729277487
  0
ARC
  5
15824
  8
0
 10
276.85736041024143
 20
101.21733516904339
 30
0.0
 40
60.0000000000217
 50
271.91021317170822
 51
273.82255372929052
  0
ARC
  5
15825
  8
0
 10
276.85736041024143
 20
101.21733516904339
 30
0.0
 40
60.0000000000217
 50
266.17744627071278
 51
268.08978682829178
  0
LINE
  5
15826
  8
0
 10
280.85736041024143
 20
41.350816980640843
 30
0.0
 11
280.85736041024143
 21
42.692335169023863
 31
0.0
  0
LINE
  5
15827
  8
0
 10
272.85736041024143
 20
42.692335169023977
 30
0.0
 11
272.85736041024143
 21
41.350816980640843
 31
0.0
  0
LINE
  5
15828
  8
0
 10
279.85736041024143
 20
54.267335168974341
 30
0.0
 11
279.85736041024143
 21
54.292335169023893
 31
0.0
  0
LINE
  5
15829
  8
0
 10
273.85736041024143
 20
54.292335169023993
 30
0.0
 11
273.85736041024143
 21
54.267335168974341
 31
0.0
  0
LINE
  5
1582A
  8
0
 10
265.40736041023558
 20
56.842335169024061
 30
0.0
 11
265.40736041023558
 21
58.183853357406861
 31
0.0
  0
LINE
  5
1582B
  8
0
 10
257.40736041023558
 20
58.183853357406861
 30
0.0
 11
257.40736041023558
 21
56.842335169024061
 31
0.0
  0
ARC
  5
1582C
  8
0
 10
261.40736041023558
 20
-1.6826648309876191
 30
0.0
 40
60.000000000011902
 50
86.177446270722513
 51
90.0
  0
ARC
  5
1582D
  8
0
 10
261.40736041023558
 20
-1.6826648309876191
 30
0.0
 40
60.000000000011902
 50
90.0
 51
93.822553729277487
  0
ARC
  5
1582E
  8
0
 10
261.40736041023558
 20
101.2173351690432
 30
0.0
 40
60.0000000000217
 50
271.91021317170822
 51
273.82255372929052
  0
ARC
  5
1582F
  8
0
 10
261.40736041023558
 20
101.2173351690432
 30
0.0
 40
60.0000000000217
 50
266.17744627071278
 51
268.08978682829178
  0
LINE
  5
15830
  8
0
 10
265.40736041023558
 20
41.350816980640722
 30
0.0
 11
265.40736041023558
 21
42.692335169023977
 31
0.0
  0
LINE
  5
15831
  8
0
 10
257.40736041023558
 20
42.692335169023977
 30
0.0
 11
257.40736041023558
 21
41.350816980640722
 31
0.0
  0
LINE
  5
15832
  8
0
 10
264.40736041023558
 20
54.267335168974228
 30
0.0
 11
264.40736041023558
 21
54.292335169023993
 31
0.0
  0
LINE
  5
15833
  8
0
 10
258.40736041023558
 20
54.292335169023993
 30
0.0
 11
258.40736041023558
 21
54.267335168974228
 31
0.0
  0
LINE
  5
15834
  8
0
 10
242.8573604102414
 20
56.842335169024061
 30
0.0
 11
242.8573604102414
 21
58.183853357406861
 31
0.0
  0
LINE
  5
15835
  8
0
 10
234.85736041024151
 20
58.183853357406861
 30
0.0
 11
234.85736041024151
 21
56.842335169024061
 31
0.0
  0
ARC
  5
15836
  8
0
 10
238.8573604102414
 20
-1.6826648309876191
 30
0.0
 40
60.000000000011902
 50
86.177446270722513
 51
90.0
  0
ARC
  5
15837
  8
0
 10
238.8573604102414
 20
-1.6826648309877319
 30
0.0
 40
60.000000000011909
 50
90.0
 51
93.822553729277487
  0
ARC
  5
15838
  8
0
 10
238.8573604102414
 20
101.2173351690432
 30
0.0
 40
60.0000000000217
 50
271.91021317170822
 51
273.82255372929052
  0
ARC
  5
15839
  8
0
 10
238.8573604102414
 20
101.2173351690432
 30
0.0
 40
60.0000000000217
 50
266.17744627071278
 51
268.08978682829178
  0
LINE
  5
1583A
  8
0
 10
242.8573604102414
 20
41.350816980640722
 30
0.0
 11
242.8573604102414
 21
42.692335169023977
 31
0.0
  0
LINE
  5
1583B
  8
0
 10
234.8573604102414
 20
42.692335169023977
 30
0.0
 11
234.8573604102414
 21
41.350816980640722
 31
0.0
  0
LINE
  5
1583C
  8
0
 10
241.8573604102414
 20
45.242335169024052
 30
0.0
 11
241.8573604102414
 21
47.217335169024061
 31
0.0
  0
LINE
  5
1583D
  8
0
 10
235.8573604102414
 20
54.292335169023993
 30
0.0
 11
235.8573604102414
 21
52.317335169024027
 31
0.0
  0
LINE
  5
1583E
  8
0
 10
270.85736041024143
 20
47.067335169023863
 30
0.0
 11
270.85736041024143
 21
45.367335169105218
 31
0.0
  0
LINE
  5
1583F
  8
0
 10
282.85736041024143
 20
45.367335169105218
 30
0.0
 11
282.85736041024143
 21
47.067335169023863
 31
0.0
  0
LINE
  5
15840
  8
0
 10
282.85736041029361
 20
47.067335169023863
 30
0.0
 11
282.65736041025178
 21
47.267335169035952
 31
0.0
  0
LINE
  5
15841
  8
0
 10
271.05736041023113
 20
47.267335169035952
 30
0.0
 11
270.85736041018941
 21
47.067335169023863
 31
0.0
  0
LINE
  5
15842
  8
0
 10
270.85736041021829
 20
45.367335169105218
 30
0.0
 11
270.98236041029293
 21
45.242335169024052
 31
0.0
  0
LINE
  5
15843
  8
0
 10
282.73236041018981
 20
45.242335169023931
 30
0.0
 11
282.85736041026462
 21
45.367335169105218
 31
0.0
  0
LINE
  5
15844
  8
0
 10
255.2882758199265
 20
47.067335169023863
 30
0.0
 11
255.2882758199265
 21
45.367335169105097
 31
0.0
  0
LINE
  5
15845
  8
0
 10
267.28827581992641
 20
45.367335169105097
 30
0.0
 11
267.28827581992641
 21
47.067335169023863
 31
0.0
  0
LINE
  5
15846
  8
0
 10
267.28827581991078
 20
47.067335169023863
 30
0.0
 11
267.08827581989652
 21
47.267335169025053
 31
0.0
  0
LINE
  5
15847
  8
0
 10
255.48827581995641
 20
47.267335169025053
 30
0.0
 11
255.28827581994199
 21
47.067335169023863
 31
0.0
  0
LINE
  5
15848
  8
0
 10
255.28827581991411
 20
45.367335169105097
 30
0.0
 11
255.41327581998871
 21
45.242335169024052
 31
0.0
  0
LINE
  5
15849
  8
0
 10
267.16327581986411
 20
45.242335169024052
 30
0.0
 11
267.2882758199388
 21
45.367335169105097
 31
0.0
  0
LINE
  5
1584C
  8
0
 10
282.85736041024143
 20
52.517335169023902
 30
0.0
 11
282.85736041024143
 21
54.017335168980253
 31
0.0
  0
LINE
  5
1584D
  8
0
 10
270.85736041024143
 20
54.017335168980253
 30
0.0
 11
270.85736041024143
 21
52.517335169023902
 31
0.0
  0
LINE
  5
1584E
  8
0
 10
270.85736041032379
 20
52.517335169023902
 30
0.0
 11
271.1073604102732
 21
52.267335169021642
 31
0.0
  0
LINE
  5
1584F
  8
0
 10
282.60736041020982
 20
52.267335169021642
 30
0.0
 11
282.85736041015912
 21
52.517335169023902
 31
0.0
  0
LINE
  5
15850
  8
0
 10
282.85736041020078
 20
54.017335168980253
 30
0.0
 11
282.60736041020982
 21
54.267335168974341
 31
0.0
  0
LINE
  5
15851
  8
0
 10
271.1073604102732
 20
54.267335168974341
 30
0.0
 11
270.85736041028201
 21
54.017335168980253
 31
0.0
  0
LINE
  5
15852
  8
0
 10
255.28827581997939
 20
52.517335169023802
 30
0.0
 11
255.5382758199288
 21
52.267335169021521
 31
0.0
  0
LINE
  5
15853
  8
0
 10
267.03827581992419
 20
52.267335169021521
 30
0.0
 11
267.28827581987349
 21
52.517335169023802
 31
0.0
  0
LINE
  5
15854
  8
0
 10
267.28827581992641
 20
52.517335169023802
 30
0.0
 11
267.28827581992641
 21
54.017335168980139
 31
0.0
  0
LINE
  5
15855
  8
0
 10
255.2882758199265
 20
54.017335168980139
 30
0.0
 11
255.2882758199265
 21
52.517335169023802
 31
0.0
  0
LINE
  5
15856
  8
0
 10
267.28827581991521
 20
54.017335168980139
 30
0.0
 11
267.03827581992419
 21
54.267335168974228
 31
0.0
  0
LINE
  5
15857
  8
0
 10
255.5382758199288
 20
54.267335168974228
 30
0.0
 11
255.28827581993761
 21
54.017335168980139
 31
0.0
  0
LINE
  5
15858
  8
0
 10
284.85736041024143
 20
47.267335169023909
 30
0.0
 11
284.85736041024143
 21
52.267335169023909
 31
0.0
  0
LINE
  5
15859
  8
0
 10
253.52287880985011
 20
52.267335169023788
 30
0.0
 11
253.52287880985011
 21
47.267335169023731
 31
0.0
  0
LINE
  5
1585A
  8
0
 10
283.85736041024143
 20
42.692335169023863
 30
0.0
 11
283.85736041024143
 21
45.242335169023931
 31
0.0
  0
LINE
  5
1585B
  8
0
 10
283.85736041024143
 20
54.292335169023893
 30
0.0
 11
283.85736041024143
 21
56.842335169023841
 31
0.0
  0
LINE
  5
1585C
  8
0
 10
280.85736041024319
 20
58.183853357406861
 30
0.0
 11
272.85736041023972
 21
58.183853357406861
 31
0.0
  0
LINE
  5
1585D
  8
0
 10
276.85736041024143
 20
41.250677766761889
 30
0.0
 11
278.85736041024148
 21
41.250677766761889
 31
0.0
  0
LINE
  5
1585E
  8
0
 10
274.85736041024143
 20
41.250677766761889
 30
0.0
 11
276.85736041024143
 21
41.250677766761889
 31
0.0
  0
LINE
  5
1585F
  8
0
 10
272.85736041024143
 20
41.350816980640843
 30
0.0
 11
280.85736041024143
 21
41.350816980640843
 31
0.0
  0
LINE
  5
15860
  8
0
 10
265.40736041023558
 20
58.183853357406861
 30
0.0
 11
257.40736041023558
 21
58.183853357406861
 31
0.0
  0
LINE
  5
15862
  8
0
 10
259.40736041023558
 20
41.250677766761783
 30
0.0
 11
263.40736041023609
 21
41.250677766761783
 31
0.0
  0
LINE
  5
15863
  8
0
 10
257.40736041023558
 20
41.350816980640722
 30
0.0
 11
265.40736041023558
 21
41.350816980640722
 31
0.0
  0
LINE
  5
15864
  8
0
 10
247.69736041024129
 20
58.183853357406861
 30
0.0
 11
234.85736041024151
 21
58.183853357406861
 31
0.0
  0
LINE
  5
15866
  8
0
 10
236.8573604102414
 20
41.250677766761783
 30
0.0
 11
240.85736041024199
 21
41.250677766761783
 31
0.0
  0
LINE
  5
15875
  8
0
 10
253.52287880985011
 20
47.267335169023788
 30
0.0
 11
284.85736041024143
 21
47.267335169023731
 31
0.0
  0
LINE
  5
15879
  8
0
 10
271.1073604102732
 20
54.267335168974341
 30
0.0
 11
282.60736041020982
 21
54.267335168974341
 31
0.0
  0
LINE
  5
1587D
  8
0
 10
255.5382758199288
 20
54.267335168974228
 30
0.0
 11
267.03827581992419
 21
54.267335168974228
 31
0.0
  0
LINE
  5
15884
  8
0
 10
284.85736041024148
 20
52.267335169023788
 30
0.0
 11
253.52287880985011
 21
52.267335169023788
 31
0.0
  0
LINE
  5
15888
  8
0
 10
274.85736041024143
 20
45.242335169024052
 30
0.0
 11
274.85736041024143
 21
42.692335169023977
 31
0.0
  0
LINE
  5
15890
  8
0
 10
274.85736041024143
 20
56.842335169023947
 30
0.0
 11
274.85736041024143
 21
54.292335169023993
 31
0.0
  0
ARC
  5
1589A
  8
0
 10
229.85736041024151
 20
48.19233516902375
 30
0.0
 40
5.499999999999801
 50
259.52431830360962
 51
270.0
  0
POLYLINE
  5
1589C
  8
0
 66
     1
 10
0.0
 20
0.0
 30
0.0
 70
   128
  0
VERTEX
  5
161FA
  8
0
 10
229.8573604102414
 20
45.242335169023931
 30
0.0
  0
VERTEX
  5
161FB
  8
0
 10
229.31938615209231
 20
45.290965368817751
 30
0.0
  0
VERTEX
  5
161FC
  8
0
 10
228.85736041024151
 20
45.413908044277719
 30
0.0
  0
SEQEND
  5
161FD
  8
0
  0
LINE
  5
1589D
  8
0
 10
229.8573604102414
 20
45.242335169023931
 30
0.0
 11
283.85736041024143
 21
45.242335169023931
 31
0.0
  0
LINE
  5
1589E
  8
0
 10
229.8573604102414
 20
42.692335169023977
 30
0.0
 11
283.85736041024143
 21
42.692335169023977
 31
0.0
  0
ARC
  5
1589F
  8
0
 10
229.85736041024131
 20
51.342335169025091
 30
0.0
 40
5.4999999999987814
 50
89.999999999996746
 51
100.4756816963904
  0
ARC
  5
158A0
  8
0
 10
229.85736041024131
 20
51.292335169025023
 30
0.0
 40
2.9999999999989231
 50
89.999999999996746
 51
109.47122063449289
  0
LINE
  5
158A2
  8
0
 10
229.8573604102414
 20
56.842335169023947
 30
0.0
 11
283.85736041024143
 21
56.842335169023947
 31
0.0
  0
LINE
  5
158A3
  8
0
 10
283.85736041024143
 20
54.292335169023893
 30
0.0
 11
229.8573604102414
 21
54.292335169023893
 31
0.0
  0
LINE
  5
158A4
  8
0
 10
226.8573604102414
 20
48.242335169023931
 30
0.0
 11
226.8573604102414
 21
51.292335169023879
 31
0.0
  0
LINE
  5
158A5
  8
0
 10
224.3573604102414
 20
51.342335169023947
 30
0.0
 11
224.3573604102414
 21
48.19233516902397
 31
0.0
  0
ARC
  5
158A6
  8
0
 10
229.8573604102414
 20
51.292335169023879
 30
0.0
 40
3.0000000000000142
 50
109.4712206344899
 51
180.0
  0
ARC
  5
158A7
  8
0
 10
229.8573604102414
 20
48.242335169023931
 30
0.0
 40
3.0000000000000142
 50
180.0
 51
250.5287793655101
  0
ARC
  5
158A8
  8
0
 10
229.8573604102414
 20
48.19233516902397
 30
0.0
 40
5.5000000000000142
 50
180.0
 51
259.52431830361331
  0
ARC
  5
158A9
  8
0
 10
229.8573604102414
 20
51.342335169023947
 30
0.0
 40
5.5000000000000142
 50
100.4756816963904
 51
180.0
  0
LINE
  5
158BC
  8
0
 10
158.5573604102407
 20
171.06733516902389
 30
0.0
 11
158.5573604102407
 21
170.56733516902401
 31
0.0
  0
LINE
  5
158BD
  8
0
 10
170.15736041024061
 20
170.56733516902401
 30
0.0
 11
170.1573604102407
 21
171.06733516902389
 31
0.0
  0
LINE
  5
158BE
  8
0
 10
160.35736041024069
 20
215.3003351690239
 30
0.0
 11
160.3573604102408
 21
212.86733516902399
 31
0.0
  0
LINE
  5
158BF
  8
0
 10
160.35736041024069
 20
193.56733516902401
 30
0.0
 11
160.35736041024069
 21
171.06733516902409
 31
0.0
  0
LINE
  5
158C0
  8
0
 10
168.35736041024069
 20
171.06733516902409
 30
0.0
 11
168.35736041024069
 21
193.56733516902401
 31
0.0
  0
LINE
  5
158C1
  8
0
 10
168.35736041024069
 20
212.8673351690241
 30
0.0
 11
168.35736041024069
 21
215.3003351690239
 31
0.0
  0
LINE
  5
158C2
  8
0
 10
168.357360410301
 20
215.3003351690239
 30
0.0
 11
167.59036041027019
 21
216.06733516900769
 31
0.0
  0
LINE
  5
158C3
  8
0
 10
161.1243604102111
 20
216.06733516900769
 30
0.0
 11
160.35736041018029
 21
215.3003351690239
 31
0.0
  0
LINE
  5
158C4
  8
0
 10
170.8573604102406
 20
165.76733516902399
 30
0.0
 11
171.86291390970581
 21
166.03677241715201
 31
0.0
  0
LINE
  5
158C5
  8
0
 10
156.85180691077551
 20
166.03677241715201
 30
0.0
 11
157.85736041024069
 21
165.76733516902399
 31
0.0
  0
LINE
  5
158C6
  8
0
 10
170.85736041024069
 20
193.56733516902401
 30
0.0
 11
171.86291390970581
 21
194.14789175262479
 31
0.0
  0
LINE
  5
158C7
  8
0
 10
156.85180691077551
 20
194.14789175262479
 30
0.0
 11
157.85736041024069
 21
193.56733516902401
 31
0.0
  0
LINE
  5
158C8
  8
0
 10
171.8629139030416
 20
196.9867785892709
 30
0.0
 11
170.85736041024069
 21
197.56733516902401
 31
0.0
  0
LINE
  5
158C9
  8
0
 10
157.85736041024069
 20
197.56733516902401
 30
0.0
 11
156.85180693243481
 21
196.98677859792821
 31
0.0
  0
LINE
  5
158CA
  8
0
 10
155.35736041024069
 20
201.06733516902401
 30
0.0
 11
155.85736041024069
 21
200.20130976523939
 31
0.0
  0
LINE
  5
158CB
  8
0
 10
155.35736041024069
 20
209.50458910221781
 30
0.0
 11
155.35736041024069
 21
201.06733516902401
 31
0.0
  0
ARC
  5
158CC
  8
0
 10
164.35736041024069
 20
201.56733516902401
 30
0.0
 40
12.000000000000091
 50
109.66663821504039
 51
138.5903778907302
  0
ARC
  5
158CD
  8
0
 10
164.35736041024069
 20
201.56733516902401
 30
0.0
 40
12.000000000000091
 50
58.992994420976693
 51
70.333361784962634
  0
LINE
  5
158CF
  8
0
 10
168.11013715997319
 20
166.03677241715201
 30
0.0
 11
168.11013715997319
 21
170.56733516902401
 31
0.0
  0
ARC
  5
158D0
  8
0
 10
164.2317836373069
 20
193.78583123157429
 30
0.0
 40
28.01877747391999
 50
270.256793615954
 51
277.95641708578199
  0
ARC
  5
158D1
  8
0
 10
164.4824101149315
 20
193.77849011797011
 30
0.0
 40
28.011434076150181
 50
262.04257213634662
 51
269.74421716191472
  0
LINE
  5
158D2
  8
0
 10
160.6045836605081
 20
166.03677241715201
 30
0.0
 11
160.6045836605081
 21
170.56733516902409
 31
0.0
  0
LINE
  5
158D3
  8
0
 10
156.85180691077551
 20
170.56733516902401
 30
0.0
 11
171.86291390970581
 21
170.56733516902401
 31
0.0
  0
ARC
  5
158D4
  8
0
 10
158.65278882608891
 20
172.96087169586789
 30
0.0
 40
7.193931741209342
 50
270.60058270716939
 51
285.74231059881748
  0
ARC
  5
158D5
  8
0
 10
158.8032852507568
 20
172.9586675964417
 30
0.0
 40
7.1917244513739673
 50
254.2553521203771
 51
269.4017545736429
  0
LINE
  5
158D6
  8
0
 10
156.85180691077551
 20
166.03677241715201
 30
0.0
 11
156.85180691077551
 21
170.56733516902401
 31
0.0
  0
LINE
  5
158D7
  8
0
 10
171.86291390970581
 20
166.03677241715201
 30
0.0
 11
171.86291390970581
 21
170.56733516902401
 31
0.0
  0
ARC
  5
158D8
  8
0
 10
169.91111907528679
 20
172.9608716958671
 30
0.0
 40
7.1939317412085311
 50
270.60058270716939
 51
285.74231059881748
  0
ARC
  5
158D9
  8
0
 10
170.0616154999546
 20
172.95866759644159
 30
0.0
 40
7.1917244513738536
 50
254.2553521203709
 51
269.4017545736429
  0
LINE
  5
158DD
  8
0
 10
158.5573604102407
 20
171.06733516902389
 30
0.0
 11
170.1573604102407
 21
171.06733516902389
 31
0.0
  0
LINE
  5
158DE
  8
0
 10
168.35736041024069
 20
215.3003351690239
 30
0.0
 11
160.35736041024069
 21
215.3003351690239
 31
0.0
  0
LINE
  5
158DF
  8
0
 10
167.59036041027019
 20
216.06733516900769
 30
0.0
 11
161.1243604102111
 21
216.06733516900769
 31
0.0
  0
LINE
  5
158E0
  8
0
 10
157.85736041024089
 20
165.76733516902391
 30
0.0
 11
170.8573604102406
 21
165.76733516902399
 31
0.0
  0
ARC
  5
158E2
  8
0
 10
164.5130793052646
 20
206.9933613462546
 30
0.0
 40
13.42692918302415
 50
253.07654928335501
 51
269.33549694265042
  0
LINE
  5
158E3
  8
0
 10
160.6045836605081
 20
194.14789175262479
 30
0.0
 11
160.6045836438465
 21
196.9867785806135
 31
0.0
  0
ARC
  5
158E4
  8
0
 10
164.51601896025741
 20
184.12230675752949
 30
0.0
 40
13.44596450692139
 50
90.676089562586469
 51
106.91186427797579
  0
POLYLINE
  5
158E5
  8
0
 66
     1
 10
0.0
 20
0.0
 30
0.0
 70
   128
  0
VERTEX
  5
161FE
  8
0
 10
164.35736041024069
 20
197.56733516902401
 30
0.0
  0
VERTEX
  5
161FF
  8
0
 10
166.23374874178839
 20
197.4140980439405
 30
0.0
  0
VERTEX
  5
16200
  8
0
 10
168.1101370733362
 20
196.98677861043319
 30
0.0
  0
SEQEND
  5
16201
  8
0
  0
LINE
  5
158E6
  8
0
 10
168.1101371516425
 20
196.9867785806135
 30
0.0
 11
168.11013715997319
 21
194.14789175262479
 31
0.0
  0
ARC
  5
158E7
  8
0
 10
164.19870186325579
 20
207.0123635552437
 30
0.0
 40
13.44596448161249
 50
270.67608955093903
 51
286.91186422305361
  0
ARC
  5
158E8
  8
0
 10
169.84769930622781
 20
197.33859816627029
 30
0.0
 40
3.7738173400616208
 50
272.1081974480814
 51
302.27605001995761
  0
ARC
  5
158E9
  8
0
 10
170.1227795679855
 20
197.33028469983819
 30
0.0
 40
3.765415559138594
 50
237.68949064266971
 51
267.92626188929222
  0
ARC
  5
158EA
  8
0
 10
170.1253517661041
 20
193.79607216071989
 30
0.0
 40
3.773817351209475
 50
92.108197482151908
 51
122.27605011029679
  0
ARC
  5
158EB
  8
0
 10
169.85027150375009
 20
193.80438564686889
 30
0.0
 40
3.7654155504107738
 50
57.689490715686382
 51
87.926261915794512
  0
LINE
  5
158EC
  8
0
 10
171.86291390970581
 20
194.14789175262479
 30
0.0
 11
171.8629139030416
 21
196.9867785892709
 31
0.0
  0
ARC
  5
158EE
  8
0
 10
158.59194130097691
 20
193.80438587902981
 30
0.0
 40
3.765415316722093
 50
57.689489482655723
 51
87.926262493912475
  0
ARC
  5
158EF
  8
0
 10
158.5893690570297
 20
197.33859816627131
 30
0.0
 40
3.7738173400626658
 50
272.10819744808782
 51
302.27605001995761
  0
ARC
  5
158F1
  8
0
 10
158.8644493187879
 20
197.33028469983819
 30
0.0
 40
3.7654155591386562
 50
237.68949064266971
 51
267.92626188929222
  0
LINE
  5
158F2
  8
0
 10
156.85180691077551
 20
194.14789175262479
 30
0.0
 11
156.85180693243481
 21
196.98677859792821
 31
0.0
  0
POLYLINE
  5
158F3
  8
0
 66
     1
 10
0.0
 20
0.0
 30
0.0
 70
   128
  0
VERTEX
  5
16202
  8
0
 10
156.851806954094
 20
196.98677861043319
 30
0.0
  0
VERTEX
  5
16203
  8
0
 10
157.771102625634
 20
197.40798950079451
 30
0.0
  0
VERTEX
  5
16204
  8
0
 10
158.72819528564179
 20
197.56733516902401
 30
0.0
  0
SEQEND
  5
16205
  8
0
  0
LINE
  5
158F4
  8
0
 10
157.857360410241
 20
193.56733516902401
 30
0.0
 11
170.85736041024069
 21
193.56733516902401
 31
0.0
  0
LINE
  5
158F6
  8
0
 10
159.61631622145691
 20
208.90130979658889
 30
0.0
 11
159.61631622145691
 21
209.50458910221781
 31
0.0
  0
ARC
  5
158F7
  8
0
 10
164.35736041024069
 20
201.56733516902401
 30
0.0
 40
9.2454042637411042
 50
79.219577602090226
 51
120.8505233449991
  0
LINE
  5
158F8
  8
0
 10
155.35736041024069
 20
201.06733516902401
 30
0.0
 11
155.85736041024069
 21
201.06733516902401
 31
0.0
  0
LINE
  5
158F9
  8
0
 10
155.35736041024069
 20
209.50458910221781
 30
0.0
 11
159.61631622145691
 21
209.50458910221781
 31
0.0
  0
LINE
  5
158FA
  8
0
 10
168.3959245115023
 20
212.8673351690241
 30
0.0
 11
160.31879630897919
 21
212.8673351690241
 31
0.0
  0
LINE
  5
158FF
  8
0
 10
211.85736041024069
 20
201.55733516902399
 30
0.0
 11
212.86996732064469
 21
201.55733516902399
 31
0.0
  0
LINE
  5
15902
  8
0
 10
209.85736041024069
 20
222.47619988836419
 30
0.0
 11
212.8699673206448
 21
223.29019188154001
 31
0.0
  0
ARC
  5
15903
  8
0
 10
211.85736041024069
 20
198.55733516902399
 30
0.0
 40
3.0000000000000262
 50
90.0
 51
127.31268606275781
  0
LINE
  5
15905
  8
0
 10
208.85736041024069
 20
197.56733516902401
 30
0.0
 11
208.85736041024069
 21
198.55733516902399
 31
0.0
  0
LINE
  5
15906
  8
0
 10
155.85736041024069
 20
197.56733516902401
 30
0.0
 11
208.85736041024069
 21
197.56733516902401
 31
0.0
  0
LINE
  5
15907
  8
0
 10
155.85736041024069
 20
197.56733516902401
 30
0.0
 11
155.85736041024069
 21
204.0573351690241
 31
0.0
  0
ARC
  5
15908
  8
0
 10
211.85736041024089
 20
198.55733516902399
 30
0.0
 40
3.0000000000001918
 50
127.3126860627649
 51
180.0
  0
LINE
  5
15909
  8
0
 10
159.5531528787912
 20
208.88424336319039
 30
0.0
 11
209.85736041024069
 21
222.47619988836419
 31
0.0
  0
ARC
  5
1590A
  8
0
 10
160.85736041024069
 20
204.0573351690241
 30
0.0
 40
4.999999999999976
 50
105.1200000000015
 51
180.0
  0
ARC
  5
1590D
  8
0
 10
226.55940143910789
 20
194.55733516902399
 30
0.0
 40
7.0000000000000044
 50
77.162119930448497
 51
90.0
  0
LINE
  5
1590E
  8
0
 10
226.55940143910789
 20
201.55733516902399
 30
0.0
 11
212.86996732064469
 21
201.55733516902399
 31
0.0
  0
LINE
  5
1590F
  8
0
 10
212.8699673206448
 20
223.29019188154001
 30
0.0
 11
228.1147534998367
 21
227.40926026868431
 31
0.0
  0
ARC
  5
15911
  8
0
 10
226.55940143910769
 20
194.55733516902359
 30
0.0
 40
7.0000000000004077
 50
52.121131074473823
 51
77.162119930448497
  0
LINE
  5
15912
  8
0
 10
228.1147534998367
 20
227.40926026868431
 30
0.0
 11
231.1273604102407
 21
228.22325226186001
 31
0.0
  0
LINE
  5
15918
  8
0
 10
231.772817491891
 20
228.39765168137521
 30
0.0
 11
239.44736041024069
 21
232.82855110119181
 31
0.0
  0
ARC
  5
15919
  8
0
 10
243.69736041024069
 20
225.4673351690241
 30
0.0
 40
8.4999999999999432
 50
90.0
 51
120.0000000000005
  0
LINE
  5
1591A
  8
0
 10
243.69736041024069
 20
233.9673351690241
 30
0.0
 11
247.19736041024069
 21
233.9673351690241
 31
0.0
  0
ARC
  5
1591B
  8
0
 10
247.19736041024069
 20
224.96733516902401
 30
0.0
 40
8.9999999999999893
 50
22.789786440877791
 51
90.0
  0
LINE
  5
15925
  8
0
 10
231.1273604102407
 20
228.22325226186001
 30
0.0
 11
231.772817491891
 21
228.39765168137521
 31
0.0
  0
ARC
  5
15932
  8
0
 10
338.93065726072018
 20
122.2775150258304
 30
0.0
 40
114.7807689638545
 50
89.767032450853435
 51
99.798236972547926
  0
ARC
  5
15933
  8
0
 10
339.85860167856617
 20
122.2122339429681
 30
0.0
 40
114.84602744166079
 50
80.204620318146496
 51
90.230110258447667
  0
ARC
  5
15934
  8
0
 10
339.82003503330287
 20
295.82247990865221
 30
0.0
 40
87.756162644626045
 50
269.72403572678769
 51
282.89045675923109
  0
ARC
  5
15935
  8
0
 10
338.96891683100489
 20
295.77028587823679
 30
0.0
 40
87.703997212231755
 50
257.10561027705347
 51
270.27989723693167
  0
LINE
  5
15936
  8
0
 10
340.10105338041762
 20
226.8173351690242
 30
0.0
 11
338.69366744008551
 21
226.8173351690242
 31
0.0
  0
LINE
  5
15937
  8
0
 10
340.10105338041762
 20
219.31733516902409
 30
0.0
 11
340.10105338041762
 21
226.8173351690242
 31
0.0
  0
LINE
  5
15938
  8
0
 10
338.69366744008551
 20
226.8173351690242
 30
0.0
 11
338.69366744008551
 21
219.31733516902409
 31
0.0
  0
LINE
  5
15939
  8
0
 10
338.69366744008551
 20
219.31733516902409
 30
0.0
 11
340.10105338041762
 21
219.31733516902409
 31
0.0
  0
LINE
  5
1593A
  8
0
 10
345.09210326689413
 20
219.3173351690242
 30
0.0
 11
345.09210326689379
 21
226.81733516902409
 31
0.0
  0
LINE
  5
1593B
  8
0
 10
343.68774668611837
 20
219.31733516902409
 30
0.0
 11
345.09210326689413
 21
219.3173351690242
 31
0.0
  0
LINE
  5
1593C
  8
0
 10
343.68774668611837
 20
226.81733516902409
 30
0.0
 11
343.68774668611837
 21
219.31733516902409
 31
0.0
  0
LINE
  5
1593D
  8
0
 10
343.68774668611837
 20
226.81733516902409
 30
0.0
 11
345.09210326689379
 21
226.81733516902409
 31
0.0
  0
LINE
  5
1593E
  8
0
 10
335.10697407837472
 20
219.31733516902409
 30
0.0
 11
335.10697407837461
 21
226.8173351690242
 31
0.0
  0
LINE
  5
1593F
  8
0
 10
333.702617553599
 20
219.31733516902409
 30
0.0
 11
335.10697407837472
 21
219.31733516902409
 31
0.0
  0
LINE
  5
15940
  8
0
 10
333.702617553599
 20
226.81733516902409
 30
0.0
 11
333.702617553599
 21
219.31733516902409
 31
0.0
  0
LINE
  5
15941
  8
0
 10
333.702617553599
 20
226.81733516902409
 30
0.0
 11
335.10697407837461
 21
226.8173351690242
 31
0.0
  0
LINE
  5
15946
  8
0
 10
350.09778443509992
 20
219.31733516902409
 30
0.0
 11
350.09778443509981
 21
226.81733516902409
 31
0.0
  0
LINE
  5
15947
  8
0
 10
348.70259876267841
 20
219.3173351690242
 30
0.0
 11
350.09778443509992
 21
219.31733516902409
 31
0.0
  0
LINE
  5
15948
  8
0
 10
348.70259876267829
 20
226.81733516902409
 30
0.0
 11
348.70259876267841
 21
219.3173351690242
 31
0.0
  0
LINE
  5
15949
  8
0
 10
348.70259876267829
 20
226.81733516902409
 30
0.0
 11
350.09778443509981
 21
226.81733516902409
 31
0.0
  0
LINE
  5
1594A
  8
0
 10
330.09212205680791
 20
219.31733516902409
 30
0.0
 11
330.09212205680791
 21
226.8173351690242
 31
0.0
  0
LINE
  5
1594B
  8
0
 10
328.69693640196999
 20
219.31733516902409
 30
0.0
 11
330.09212205680791
 21
219.31733516902409
 31
0.0
  0
LINE
  5
1594C
  8
0
 10
328.69693640196999
 20
226.8173351690242
 30
0.0
 11
328.69693640196999
 21
219.31733516902409
 31
0.0
  0
LINE
  5
1594D
  8
0
 10
328.69693640196999
 20
226.8173351690242
 30
0.0
 11
330.09212205680791
 21
226.8173351690242
 31
0.0
  0
ARC
  5
1595A
  8
0
 10
355.08920202066122
 20
241.4883321702707
 30
0.0
 40
31.506353419912219
 50
277.85921030506518
 51
306.97308465363
  0
ARC
  5
1595B
  8
0
 10
351.72231605619589
 20
185.07397669081109
 30
0.0
 40
50.892081827757814
 50
63.991932691554368
 51
81.326119038310594
  0
ARC
  5
15960
  8
0
 10
323.70293706617241
 20
241.48207342203409
 30
0.0
 40
31.49980048109013
 50
233.02382014255869
 51
262.14388489875807
  0
ARC
  5
15961
  8
0
 10
327.07393910072199
 20
185.0690628831689
 30
0.0
 40
50.897170834372027
 50
98.674754219948753
 51
116.00719405018739
  0
ARC
  5
15962
  8
0
 10
368.74904025732462
 20
225.61867720169559
 30
0.0
 40
10.70009542708193
 50
299.62532157339848
 51
354.36128317675372
  0
ARC
  5
15963
  8
0
 10
371.32634724336339
 20
223.06324185302461
 30
0.0
 40
8.2099665190026379
 50
10.55640139961006
 51
70.710963847792016
  0
ARC
  5
15964
  8
0
 10
310.02870869492369
 20
225.60765272075679
 30
0.0
 40
10.682126518566751
 50
221.4712040538368
 51
240.4245799798862
  0
LINE
  5
15965
  8
0
 10
302.02471255307148
 20
226.66733516902411
 30
0.0
 11
302.02471255307091
 21
218.5334833193449
 31
0.0
  0
LINE
  5
15966
  8
0
 10
300.42918855104301
 20
226.66733516902411
 30
0.0
 11
302.02471255307148
 21
226.66733516902411
 31
0.0
  0
LINE
  5
15967
  8
0
 10
300.42918855104301
 20
226.4673351690241
 30
0.0
 11
300.42918855104301
 21
226.66733516902411
 31
0.0
  0
ARC
  5
15968
  8
0
 10
307.37547222621271
 20
223.1798631656321
 30
0.0
 40
8.0693531458174839
 50
108.9399611338615
 51
155.958252515743
  0
CIRCLE
  5
15969
  8
0
 10
243.6973604102408
 20
225.4673351690241
 30
0.0
 40
4.0000000000017328
  0
CIRCLE
  5
1596A
  8
0
 10
261.4073604102407
 20
205.0873351690241
 30
0.0
 40
4.0000000000017897
  0
LINE
  5
1596B
  8
0
 10
286.70188656029541
 20
213.4673351690241
 30
0.0
 11
309.34766587898702
 21
213.4673351690241
 31
0.0
  0
ARC
  5
1596C
  8
0
 10
286.70188656029541
 20
203.46733516902401
 30
0.0
 40
10.000000000000091
 50
90.0
 51
130.00000000000011
  0
LINE
  5
1596D
  8
0
 10
266.22826748288981
 20
199.34200184563181
 30
0.0
 11
280.27401046342987
 21
211.1277796002139
 31
0.0
  0
ARC
  5
1596E
  8
0
 10
261.4073604102407
 20
205.0873351690241
 30
0.0
 40
7.4999999999999813
 50
219.92918663940341
 51
310.00000000000011
  0
LINE
  5
1596F
  8
0
 10
238.32949233855459
 20
220.9744527573676
 30
0.0
 11
255.65607319057699
 21
200.2735325851063
 31
0.0
  0
ARC
  5
15970
  8
0
 10
243.6973604102408
 20
225.4673351690241
 30
0.0
 40
6.9999999999999973
 50
69.09000000000259
 51
219.92918663940341
  0
LINE
  5
15971
  8
0
 10
259.83139853836042
 20
226.79662418119381
 30
0.0
 11
246.1956677135158
 21
232.00633055198639
 31
0.0
  0
ARC
  5
15972
  8
0
 10
261.61590375498542
 20
231.46733516902401
 30
0.0
 40
4.9999999999999138
 50
249.09000000000259
 51
270.0
  0
LINE
  5
15973
  8
0
 10
302.02471255307148
 20
226.4673351690241
 30
0.0
 11
261.61590375498542
 21
226.4673351690241
 31
0.0
  0
LINE
  5
15974
  8
0
 10
266.89736041024071
 20
228.4673351690241
 30
0.0
 11
266.89736041024071
 21
226.4673351690241
 31
0.0
  0
LINE
  5
15975
  8
0
 10
261.89736041024071
 20
228.4673351690241
 30
0.0
 11
266.89736041024082
 21
228.4673351690241
 31
0.0
  0
LINE
  5
15976
  8
0
 10
261.89736041024071
 20
226.4673351690241
 30
0.0
 11
261.89736041024071
 21
228.46733516902421
 31
0.0
  0
ARC
  5
15C4D
  8
0
 10
238.85736041022309
 20
285.60826138460391
 30
0.0
 40
60.0000000000217
 50
91.910213171708165
 51
93.822553729290476
  0
ARC
  5
15C4E
  8
0
 10
238.85736041022309
 20
285.60826138460391
 30
0.0
 40
60.0000000000217
 50
87.688443205654536
 51
88.089786828291835
  0
LINE
  5
15C4F
  8
0
 10
234.85736041022309
 20
345.47477957300651
 30
0.0
 11
234.85736041022309
 21
344.13326138462469
 31
0.0
  0
LINE
  5
15C51
  8
0
 10
235.85736041024049
 20
341.58326138462479
 30
0.0
 11
235.85736041024049
 21
339.6082613846246
 31
0.0
  0
LINE
  5
15C54
  8
0
 10
240.85736041022309
 20
345.57491878688541
 30
0.0
 11
236.85736041022301
 21
345.57491878688541
 31
0.0
  0
LINE
  5
15C55
  8
0
 10
247.69736041024061
 20
345.47477957300748
 30
0.0
 11
234.85736041024049
 21
345.47477957300748
 31
0.0
  0
ARC
  5
15C5A
  8
0
 10
243.6973604102231
 20
285.60826138460391
 30
0.0
 40
60.0000000000217
 50
91.910213171708165
 51
93.822553729290476
  0
ARC
  5
15C5B
  8
0
 10
243.69736041024061
 20
285.60826138460487
 30
0.0
 40
60.0000000000217
 50
86.177446270709524
 51
88.089786828291835
  0
LINE
  5
15C5C
  8
0
 10
239.69736041022321
 20
345.47477957300651
 30
0.0
 11
239.6973604102231
 21
344.108261384625
 31
0.0
  0
LINE
  5
15C5D
  8
0
 10
247.69736041024049
 20
344.108261384625
 30
0.0
 11
247.69736041024061
 21
345.47477957300748
 31
0.0
  0
LINE
  5
15C5E
  8
0
 10
240.69736041024061
 20
341.65826138462478
 30
0.0
 11
240.69736041024061
 21
339.6082613846246
 31
0.0
  0
LINE
  5
15C5F
  8
0
 10
246.69736041024061
 20
332.45826138462451
 30
0.0
 11
246.69736041024061
 21
334.50826138462457
 31
0.0
  0
LINE
  5
15C61
  8
0
 10
245.69736041024061
 20
345.57491878688643
 30
0.0
 11
241.69736041024049
 21
345.57491878688643
 31
0.0
  0
LINE
  5
15C63
  8
0
 10
246.69736041024061
 20
339.6082613846246
 30
0.0
 11
246.69736041024061
 21
341.65826138462478
 31
0.0
  0
LINE
  5
15C64
  8
0
 10
240.69736041024061
 20
334.50826138462457
 30
0.0
 11
240.69736041024061
 21
332.45826138462468
 31
0.0
  0
LINE
  5
15C65
  8
0
 10
235.85736041024049
 20
334.50826138462457
 30
0.0
 11
235.85736041024049
 21
332.53326138462472
 31
0.0
  0
LINE
  5
15C7F
  8
0
 10
270.85736041024438
 20
339.75826138462469
 30
0.0
 11
270.85736041024438
 21
341.4582613845435
 31
0.0
  0
LINE
  5
15C80
  8
0
 10
271.05736041023408
 20
339.55826138461271
 30
0.0
 11
270.85736041019231
 21
339.75826138462469
 31
0.0
  0
LINE
  5
15C81
  8
0
 10
270.8573604102213
 20
341.4582613845435
 30
0.0
 11
270.98236041029611
 21
341.58326138462479
 31
0.0
  0
LINE
  5
15C82
  8
0
 10
270.85736041032681
 20
334.3082613846247
 30
0.0
 11
271.1073604102761
 21
334.55826138462697
 31
0.0
  0
LINE
  5
15C83
  8
0
 10
270.85736041024438
 20
332.80826138466841
 30
0.0
 11
270.85736041024438
 21
334.3082613846247
 31
0.0
  0
LINE
  5
15C84
  8
0
 10
271.1073604102761
 20
332.55826138467432
 30
0.0
 11
270.85736041028503
 21
332.80826138466841
 31
0.0
  0
LINE
  5
15C92
  8
0
 10
247.69736041024129
 20
56.842335169024061
 30
0.0
 11
247.69736041024129
 21
58.183853357406861
 31
0.0
  0
ARC
  5
15C94
  8
0
 10
243.69736041024129
 20
-1.6826648309876191
 30
0.0
 40
60.000000000011902
 50
86.177446270722513
 51
90.0
  0
ARC
  5
15C95
  8
0
 10
243.69736041024129
 20
-1.6826648309877319
 30
0.0
 40
60.000000000011909
 50
90.0
 51
92.311556794345449
  0
ARC
  5
15C96
  8
0
 10
243.69736041024129
 20
101.2173351690432
 30
0.0
 40
60.0000000000217
 50
271.91021317170822
 51
273.82255372929052
  0
ARC
  5
15C97
  8
0
 10
243.69736041024129
 20
101.2173351690432
 30
0.0
 40
60.0000000000217
 50
267.68844320565449
 51
268.08978682829178
  0
LINE
  5
15C98
  8
0
 10
247.69736041024129
 20
41.350816980640722
 30
0.0
 11
247.69736041024129
 21
42.692335169023977
 31
0.0
  0
LINE
  5
15C9A
  8
0
 10
246.69736041024129
 20
45.242335169024052
 30
0.0
 11
246.69736041024129
 21
47.217335169024061
 31
0.0
  0
LINE
  5
15C9D
  8
0
 10
241.69736041024251
 20
41.250677766761719
 30
0.0
 11
245.6973604102414
 21
41.250677766761783
 31
0.0
  0
LINE
  5
15C9F
  8
0
 10
234.8573604102414
 20
41.350816980640673
 30
0.0
 11
247.69736041024129
 21
41.350816980640722
 31
0.0
  0
LINE
  5
15CA2
  8
0
 10
235.8573604102414
 20
47.217335169024061
 30
0.0
 11
235.8573604102414
 21
45.242335169024052
 31
0.0
  0
LINE
  5
15CA3
  8
0
 10
241.8573604102414
 20
52.317335169024091
 30
0.0
 11
241.8573604102414
 21
54.292335169023993
 31
0.0
  0
LINE
  5
15CA4
  8
0
 10
246.69736041024129
 20
52.317335169023977
 30
0.0
 11
246.69736041024129
 21
54.292335169023993
 31
0.0
  0
LINE
  5
15CC3
  8
0
 10
474.89736041029039
 20
202.0873351690241
 30
0.0
 11
474.79736041024103
 21
202.0873351690241
 31
0.0
  0
POLYLINE
  5
15CCD
  8
0
 66
     1
 10
0.0
 20
0.0
 30
0.0
 70
   128
  0
VERTEX
  5
16206
  8
0
 10
471.41669052035968
 20
201.08733516902589
 30
0.0
  0
VERTEX
  5
16207
  8
0
 10
471.40581736735169
 20
201.02274464568291
 30
0.0
  0
VERTEX
  5
16208
  8
0
 10
471.3993818167387
 20
200.91284726672291
 30
0.0
  0
VERTEX
  5
16209
  8
0
 10
471.39736041024099
 20
200.79340314652379
 30
0.0
  0
SEQEND
  5
1620A
  8
0
  0
POLYLINE
  5
15CCE
  8
0
 66
     1
 10
0.0
 20
0.0
 30
0.0
 70
   128
  0
VERTEX
  5
1620B
  8
0
 10
487.37803030012219
 20
201.08733516902589
 30
0.0
  0
VERTEX
  5
1620C
  8
0
 10
487.38890345313018
 20
201.02274464568279
 30
0.0
  0
VERTEX
  5
1620D
  8
0
 10
487.39533900374317
 20
200.91284726672279
 30
0.0
  0
VERTEX
  5
1620E
  8
0
 10
487.39736041024099
 20
200.7934031465237
 30
0.0
  0
SEQEND
  5
1620F
  8
0
  0
LINE
  5
15CCF
  8
0
 10
476.89736041024088
 20
197.56733516902409
 30
0.0
 11
474.87236041024079
 21
197.56733516902409
 31
0.0
  0
LINE
  5
15CE6
  8
0
 10
60.382360410241063
 20
165.76733516902419
 30
0.0
 11
60.382360410241063
 21
149.76733516902411
 31
0.0
  0
LINE
  5
15CEA
  8
0
 10
53.307360410240669
 20
228.46733516902401
 30
0.0
 11
51.257360410240608
 21
228.4673351690241
 31
0.0
  0
ARC
  5
15D07
  8
0
 10
338.4981971978624
 20
29.572641775477219
 30
0.0
 40
0.200000000000013
 50
12.217524932819771
 51
89.323720950163377
  0
ARC
  5
15D08
  8
0
 10
340.29652362262033
 20
29.572641775477219
 30
0.0
 40
0.2000000000000083
 50
90.676279049722623
 51
167.78247503760531
  0
ARC
  5
15D09
  8
0
 10
339.39736041024162
 20
29.76733516905767
 30
0.0
 40
0.720000000000028
 50
192.21748802554731
 51
347.78251198266008
  0
ARC
  5
15D0A
  8
0
 10
340.29652362262033
 20
69.962028562638125
 30
0.0
 40
0.2000000000000096
 50
192.21746719450999
 51
269.32372095024482
  0
ARC
  5
15D0B
  8
0
 10
338.4981971978624
 20
69.962028562638125
 30
0.0
 40
0.200000000000013
 50
270.67627904983658
 51
347.78247503762179
  0
ARC
  5
15D0C
  8
0
 10
339.39736041024162
 20
69.767335169057773
 30
0.0
 40
0.7200000000000213
 50
12.2175040639769
 51
167.78251198266321
  0
ARC
  5
15D0D
  8
0
 10
333.50479253562082
 20
29.795571583687199
 30
0.0
 40
0.2000000000103378
 50
8.4575550301547064
 51
85.563944028632449
  0
ARC
  5
15D0E
  8
0
 10
335.29924811177182
 20
29.677643150990779
 30
0.0
 40
0.200000000000049
 50
86.916299577886363
 51
164.02256299289411
  0
ARC
  5
15D0F
  8
0
 10
334.41478768698192
 20
29.930881688698491
 30
0.0
 40
0.7199999999999652
 50
188.45751786192031
 51
344.02252574708672
  0
ARC
  5
15D10
  8
0
 10
345.28992828486241
 20
69.739098754428142
 30
0.0
 40
0.2000000000102791
 50
188.4575012575753
 51
265.56394402855079
  0
ARC
  5
15D11
  8
0
 10
343.49547270871091
 20
69.857027187124444
 30
0.0
 40
0.2000000000002855
 50
266.91629957788638
 51
344.02256495846382
  0
ARC
  5
15D12
  8
0
 10
344.37993313350148
 20
69.603788649416856
 30
0.0
 40
0.7200000000003631
 50
8.4575327987559454
 51
164.02252520110571
  0
ARC
  5
15D13
  8
0
 10
343.49547270870193
 20
29.677643150984519
 30
0.0
 40
0.2000000000107081
 50
15.97749527864314
 51
93.083884242878497
  0
ARC
  5
15D14
  8
0
 10
345.28992828485241
 20
29.795571583692439
 30
0.0
 40
0.2000000000000001
 50
94.436249156972124
 51
171.5424449484623
  0
ARC
  5
15D15
  8
0
 10
344.37993313350148
 20
29.930881688698491
 30
0.0
 40
0.7200000000003304
 50
195.97745806664051
 51
351.54248214431249
  0
ARC
  5
15D16
  8
0
 10
335.29924811178068
 20
69.857027187130825
 30
0.0
 40
0.2000000000102793
 50
195.97749583792739
 51
273.08388424287853
  0
ARC
  5
15D17
  8
0
 10
333.5047925356306
 20
69.739098754422912
 30
0.0
 40
0.1999999999999729
 50
274.43624915697211
 51
351.54244594362677
  0
ARC
  5
15D18
  8
0
 10
334.41478768698192
 20
69.603788649416856
 30
0.0
 40
0.7200000000000266
 50
15.977457911308569
 51
171.54248186787461
  0
ARC
  5
15D19
  8
0
 10
350.29712108195451
 20
69.183547354883103
 30
0.0
 40
0.2000000000000636
 50
184.6677743614085
 51
261.77402688433818
  0
ARC
  5
15D1A
  8
0
 10
348.51438384572629
 20
69.419822356843952
 30
0.0
 40
0.2000000000002794
 50
263.12657561920781
 51
340.23280988538181
  0
ARC
  5
15D1B
  8
0
 10
349.38017246828679
 20
69.108679204828832
 30
0.0
 40
0.7200000000002534
 50
4.6678096557292692
 51
160.23280988532301
  0
ARC
  5
15D1C
  8
0
 10
328.497599738529
 20
30.351122983232472
 30
0.0
 40
0.2000000000000555
 50
4.6677727755973528
 51
81.774026884354811
  0
ARC
  5
15D1D
  8
0
 10
330.28033697475638
 20
30.114847981271399
 30
0.0
 40
0.2000000000000073
 50
83.126575619207813
 51
160.23280988531579
  0
ARC
  5
15D1E
  8
0
 10
329.41454835219668
 20
30.425991133286519
 30
0.0
 40
0.7200000000000451
 50
184.66781009623159
 51
340.2328098853157
  0
ARC
  5
15D1F
  8
0
 10
348.51438384571838
 20
30.114847981264351
 30
0.0
 40
0.2000000000104477
 50
19.767190959051071
 51
96.873221827769726
  0
ARC
  5
15D20
  8
0
 10
350.29712108195451
 20
30.351122983232472
 30
0.0
 40
0.1999999999999999
 50
98.225973115763551
 51
175.33216882899589
  0
ARC
  5
15D21
  8
0
 10
349.38017246828679
 20
30.425991133286519
 30
0.0
 40
0.7200000000000307
 50
199.7671898804318
 51
355.33220612471501
  0
ARC
  5
15D22
  8
0
 10
330.28033697476508
 20
69.419822356851
 30
0.0
 40
0.2000000000104171
 50
199.76718927159371
 51
276.87322182772732
  0
ARC
  5
15D23
  8
0
 10
328.49759973852878
 20
69.183547354883103
 30
0.0
 40
0.1999999999999992
 50
278.2259731156484
 51
355.33217035152779
  0
ARC
  5
15D24
  8
0
 10
329.41454835219668
 20
69.108679204828832
 30
0.0
 40
0.7200000000000723
 50
19.76719034916416
 51
175.3322057017896
  0
LINE
  5
15D25
  8
0
 10
236.69736041024069
 20
344.10826138462483
 30
0.0
 11
301.8793192979158
 21
344.10826138462483
 31
0.0
  0
LINE
  5
15D26
  8
0
 10
239.69736041024061
 20
329.98326138462471
 30
0.0
 11
229.8573604102408
 21
329.9832613846246
 31
0.0
  0
LINE
  5
15D27
  8
0
 10
240.69736041024061
 20
332.53326138462461
 30
0.0
 11
229.85736041024069
 21
332.53326138462461
 31
0.0
  0
LINE
  5
15D28
  8
0
 10
236.69736041024069
 20
332.45826138462451
 30
0.0
 11
300.49334512538269
 21
332.45826138462451
 31
0.0
  0
LINE
  5
15D29
  8
0
 10
236.69736041024069
 20
330.00826138462452
 30
0.0
 11
301.8793192979158
 21
330.00826138462452
 31
0.0
  0
CIRCLE
  5
15D39
  8
0
 10
164.35736041024069
 20
337.05826138462459
 30
0.0
 40
4.0
  0
CIRCLE
  5
15D3A
  8
3
 10
164.35736041024069
 20
337.05826138462459
 30
0.0
 40
3.3235000000000001
  0
LINE
  5
15D3B
  8
1
 10
150.35736041024069
 20
337.05826138462459
 30
0.0
 11
384.39888415740103
 21
337.05826138462459
 31
0.0
  0
LINE
  5
15D3C
  8
1
 10
164.35736041024069
 20
347.70826138462468
 30
0.0
 11
164.35736041024069
 21
326.4082613846245
 31
0.0
  0
LINE
  5
15D69
  8
0
 10
230.85736041024151
 20
45.242335169024052
 30
0.0
 11
230.85736041024151
 21
42.692335169023977
 31
0.0
  0
LINE
  5
15D6A
  8
0
 10
230.85736041024151
 20
54.292335169023993
 30
0.0
 11
230.85736041024151
 21
56.842335169023947
 31
0.0
  0
ARC
  5
15D79
  8
0
 10
229.85736041024069
 20
335.48326138462443
 30
0.0
 40
5.499999999999801
 50
259.52431830360962
 51
270.0
  0
POLYLINE
  5
15D7A
  8
0
 66
     1
 10
0.0
 20
0.0
 30
0.0
 70
   128
  0
VERTEX
  5
16210
  8
0
 10
229.85736041024069
 20
332.53326138462461
 30
0.0
  0
VERTEX
  5
16211
  8
0
 10
229.31938615209151
 20
332.58189158441832
 30
0.0
  0
VERTEX
  5
16212
  8
0
 10
228.85736041024069
 20
332.7048342598784
 30
0.0
  0
SEQEND
  5
16213
  8
0
  0
ARC
  5
15D7B
  8
0
 10
229.8573604102406
 20
338.6332613846256
 30
0.0
 40
5.4999999999987814
 50
89.999999999996746
 51
100.4756816963904
  0
ARC
  5
15D7C
  8
0
 10
229.85736041024049
 20
338.5832613846257
 30
0.0
 40
2.9999999999989231
 50
89.999999999996746
 51
109.47122063449289
  0
LINE
  5
15D7D
  8
0
 10
226.85736041024069
 20
335.84338111001267
 30
0.0
 11
226.85736041024069
 21
338.27314165923639
 31
0.0
  0
LINE
  5
15D7E
  8
0
 10
224.35736041024069
 20
338.63326138462452
 30
0.0
 11
224.35736041024069
 21
335.4832613846246
 31
0.0
  0
ARC
  5
15D7F
  8
0
 10
229.85736041024069
 20
338.58326138462451
 30
0.0
 40
3.0000000000000142
 50
109.4712206344899
 51
140.51042720260739
  0
ARC
  5
15D80
  8
0
 10
229.85736041024069
 20
335.53326138462461
 30
0.0
 40
3.0000000000000142
 50
219.48957279739011
 51
250.5287793655101
  0
ARC
  5
15D81
  8
0
 10
229.85736041024069
 20
335.4832613846246
 30
0.0
 40
5.5000000000000142
 50
180.0
 51
187.13485501318959
  0
ARC
  5
15D82
  8
0
 10
229.85736041024069
 20
338.63326138462452
 30
0.0
 40
5.5000000000000142
 50
100.4756816963904
 51
148.25446151480821
  0
ARC
  5
15D83
  8
0
 10
229.85736041024069
 20
335.4832613846246
 30
0.0
 40
5.5000000000000142
 50
211.745538485189
 51
259.52431830361331
  0
ARC
  5
15D84
  8
0
 10
229.85736041024069
 20
338.63326138462452
 30
0.0
 40
5.5000000000000142
 50
172.86514498680711
 51
180.0
  0
LINE
  5
15EE9
  8
0
 10
267.28827581989952
 20
341.45826138454328
 30
0.0
 11
267.28827581989952
 21
339.75826138462469
 31
0.0
  0
LINE
  5
15EEA
  8
0
 10
267.28827581988389
 20
339.75826138462469
 30
0.0
 11
267.08827581986992
 21
339.55826138462379
 31
0.0
  0
LINE
  5
15EEB
  8
0
 10
267.08827581985878
 20
341.65826138460682
 30
0.0
 11
267.28827581991192
 21
341.45826138454328
 31
0.0
  0
LINE
  5
15EEC
  8
0
 10
267.28827581989992
 20
334.35826138456042
 30
0.0
 11
267.28827581989992
 21
332.65826138464172
 31
0.0
  0
LINE
  5
15EEE
  8
0
 10
267.08827581985918
 20
334.5582613846239
 30
0.0
 11
267.2882758199122
 21
334.35826138456042
 31
0.0
  0
LINE
  5
15EEF
  8
0
 10
283.85736041024069
 20
332.53326138462472
 30
0.0
 11
267.16327581985888
 21
332.53326138462472
 31
0.0
  0
LINE
  5
15EF0
  8
0
 10
267.08827581987367
 20
332.45826138462451
 30
0.0
 11
267.28827581988872
 21
332.65826138464172
 31
0.0
  0
LINE
  5
15EF1
  8
0
 10
283.85736041024069
 20
332.53326138462472
 30
0.0
 11
283.85736041024069
 21
332.45826138462451
 31
0.0
  0
LINE
  5
15EF2
  8
0
 10
279.85736041024069
 20
332.53326138462478
 30
0.0
 11
279.85736041024069
 21
332.55826138467432
 31
0.0
  0
LINE
  5
15EF3
  8
0
 10
283.85736041024069
 20
341.58326138462439
 30
0.0
 11
267.16327581985888
 21
341.58326138462439
 31
0.0
  0
LINE
  5
15EF4
  8
0
 10
283.85736041024069
 20
341.58326138462439
 30
0.0
 11
283.85736041024069
 21
341.6582613846245
 31
0.0
  0
ARC
  5
15F10
  8
0
 10
276.85736041024069
 20
285.6082613846051
 30
0.0
 40
60.000000000021707
 50
91.910213171708165
 51
93.822553729287236
  0
ARC
  5
15F11
  8
0
 10
276.85736041024069
 20
285.6082613846051
 30
0.0
 40
60.000000000021707
 50
86.177446270712764
 51
88.089786828291835
  0
LINE
  5
15F12
  8
0
 10
272.85736041024069
 20
345.47477957300771
 30
0.0
 11
272.85736041024069
 21
344.13326138462469
 31
0.0
  0
LINE
  5
15F13
  8
0
 10
280.85736041024069
 20
344.13326138462469
 30
0.0
 11
280.85736041024069
 21
345.47477957300771
 31
0.0
  0
LINE
  5
15F14
  8
0
 10
283.85736041024069
 20
344.108261384625
 30
0.0
 11
283.85736041024069
 21
344.13326138462469
 31
0.0
  0
LINE
  5
15F15
  8
0
 10
278.8573604102408
 20
345.57491878688671
 30
0.0
 11
274.85736041024057
 21
345.57491878688671
 31
0.0
  0
LINE
  5
15F16
  8
0
 10
280.85736041024069
 20
345.47477957300771
 30
0.0
 11
272.85736041024069
 21
345.47477957300771
 31
0.0
  0
LINE
  5
15F17
  8
0
 10
283.85736041024069
 20
344.13326138462469
 30
0.0
 11
265.40736041017487
 21
344.13326138462469
 31
0.0
  0
ARC
  5
15F18
  8
0
 10
261.40736041017487
 20
285.6082613846051
 30
0.0
 40
60.0000000000217
 50
91.910213171708165
 51
93.822553729287236
  0
ARC
  5
15F19
  8
0
 10
261.40736041017487
 20
285.6082613846051
 30
0.0
 40
60.0000000000217
 50
86.177446270712764
 51
88.089786828291835
  0
LINE
  5
15F1A
  8
0
 10
257.40736041017487
 20
345.47477957300759
 30
0.0
 11
257.40736041017487
 21
344.1082613846246
 31
0.0
  0
LINE
  5
15F1B
  8
0
 10
265.40736041017487
 20
344.1082613846246
 30
0.0
 11
265.40736041017487
 21
345.47477957300759
 31
0.0
  0
LINE
  5
15F1C
  8
0
 10
263.40736041017487
 20
345.57491878688671
 30
0.0
 11
259.40736041017487
 21
345.57491878688671
 31
0.0
  0
LINE
  5
15F1D
  8
0
 10
265.40736041017487
 20
345.47477957300759
 30
0.0
 11
257.40736041017487
 21
345.47477957300759
 31
0.0
  0
LINE
  5
15F25
  8
0
 10
247.69736041024061
 20
344.13326138462457
 30
0.0
 11
257.40736041017487
 21
344.13326138462457
 31
0.0
  0
ARC
  5
15F26
  8
0
 10
238.85736041022309
 20
388.5082613846451
 30
0.0
 40
60.0000000000217
 50
266.17744627070959
 51
268.08978682829178
  0
ARC
  5
15F27
  8
0
 10
238.85736041022309
 20
388.5082613846451
 30
0.0
 40
60.0000000000217
 50
271.91021317170822
 51
272.31155679434539
  0
LINE
  5
15F28
  8
0
 10
234.85736041022309
 20
328.6417431962426
 30
0.0
 11
234.85736041022309
 21
329.98326138462443
 31
0.0
  0
LINE
  5
15F29
  8
0
 10
240.85736041022309
 20
328.5416039823636
 30
0.0
 11
236.85736041022301
 21
328.5416039823636
 31
0.0
  0
LINE
  5
15F2A
  8
0
 10
247.69736041024061
 20
328.64174319624158
 30
0.0
 11
234.85736041024049
 21
328.64174319624158
 31
0.0
  0
ARC
  5
15F2B
  8
0
 10
243.6973604102231
 20
388.5082613846451
 30
0.0
 40
60.0000000000217
 50
266.17744627070959
 51
268.08978682829178
  0
ARC
  5
15F2C
  8
0
 10
243.69736041024061
 20
388.50826138464407
 30
0.0
 40
60.0000000000217
 50
271.91021317170822
 51
273.82255372929052
  0
LINE
  5
15F2D
  8
0
 10
239.69736041022321
 20
328.6417431962426
 30
0.0
 11
239.6973604102231
 21
330.00826138462412
 31
0.0
  0
LINE
  5
15F2E
  8
0
 10
247.69736041024049
 20
330.00826138462457
 30
0.0
 11
247.69736041024061
 21
328.64174319624158
 31
0.0
  0
LINE
  5
15F2F
  8
0
 10
245.69736041024061
 20
328.54160398236257
 30
0.0
 11
241.69736041024049
 21
328.54160398236257
 31
0.0
  0
ARC
  5
15F30
  8
0
 10
276.85736041024069
 20
388.5082613846439
 30
0.0
 40
60.000000000021707
 50
266.17744627070959
 51
268.08978682829178
  0
ARC
  5
15F31
  8
0
 10
276.85736041024069
 20
388.5082613846439
 30
0.0
 40
60.000000000021707
 50
271.91021317170822
 51
273.82255372929052
  0
LINE
  5
15F32
  8
0
 10
272.85736041024069
 20
328.64174319624129
 30
0.0
 11
272.85736041024069
 21
329.98326138462443
 31
0.0
  0
LINE
  5
15F33
  8
0
 10
280.85736041024069
 20
329.98326138462443
 30
0.0
 11
280.85736041024069
 21
328.64174319624129
 31
0.0
  0
LINE
  5
15F34
  8
0
 10
283.85736041024069
 20
330.00826138462412
 30
0.0
 11
283.85736041024069
 21
329.98326138462443
 31
0.0
  0
LINE
  5
15F35
  8
0
 10
278.8573604102408
 20
328.5416039823624
 30
0.0
 11
274.85736041024057
 21
328.5416039823624
 31
0.0
  0
LINE
  5
15F36
  8
0
 10
280.85736041024069
 20
328.64174319624129
 30
0.0
 11
272.85736041024069
 21
328.64174319624129
 31
0.0
  0
LINE
  5
15F37
  8
0
 10
283.85736041024069
 20
329.98326138462443
 30
0.0
 11
265.40736041017487
 21
329.98326138462443
 31
0.0
  0
ARC
  5
15F38
  8
0
 10
261.40736041017487
 20
388.5082613846439
 30
0.0
 40
60.0000000000217
 50
266.17744627070959
 51
268.08978682829178
  0
ARC
  5
15F39
  8
0
 10
261.40736041017487
 20
388.5082613846439
 30
0.0
 40
60.0000000000217
 50
271.91021317170822
 51
273.82255372929052
  0
LINE
  5
15F3A
  8
0
 10
257.40736041017487
 20
328.64174319624152
 30
0.0
 11
257.40736041017487
 21
330.00826138462452
 31
0.0
  0
LINE
  5
15F3B
  8
0
 10
265.40736041017487
 20
330.00826138462452
 30
0.0
 11
265.40736041017487
 21
328.64174319624152
 31
0.0
  0
LINE
  5
15F3C
  8
0
 10
263.40736041017487
 20
328.5416039823624
 30
0.0
 11
259.40736041017487
 21
328.5416039823624
 31
0.0
  0
LINE
  5
15F3D
  8
0
 10
265.40736041017487
 20
328.64174319624152
 30
0.0
 11
257.40736041017487
 21
328.64174319624152
 31
0.0
  0
LINE
  5
15F3E
  8
0
 10
247.69736041024061
 20
329.98326138462448
 30
0.0
 11
257.40736041017487
 21
329.98326138462448
 31
0.0
  0
CIRCLE
  5
15F4F
  8
0
 10
164.35736041024151
 20
49.76733516902425
 30
0.0
 40
6.5000000000000266
  0
LINE
  5
15F5E
  8
1
 10
201.35736041024069
 20
344.15826138462461
 30
0.0
 11
201.35736041024069
 21
329.95826138462451
 31
0.0
  0
LINE
  5
15F67
  8
1
 10
150.3573604102414
 20
49.767335169024022
 30
0.0
 11
384.39888415740171
 21
49.767335169024022
 31
0.0
  0
LINE
  5
15F68
  8
1
 10
164.3573604102414
 20
60.41733516902422
 30
0.0
 11
164.35736041024151
 21
39.117335169023931
 31
0.0
  0
LINE
  5
15F69
  8
1
 10
201.35736041024151
 20
56.867335169024038
 30
0.0
 11
201.35736041024151
 21
42.667335169024
 31
0.0
  0
LINE
  5
15F8D
  8
3
 10
167.68086041024071
 20
171.06733516902389
 30
0.0
 11
167.68086041024071
 21
193.56733516902401
 31
0.0
  0
LINE
  5
15F8E
  8
3
 10
161.03386041024069
 20
171.06733516902389
 30
0.0
 11
161.03386041024069
 21
193.56733516902401
 31
0.0
  0
LINE
  5
15F91
  8
3
 10
167.68086041024071
 20
212.86733516902399
 30
0.0
 11
167.68086041024071
 21
215.97683516904269
 31
0.0
  0
LINE
  5
15F92
  8
3
 10
161.03386041024069
 20
212.86733516902399
 30
0.0
 11
161.03386041024069
 21
215.97683516904289
 31
0.0
  0
LINE
  5
15F93
  8
3
 10
59.180860410241053
 20
171.06733516902389
 30
0.0
 11
59.180860410241102
 21
193.56733516902401
 31
0.0
  0
LINE
  5
15F94
  8
3
 10
59.180860410241053
 20
212.86733516902399
 30
0.0
 11
59.180860410241053
 21
215.97683516904269
 31
0.0
  0
LINE
  5
15F95
  8
3
 10
52.533860410241061
 20
171.06733516902389
 30
0.0
 11
52.533860410241061
 21
193.56733516902401
 31
0.0
  0
LINE
  5
15F96
  8
3
 10
52.533860410241061
 20
212.86733516902399
 30
0.0
 11
52.533860410241061
 21
215.97683516904289
 31
0.0
  0
LINE
  5
15F9E
  8
1
 10
55.857360410240631
 20
242.0582839896849
 30
0.0
 11
55.857360410240631
 21
144.76733516902399
 31
0.0
  0
LINE
  5
15FAE
  8
3
 10
482.72086041024079
 20
171.06733516902409
 30
0.0
 11
482.72086041024079
 21
176.05733516902399
 31
0.0
  0
LINE
  5
15FAF
  8
3
 10
476.0738604102408
 20
171.06733516902409
 30
0.0
 11
476.0738604102408
 21
176.05733516902399
 31
0.0
  0
LINE
  5
15FB0
  8
0
 10
472.32236041024078
 20
197.05733516902399
 30
0.0
 11
474.8723604102409
 21
197.0573351690239
 31
0.0
  0
LINE
  5
15FB1
  8
0
 10
483.9223604102408
 20
197.0573351690239
 30
0.0
 11
486.47236041024081
 21
197.0573351690239
 31
0.0
  0
LINE
  5
15FB9
  8
1
 10
47.782360410241033
 20
160.26733516902399
 30
0.0
 11
52.332360410241051
 21
160.26733516902411
 31
0.0
  0
LINE
  5
15FBA
  8
1
 10
47.782360410241033
 20
156.76733516902399
 30
0.0
 11
52.332360410240987
 21
156.76733516902399
 31
0.0
  0
LINE
  5
15FC1
  8
1
 10
235.75736041024069
 20
160.26733516902399
 30
0.0
 11
243.95736041024071
 21
160.26733516902399
 31
0.0
  0
LINE
  5
15FC2
  8
1
 10
235.75736041024069
 20
156.76733516902399
 30
0.0
 11
243.95736041024071
 21
156.76733516902399
 31
0.0
  0
LINE
  5
15FC3
  8
1
 10
59.382360410241063
 20
160.26733516902411
 30
0.0
 11
63.932360410241131
 21
160.26733516902399
 31
0.0
  0
LINE
  5
15FC4
  8
1
 10
59.382360410241063
 20
156.76733516902399
 30
0.0
 11
63.932360410241067
 21
156.76733516902399
 31
0.0
  0
LINE
  5
15FC5
  8
1
 10
479.39736041024099
 20
242.0582839896849
 30
0.0
 11
479.39736041024099
 21
144.76733516902399
 31
0.0
  0
LINE
  5
15FC6
  8
1
 10
471.3223604102414
 20
160.26733516902399
 30
0.0
 11
475.87236041024141
 21
160.26733516902411
 31
0.0
  0
LINE
  5
15FC7
  8
1
 10
482.92236041024142
 20
160.26733516902411
 30
0.0
 11
487.47236041024138
 21
160.26733516902399
 31
0.0
  0
LINE
  5
15FC8
  8
1
 10
471.3223604102414
 20
156.76733516902399
 30
0.0
 11
475.8723604102413
 21
156.76733516902399
 31
0.0
  0
LINE
  5
15FC9
  8
1
 10
482.92236041024142
 20
156.76733516902399
 30
0.0
 11
487.47236041024138
 21
156.76733516902399
 31
0.0
  0
LINE
  5
15FDD
  8
1
 10
239.85736041024069
 20
164.36733516902399
 30
0.0
 11
239.85736041024069
 21
152.667335169024
 31
0.0
  0
LINE
  5
15FE0
  8
1
 10
261.75736041024072
 20
160.26733516902399
 30
0.0
 11
269.95736041024071
 21
160.26733516902399
 31
0.0
  0
LINE
  5
15FE1
  8
1
 10
261.75736041024072
 20
156.76733516902399
 30
0.0
 11
269.95736041024071
 21
156.76733516902399
 31
0.0
  0
LINE
  5
15FE2
  8
1
 10
265.85736041024069
 20
164.36733516902399
 30
0.0
 11
265.85736041024069
 21
152.667335169024
 31
0.0
  0
LINE
  5
15FE3
  8
1
 10
248.69736041024251
 20
225.4673351690241
 30
0.0
 11
238.69736041023901
 21
225.4673351690241
 31
0.0
  0
LINE
  5
15FE4
  8
1
 10
243.6973604102408
 20
230.4673351690258
 30
0.0
 11
243.6973604102408
 21
220.46733516902239
 31
0.0
  0
LINE
  5
15FE6
  8
1
 10
266.40736041024252
 20
205.0873351690241
 30
0.0
 11
256.40736041023899
 21
205.0873351690241
 31
0.0
  0
LINE
  5
15FE7
  8
1
 10
261.4073604102407
 20
210.08733516902581
 30
0.0
 11
261.4073604102407
 21
200.08733516902231
 31
0.0
  0
LINE
  5
15FE8
  8
1
 10
281.85736041024251
 20
190.05733516902399
 30
0.0
 11
271.85736041023893
 21
190.05733516902399
 31
0.0
  0
LINE
  5
15FE9
  8
1
 10
276.8573604102408
 20
195.05733516902569
 30
0.0
 11
276.8573604102408
 21
185.0573351690222
 31
0.0
  0
LINE
  5
15FEA
  8
1
 10
243.85736041024239
 20
206.05733516902399
 30
0.0
 11
233.85736041023901
 21
206.05733516902399
 31
0.0
  0
LINE
  5
15FEB
  8
1
 10
238.8573604102408
 20
211.05733516902569
 30
0.0
 11
238.8573604102408
 21
201.05733516902231
 31
0.0
  0
LINE
  5
15FEC
  8
1
 10
164.3573604102406
 20
219.06733516900769
 30
0.0
 11
164.3573604102406
 21
162.76733516902391
 31
0.0
  0
LINE
  5
16044
  8
0
 10
273.85736041024069
 20
332.53326138462478
 30
0.0
 11
273.85736041024069
 21
332.55826138467432
 31
0.0
  0
LINE
  5
1605C
  8
0
 10
230.85736041024069
 20
329.98326138462471
 30
0.0
 11
230.85736041024069
 21
332.53326138462461
 31
0.0
  0
LINE
  5
1605D
  8
0
 10
230.85736041024069
 20
341.58326138462479
 30
0.0
 11
230.85736041024069
 21
344.13326138462469
 31
0.0
  0
TEXT
  5
160ED
  8
0
 62
     3
 10
0.0
 20
0.0
 30
0.0
 40
10.0
  1
TCDHS08200
  7
STANDARD1
  0
ENDSEC
  0
EOF
