  0
SECTION
  2
HEADER
  9
$ACADVER
  1
AC1009
  9
$INSBASE
 10
0.0
 20
0.0
 30
0.0
  9
$EXTMIN
 10
0.0
 20
-2.960436562073669
 30
0.0
  9
$EXTMAX
 10
575.04257858248116
 20
389.51745942704218
 30
0.0
  9
$LIMMIN
 10
0.0
 20
0.0
  9
$LIMMAX
 10
420.0
 20
297.0
  9
$ORTHOMODE
 70
     1
  9
$REGENMODE
 70
     1
  9
$FILLMODE
 70
     1
  9
$QTEXTMODE
 70
     0
  9
$MIRRTEXT
 70
     0
  9
$DRAGMODE
 70
     2
  9
$LTSCALE
 40
10.0
  9
$OSMODE
 70
    55
  9
$ATTMODE
 70
     1
  9
$TEXTSIZE
 40
2.5
  9
$TRACEWID
 40
1.0
  9
$TEXTSTYLE
  7
STANDARD
  9
$CLAYER
  8
0
  9
$CELTYPE
  6
BYLAYER
  9
$CECOLOR
 62
   256
  9
$DIMSCALE
 40
1.0
  9
$DIMASZ
 40
2.5
  9
$DIMEXO
 40
0.625
  9
$DIMDLI
 40
3.75
  9
$DIMRND
 40
0.0
  9
$DIMDLE
 40
0.0
  9
$DIMEXE
 40
1.25
  9
$DIMTP
 40
0.0
  9
$DIMTM
 40
0.0
  9
$DIMTXT
 40
2.5
  9
$DIMCEN
 40
2.5
  9
$DIMTSZ
 40
0.0
  9
$DIMTOL
 70
     0
  9
$DIMLIM
 70
     0
  9
$DIMTIH
 70
     0
  9
$DIMTOH
 70
     0
  9
$DIMSE1
 70
     0
  9
$DIMSE2
 70
     0
  9
$DIMTAD
 70
     1
  9
$DIMZIN
 70
     8
  9
$DIMBLK
  1

  9
$DIMASO
 70
     1
  9
$DIMSHO
 70
     1
  9
$DIMPOST
  1

  9
$DIMAPOST
  1

  9
$DIMALT
 70
     0
  9
$DIMALTD
 70
     3
  9
$DIMALTF
 40
0.03937007874016
  9
$DIMLFAC
 40
1.0
  9
$DIMTOFL
 70
     1
  9
$DIMTVP
 40
0.0
  9
$DIMTIX
 70
     0
  9
$DIMSOXD
 70
     0
  9
$DIMSAH
 70
     0
  9
$DIMBLK1
  1

  9
$DIMBLK2
  1

  9
$DIMSTYLE
  2
ISO-25
  9
$DIMCLRD
 70
     0
  9
$DIMCLRE
 70
     0
  9
$DIMCLRT
 70
     0
  9
$DIMTFAC
 40
1.0
  9
$DIMGAP
 40
0.625
  9
$LUNITS
 70
     2
  9
$LUPREC
 70
     4
  9
$SKETCHINC
 40
1.0
  9
$FILLETRAD
 40
0.0
  9
$AUNITS
 70
     0
  9
$AUPREC
 70
     3
  9
$MENU
  1
.
  9
$ELEVATION
 40
0.0
  9
$PELEVATION
 40
0.0
  9
$THICKNESS
 40
0.0
  9
$LIMCHECK
 70
     0
  9
$BLIPMODE
 70
     0
  9
$CHAMFERA
 40
0.0
  9
$CHAMFERB
 40
0.0
  9
$SKPOLY
 70
     0
  9
$TDCREATE
 40
2454083.4444627082
  9
$TDUPDATE
 40
2456598.4296395369
  9
$TDINDWG
 40
2.5362553819000002
  9
$TDUSRTIMER
 40
2.5362553819000002
  9
$USRTIMER
 70
     1
  9
$ANGBASE
 50
0.0
  9
$ANGDIR
 70
     0
  9
$PDMODE
 70
     0
  9
$PDSIZE
 40
0.0
  9
$PLINEWID
 40
0.0
  9
$COORDS
 70
     1
  9
$SPLFRAME
 70
     0
  9
$SPLINETYPE
 70
     6
  9
$SPLINESEGS
 70
     8
  9
$ATTDIA
 70
     0
  9
$ATTREQ
 70
     1
  9
$HANDLING
 70
     1
  9
$HANDSEED
  5
17743
  9
$SURFTAB1
 70
     6
  9
$SURFTAB2
 70
     6
  9
$SURFTYPE
 70
     6
  9
$SURFU
 70
     6
  9
$SURFV
 70
     6
  9
$UCSNAME
  2

  9
$UCSORG
 10
0.0
 20
0.0
 30
0.0
  9
$UCSXDIR
 10
1.0
 20
0.0
 30
0.0
  9
$UCSYDIR
 10
0.0
 20
1.0
 30
0.0
  9
$PUCSNAME
  2

  9
$PUCSORG
 10
0.0
 20
0.0
 30
0.0
  9
$PUCSXDIR
 10
1.0
 20
0.0
 30
0.0
  9
$PUCSYDIR
 10
0.0
 20
1.0
 30
0.0
  9
$USERI1
 70
     0
  9
$USERI2
 70
     0
  9
$USERI3
 70
     0
  9
$USERI4
 70
     0
  9
$USERI5
 70
     0
  9
$USERR1
 40
0.0
  9
$USERR2
 40
0.0
  9
$USERR3
 40
0.0
  9
$USERR4
 40
0.0
  9
$USERR5
 40
0.0
  9
$WORLDVIEW
 70
     1
  9
$SHADEDGE
 70
     3
  9
$SHADEDIF
 70
    70
  9
$TILEMODE
 70
     1
  9
$MAXACTVP
 70
    64
  9
$PLIMCHECK
 70
     0
  9
$PEXTMIN
 10
25.699999999999989
 20
19.5
 30
0.0
  9
$PEXTMAX
 10
231.30000000000001
 20
175.5
 30
0.0
  9
$PLIMMIN
 10
-20.0
 20
-7.5
  9
$PLIMMAX
 10
277.0
 20
202.5
  9
$UNITMODE
 70
     0
  9
$VISRETAIN
 70
     1
  9
$PLINEGEN
 70
     0
  9
$PSLTSCALE
 70
     1
  0
ENDSEC
  0
SECTION
  2
TABLES
  0
TABLE
  2
VPORT
 70
     1
  0
VPORT
  2
*ACTIVE
 70
     0
 10
0.0
 20
0.0
 11
1.0
 21
1.0
 12
287.5212906301158
 22
284.66220439422381
 13
0.0
 23
0.0
 14
10.0
 24
10.0
 15
10.0
 25
10.0
 16
0.0
 26
0.0
 36
1.0
 17
0.0
 27
0.0
 37
0.0
 40
580.35748191502955
 41
1.7807262569832401
 42
50.0
 43
0.0
 44
0.0
 50
0.0
 51
0.0
 71
     0
 72
  1000
 73
     1
 74
     3
 75
     0
 76
     0
 77
     0
 78
     0
  0
ENDTAB
  0
TABLE
  2
LTYPE
 70
     2
  0
LTYPE
  2
CONTINUOUS
 70
     0
  3
Solid line
 72
    65
 73
     0
 40
0.0
  0
LTYPE
  2
CENTER
 70
     0
  3
____ _ ____ _ ____ _ ____ _ ____ _ ____ _ ____
 72
    65
 73
     4
 40
2.0
 49
1.25
 49
-0.25
 49
0.25
 49
-0.25
  0
ENDTAB
  0
TABLE
  2
LAYER
 70
     4
  0
LAYER
  2
0
 70
     0
 62
     7
  6
CONTINUOUS
  0
LAYER
  2
DEFPOINTS
 70
     0
 62
     7
  6
CONTINUOUS
  0
LAYER
  2
1
 70
     0
 62
     1
  6
CENTER
  0
LAYER
  2
3
 70
     0
 62
     3
  6
CONTINUOUS
  0
ENDTAB
  0
TABLE
  2
STYLE
 70
     2
  0
STYLE
  2
STANDARD
 70
     0
 40
0.0
 41
1.0
 50
0.0
 71
     0
 42
2.5
  3
txt
  4

  0
STYLE
  2
STANDARD1
 70
     0
 40
0.0
 41
1.0
 50
0.0
 71
     0
 42
3.0
  3
txt
  4

  0
ENDTAB
  0
TABLE
  2
VIEW
 70
     3
  0
VIEW
  2
OLE1
 70
     0
 40
17.336203194614189
 10
1078.262703908531
 20
377.67444865954309
 41
31.074911629702001
 11
0.0
 21
0.0
 31
1.0
 12
0.0
 22
0.0
 32
0.0
 42
50.0
 43
0.0
 44
0.0
 50
0.0
 71
     0
  0
VIEW
  2
OLE2
 70
     0
 40
50.523198253338478
 10
1031.767738941523
 20
579.92835671582054
 41
90.562155008667546
 11
0.0
 21
0.0
 31
1.0
 12
0.0
 22
0.0
 32
0.0
 42
50.0
 43
0.0
 44
0.0
 50
0.0
 71
     0
  0
VIEW
  2
OLE3
 70
     0
 40
35.589889721753437
 10
-318.7405075261633
 20
633.39935929066291
 41
42.694205520337619
 11
0.0
 21
0.0
 31
1.0
 12
0.0
 22
0.0
 32
0.0
 42
50.0
 43
0.0
 44
0.0
 50
0.0
 71
     0
  0
ENDTAB
  0
TABLE
  2
UCS
 70
     0
  0
ENDTAB
  0
TABLE
  2
APPID
 70
    43
  0
APPID
  2
ACAD
 70
     0
  0
APPID
  2
_FTCNV
 70
     0
  0
APPID
  2
DCO15
 70
     0
  0
APPID
  2
GENIUS_GENOREF_13
 70
     0
  0
APPID
  2
GENIUS_GENOENT_13
 70
     0
  0
APPID
  2
GENIUS_GENBH_13
 70
     0
  0
APPID
  2
GENIUS_GENOBJ_13
 70
     0
  0
APPID
  2
GENIUS_GENODEF_13
 70
     0
  0
APPID
  2
GENIUS_GENOLIS_13
 70
     0
  0
APPID
  2
GENIUS_GENOBJ-NBEHI-BHF_13
 70
     0
  0
APPID
  2
GENIUS_GENOBJ-NBEHI-BHB_13
 70
     0
  0
APPID
  2
GENIUS_GENOBJ-F-PART_13
 70
     0
  0
APPID
  2
GENIUS_GEFSTDP_13
 70
     0
  0
APPID
  2
GENIUS_GENOBJ-N-RSSYM_13
 70
     0
  0
APPID
  2
GENIUS_GENSYMENT_13
 70
     0
  0
APPID
  2
GENIUS_GENOBJ-N-TIT_13
 70
     0
  0
APPID
  2
GENIUS_GENTITLE_13
 70
     0
  0
APPID
  2
GENIUS_GENZVEED_13
 70
     0
  0
APPID
  2
GENIUS_GENOBJ-N-LEADER_13
 70
     0
  0
APPID
  2
GENIUS_GENOBJ-N-FIL_13
 70
     0
  0
APPID
  2
GENIUS_GENOBJ-N-SEC_13
 70
     0
  0
APPID
  2
GENIUS_GENOBJ-N-CRS_13
 70
     0
  0
APPID
  2
GENIUS_GENOBJ-N-ZOO_13
 70
     0
  0
APPID
  2
GENIUS_GENZOO_13
 70
     0
  0
APPID
  2
GENIUS_GENOBJ-F-TOL_13
 70
     0
  0
APPID
  2
GENIUS_GENFIL_13
 70
     0
  0
APPID
  2
GENIUS_GENOBJ-N-CHA_13
 70
     0
  0
APPID
  2
_CALL_MAC$
 70
     0
  0
APPID
  2
ASM_BASE
 70
     0
  0
APPID
  2
ASM_EXPLO_VER_2_00
 70
     0
  0
APPID
  2
ASM_CADM_VER_12_00
 70
     0
  0
APPID
  2
ASM_BASEFORO
 70
     0
  0
APPID
  2
ASM_BASETRAVI
 70
     0
  0
APPID
  2
ASM_BASETRAVI1
 70
     0
  0
APPID
  2
ASM_GRUPPI
 70
     0
  0
APPID
  2
ASM_CADM_ALBERO
 70
     0
  0
APPID
  2
ASM_GOLE
 70
     0
  0
APPID
  2
ACAD_MLEADERVER
 70
     0
  0
APPID
  2
ACAD_EXEMPT_FROM_CAD_STANDARDS
 70
     0
  0
APPID
  2
ACAD_DSTYLE_DIMJAG
 70
     0
  0
APPID
  2
ACAD_DSTYLE_DIMTALN
 70
     0
  0
APPID
  2
ACAD_PSEXT
 70
     0
  0
APPID
  2
ACAD_NAV_VCDISPLAY
 70
     0
  0
ENDTAB
  0
TABLE
  2
DIMSTYLE
 70
     2
  0
DIMSTYLE
  2
ISO-25
 70
     0
  3

  4

  5

  6

  7

 40
1.0
 41
2.5
 42
0.625
 43
3.75
 44
1.25
 45
0.0
 46
0.0
 47
0.0
 48
0.0
140
2.5
141
2.5
142
0.0
143
0.03937007874016
144
1.0
145
0.0
146
1.0
147
0.625
 71
     0
 72
     0
 73
     0
 74
     0
 75
     0
 76
     0
 77
     1
 78
     8
170
     0
171
     3
172
     1
173
     0
174
     0
175
     0
176
     0
177
     0
178
     0
  0
DIMSTYLE
  2
STANDARD
 70
     0
  3

  4

  5

  6

  7

 40
1.0
 41
0.18
 42
0.0625
 43
0.38
 44
0.18
 45
0.0
 46
0.0
 47
0.0
 48
0.0
140
0.18
141
0.09
142
0.0
143
25.399999999999999
144
1.0
145
0.0
146
1.0
147
0.09
 71
     0
 72
     0
 73
     1
 74
     1
 75
     0
 76
     0
 77
     0
 78
     0
170
     0
171
     2
172
     0
173
     0
174
     0
175
     0
176
     0
177
     0
178
     0
  0
ENDTAB
  0
ENDSEC
  0
SECTION
  2
BLOCKS
  0
BLOCK
  8
0
  2
$MODEL_SPACE
 70
     0
 10
0.0
 20
0.0
 30
0.0
  3
$MODEL_SPACE
  1

  0
ENDBLK
  5
21
  8
0
  0
BLOCK
 67
     1
  8
0
  2
$PAPER_SPACE
 70
     0
 10
0.0
 20
0.0
 30
0.0
  3
$PAPER_SPACE
  1

  0
ENDBLK
  5
53
 67
     1
  8
0
  0
ENDSEC
  0
SECTION
  2
ENTITIES
  0
LINE
  5
1659C
  8
0
 10
281.09257860123722
 20
361.25459791951272
 30
0.0
 11
281.09257860123722
 21
357.75459791951261
 31
0.0
  0
LINE
  5
1659D
  8
0
 10
281.09257860123722
 20
373.95459791951271
 30
0.0
 11
281.09257860123722
 21
370.45459791951271
 31
0.0
  0
ARC
  5
165A0
  8
0
 10
406.34257860123779
 20
427.67694230670531
 30
0.0
 40
84.5723443871927
 50
254.57097858194089
 51
270.0
  0
ARC
  5
165A1
  8
0
 10
406.34257860123768
 20
304.03225353231687
 30
0.0
 40
84.572344387195841
 50
90.0
 51
105.42902141805909
  0
ARC
  5
165A3
  8
0
 10
406.34257860123739
 20
427.67694230670531
 30
0.0
 40
84.572344387192686
 50
270.0
 51
285.42902141805911
  0
ARC
  5
165A4
  8
0
 10
406.34257860123768
 20
304.03225353231858
 30
0.0
 40
84.572344387194079
 50
74.570978581940864
 51
90.0
  0
ARC
  5
165A6
  8
0
 10
394.90738570272651
 20
343.21656366124222
 30
0.0
 40
43.76202756756944
 50
104.6456543416396
 51
128.99261124030221
  0
ARC
  5
165A7
  8
0
 10
394.90738570272572
 20
388.49263217778162
 30
0.0
 40
43.762027567567571
 50
231.00738875969779
 51
255.35434565836761
  0
ARC
  5
165A8
  8
0
 10
417.77977257285511
 20
343.22052182782647
 30
0.0
 40
43.757692067632199
 50
51.00616412880153
 51
75.355570289262474
  0
ARC
  5
165AA
  8
0
 10
417.77977257285511
 20
388.4886740111989
 30
0.0
 40
43.757692067632092
 50
284.6444297107376
 51
308.99383587120047
  0
ARC
  5
165AB
  8
0
 10
352.89163329560449
 20
365.85459791951263
 30
0.0
 40
8.7568445826242982
 50
349.76336994876431
 51
10.23663005123885
  0
ARC
  5
165AC
  8
0
 10
376.70419659652168
 20
364.9979714817452
 30
0.0
 40
15.385483947114739
 50
127.3437209608676
 51
170.9773026900387
  0
ARC
  5
165AD
  8
0
 10
376.70419659652111
 20
366.7112243572796
 30
0.0
 40
15.385483947114089
 50
189.02269730995801
 51
232.6562790391252
  0
ARC
  5
165AE
  8
0
 10
436.58198277277768
 20
365.31651887473549
 30
0.0
 40
14.770400071412141
 50
2.0877214771429671
 51
53.760298140840021
  0
ARC
  5
165AF
  8
0
 10
436.58198277277882
 20
366.39267696428919
 30
0.0
 40
14.77040007141105
 50
306.23970185916721
 51
357.91227852286681
  0
ARC
  5
165B0
  8
0
 10
407.47636668354801
 20
388.79701565364741
 30
0.0
 40
0.2000000000000075
 50
189.63202115753859
 51
269.23367450457908
  0
ARC
  5
165B1
  8
0
 10
405.20879051892632
 20
388.79701565364741
 30
0.0
 40
0.2000000000001609
 50
270.76631020603872
 51
350.36797884246772
  0
ARC
  5
165B2
  8
0
 10
406.34257860123768
 20
388.60459791951268
 30
0.0
 40
0.9500000000002431
 50
9.6320211575451218
 51
170.36797884246451
  0
ARC
  5
165B8
  8
0
 10
410.2737836694152
 20
388.71339664938648
 30
0.0
 40
0.2000000000021387
 50
267.34202085005319
 51
346.9436842929411
  0
ARC
  5
165B9
  8
0
 10
411.3940544340731
 20
388.45360170359811
 30
0.0
 40
0.9500000000006368
 50
6.207726608400594
 51
166.9436842932318
  0
ARC
  5
165BA
  8
0
 10
402.41137353305999
 20
388.71339664938648
 30
0.0
 40
0.2000000000023755
 50
193.05631570703909
 51
272.65796905347952
  0
ARC
  5
165BB
  8
0
 10
401.29110276840129
 20
388.45360170359811
 30
0.0
 40
0.9500000000004725
 50
13.05631570676106
 51
173.79227339159939
  0
ARC
  5
165BE
  8
0
 10
415.33221299817887
 20
388.32659999938818
 30
0.0
 40
0.200000000000023
 50
263.91266649793062
 51
343.51430974858511
  0
ARC
  5
165BF
  8
0
 10
416.43493723237168
 20
388.00025775063227
 30
0.0
 40
0.9500000000002369
 50
2.7783520636532808
 51
163.51430974858189
  0
ARC
  5
165C0
  8
0
 10
397.35294420429631
 20
388.32659999938818
 30
0.0
 40
0.2000000000001306
 50
196.48570437944309
 51
276.08734359836228
  0
ARC
  5
165C1
  8
0
 10
396.25021997010282
 20
388.00025775063227
 30
0.0
 40
0.9500000000001873
 50
16.485687277081549
 51
177.2216479363434
  0
ARC
  5
165C6
  8
0
 10
422.63300382845159
 20
387.22463550817992
 30
0.0
 40
0.2000000000004996
 50
179.31908679331309
 51
258.92074014022211
  0
ARC
  5
165C7
  8
0
 10
420.40206115323952
 20
387.63058678885551
 30
0.0
 40
0.2000000000000308
 50
260.45339113126562
 51
340.05504447822369
  0
ARC
  5
165C8
  8
0
 10
421.48308503685638
 20
387.23830199046353
 30
0.0
 40
0.9500000000002827
 50
359.31908679332292
 51
160.0550444782576
  0
LINE
  5
165DC
  8
0
 10
312.59257860123739
 20
361.25459791951272
 30
0.0
 11
312.59257860123739
 21
370.45459791951271
 31
0.0
  0
LINE
  5
165DE
  8
0
 10
317.59257860123728
 20
370.45459791951271
 30
0.0
 11
317.59257860123728
 21
361.25459791951272
 31
0.0
  0
LINE
  5
165E1
  8
0
 10
274.6925786012373
 20
370.45459791951271
 30
0.0
 11
362.32162034971992
 21
370.45459791951271
 31
0.0
  0
LINE
  5
165E3
  8
0
 10
364.2017314641904
 20
373.95459791951271
 30
0.0
 11
274.6925786012373
 21
373.95459791951271
 31
0.0
  0
LINE
  5
165E5
  8
0
 10
364.20173146419029
 20
357.75459791951261
 30
0.0
 11
274.6925786012373
 21
357.75459791951261
 31
0.0
  0
LINE
  5
165E7
  8
0
 10
362.32162034972009
 20
361.25459791951272
 30
0.0
 11
274.6925786012373
 21
361.25459791951272
 31
0.0
  0
ARC
  5
165FA
  8
0
 10
406.34257860123722
 20
-8.4188045955228858
 30
0.0
 40
84.572344387195017
 50
74.570978581940864
 51
90.0
  0
ARC
  5
165FB
  8
0
 10
406.34257860123728
 20
115.2258841788675
 30
0.0
 40
84.572344387195429
 50
270.0
 51
285.42902141805911
  0
ARC
  5
165FD
  8
0
 10
406.34314595678558
 20
-8.4229928587246832
 30
0.0
 40
84.576532652299775
 50
90.000384351038676
 51
105.42863706701689
  0
ARC
  5
165FE
  8
0
 10
406.3431459567858
 20
115.230072442074
 30
0.0
 40
84.576532652304905
 50
254.57136293298311
 51
269.99961564895477
  0
ARC
  5
165FF
  8
0
 10
417.77742904989861
 20
30.76482816007217
 30
0.0
 40
43.76276951712962
 50
51.00759831026707
 51
75.354136107788932
  0
ARC
  5
16601
  8
0
 10
417.77742904989822
 20
76.042251423273044
 30
0.0
 40
43.762769517130707
 50
284.64586389221103
 51
308.9924016897258
  0
ARC
  5
16602
  8
0
 10
394.90372729815061
 20
76.034337645287508
 30
0.0
 40
43.75410132915944
 50
231.00514967960061
 51
255.35658473846229
  0
LINE
  5
16605
  8
0
 10
371.87704963015813
 20
48.803539791672229
 30
0.0
 11
371.87704963015813
 21
45.303539791672151
 31
0.0
  0
LINE
  5
16609
  8
0
 10
371.87704963015813
 20
61.503539791672097
 30
0.0
 11
371.87704963015813
 21
58.003539791672111
 31
0.0
  0
ARC
  5
1660C
  8
0
 10
394.90372729814987
 20
30.77274193805863
 30
0.0
 40
43.754101329157344
 50
104.6434152615376
 51
128.9948503204015
  0
ARC
  5
1660D
  8
0
 10
436.58190976049372
 20
52.86542204969868
 30
0.0
 40
14.770474444997401
 50
2.087861169241457
 51
53.76015844872348
  0
ARC
  5
1660E
  8
0
 10
436.58190976049428
 20
53.941657533645177
 30
0.0
 40
14.77047444499676
 50
306.23984155126931
 51
357.91213883075528
  0
ARC
  5
1660F
  8
0
 10
376.70419659652782
 20
54.260166229447691
 30
0.0
 40
15.38548394712493
 50
216.06108829835509
 51
232.65627903913239
  0
ARC
  5
16611
  8
0
 10
358.51836571554003
 20
53.40353979167201
 30
0.0
 40
4.2021304850702643
 50
319.9721799305554
 51
40.027820069441987
  0
ARC
  5
16612
  8
0
 10
376.70419659648968
 20
52.546913353916402
 30
0.0
 40
15.385483947080809
 50
159.6251213384449
 51
166.6240673713136
  0
ARC
  5
16613
  8
0
 10
376.70419659653788
 20
54.26016622944411
 30
0.0
 40
15.38548394713184
 50
193.37593262870999
 51
200.37487866154899
  0
ARC
  5
16616
  8
0
 10
376.70419659651418
 20
52.546913353911002
 30
0.0
 40
15.38548394710517
 50
127.3437209608676
 51
143.93891170165671
  0
ARC
  5
1662E
  8
0
 10
352.89163329560392
 20
53.403539791672081
 30
0.0
 40
8.7568445826247068
 50
349.76336994876112
 51
10.23663005123564
  0
ARC
  5
1662F
  8
0
 10
376.35721088379739
 20
52.614160813450667
 30
0.0
 40
15.0322503918457
 50
166.5677709005231
 51
171.0230374562617
  0
ARC
  5
16630
  8
0
 10
376.7041965964188
 20
54.260166229418871
 30
0.0
 40
15.38548394701013
 50
189.02269730994141
 51
193.5572879500813
  0
LINE
  5
16631
  8
0
 10
364.26672764766948
 20
45.203539791671972
 30
0.0
 11
364.19452197480513
 21
45.303539791672108
 31
0.0
  0
LINE
  5
16632
  8
0
 10
362.3188448731334
 20
48.803539791672051
 30
0.0
 11
362.28130959380468
 21
48.90353979167196
 31
0.0
  0
LINE
  5
16633
  8
0
 10
362.28130959380468
 20
57.903539791671903
 30
0.0
 11
362.31884487313351
 21
58.00353979167204
 31
0.0
  0
LINE
  5
16634
  8
0
 10
364.19452197480541
 20
61.50353979167204
 30
0.0
 11
364.26672764766948
 21
61.603539791671949
 31
0.0
  0
LINE
  5
1665D
  8
0
 10
48.942578597415888
 20
245.86353979167191
 30
0.0
 11
48.942578597415888
 21
233.3623646757469
 31
0.0
  0
LINE
  5
1665E
  8
0
 10
48.942578597415782
 20
265.85462464909511
 30
0.0
 11
48.942578597415782
 21
253.86353979167191
 31
0.0
  0
LINE
  5
1665F
  8
0
 10
94.442578597415775
 20
253.86353979167211
 30
0.0
 11
94.442578597415775
 21
265.8546246490954
 31
0.0
  0
LINE
  5
16660
  8
0
 10
94.442578597415874
 20
233.3623646757469
 30
0.0
 11
94.442578597415775
 21
245.86353979167211
 31
0.0
  0
LINE
  5
16661
  8
0
 10
94.442578597415775
 20
265.85462464909529
 30
0.0
 11
48.942578597415782
 21
265.85462464909511
 31
0.0
  0
LINE
  5
16662
  8
0
 10
48.942578597415888
 20
233.36236467574679
 30
0.0
 11
58.692578582479712
 21
233.36236467574699
 31
0.0
  0
LINE
  5
16664
  8
0
 10
84.692578582479712
 20
233.3623646757469
 30
0.0
 11
94.442578597415874
 21
233.3623646757469
 31
0.0
  0
LINE
  5
16665
  8
0
 10
48.596918766296369
 20
253.863539791672
 30
0.0
 11
48.596918766296369
 21
245.863539791672
 31
0.0
  0
LINE
  5
16666
  8
0
 10
94.788238428535408
 20
245.86353979167211
 30
0.0
 11
94.788238428535294
 21
253.86353979167211
 31
0.0
  0
LINE
  5
16667
  8
0
 10
48.143574813330183
 20
253.86353979167191
 30
0.0
 11
48.143574813330183
 21
245.86353979167191
 31
0.0
  0
LINE
  5
16668
  8
0
 10
95.241582381501473
 20
245.86353979167211
 30
0.0
 11
95.241582381501473
 21
253.86353979167211
 31
0.0
  0
LINE
  5
16669
  8
0
 10
47.992578597415843
 20
253.86353979167191
 30
0.0
 11
47.992578597415843
 21
245.86353979167191
 31
0.0
  0
LINE
  5
1666A
  8
0
 10
95.39257859741582
 20
245.86353979167211
 30
0.0
 11
95.39257859741582
 21
253.86353979167211
 31
0.0
  0
LINE
  5
16675
  8
0
 10
67.092578597416207
 20
259.363539791672
 30
0.0
 11
63.592578597416207
 21
259.363539791672
 31
0.0
  0
LINE
  5
16676
  8
0
 10
79.792578597416139
 20
259.36353979167211
 30
0.0
 11
76.292578597416124
 21
259.36353979167211
 31
0.0
  0
ARC
  5
1667C
  8
0
 10
46.369713499409563
 20
231.6582105655591
 30
0.0
 40
30.34572764308108
 50
55.420106135854432
 51
62.636641395649107
  0
ARC
  5
1667F
  8
0
 10
97.015443695445867
 20
231.65821056552079
 30
0.0
 40
30.345727643126079
 50
117.3633586043654
 51
124.5798938641293
  0
ARC
  5
16689
  8
0
 10
116.6299518458648
 20
276.22617115089872
 30
0.0
 40
47.6771507185479
 50
227.9431615885922
 51
238.04214156986831
  0
POLYLINE
  5
1668A
  8
0
 66
     1
 10
0.0
 20
0.0
 30
0.0
 70
   128
  0
VERTEX
  5
1708D
  8
0
 10
91.394656533512318
 20
263.91224789250901
 30
0.0
  0
VERTEX
  5
1708E
  8
0
 10
90.408561702145846
 20
263.30032035171871
 30
0.0
  0
VERTEX
  5
1708F
  8
0
 10
89.187472841074339
 20
262.51939594771937
 30
0.0
  0
VERTEX
  5
17090
  8
0
 10
87.6968937175115
 20
261.55621358062899
 30
0.0
  0
VERTEX
  5
17091
  8
0
 10
85.990869189148441
 20
260.45719677273041
 30
0.0
  0
VERTEX
  5
17092
  8
0
 10
84.584243124317865
 20
259.56073045453581
 30
0.0
  0
VERTEX
  5
17093
  8
0
 10
83.067578597414297
 20
258.60853979167138
 30
0.0
  0
SEQEND
  5
17094
  8
0
  0
POLYLINE
  5
1668C
  8
0
 66
     1
 10
0.0
 20
0.0
 30
0.0
 70
   128
  0
VERTEX
  5
17095
  8
0
 10
51.9905006613198
 20
263.91224789250862
 30
0.0
  0
VERTEX
  5
17096
  8
0
 10
52.976595492686378
 20
263.30032035171831
 30
0.0
  0
VERTEX
  5
17097
  8
0
 10
54.1976843537579
 20
262.51939594771892
 30
0.0
  0
VERTEX
  5
17098
  8
0
 10
55.688263477320959
 20
261.55621358062842
 30
0.0
  0
VERTEX
  5
17099
  8
0
 10
57.394288005684132
 20
260.45719677272967
 30
0.0
  0
VERTEX
  5
1709A
  8
0
 10
58.800914070513777
 20
259.56073045453581
 30
0.0
  0
VERTEX
  5
1709B
  8
0
 10
60.31757859741635
 20
258.608539791672
 30
0.0
  0
SEQEND
  5
1709C
  8
0
  0
ARC
  5
1668D
  8
0
 10
26.755205348971518
 20
276.22617115089201
 30
0.0
 40
47.677150718539941
 50
301.95785843013459
 51
312.05683836305769
  0
LINE
  5
1669A
  8
0
 10
49.689409376387907
 20
253.86353979167191
 30
0.0
 11
49.689409376387907
 21
245.86353979167191
 31
0.0
  0
ARC
  5
1669B
  8
0
 10
5.5196696711000746
 20
291.33753663454797
 30
0.0
 40
72.434276691067637
 50
306.83329733749991
 51
309.9081365747777
  0
ARC
  5
1669C
  8
0
 10
3.910519159911416
 20
191.82682156323739
 30
0.0
 40
86.648677487013586
 50
56.297261330330677
 51
58.687295663397393
  0
LINE
  5
1669D
  8
0
 10
93.695747811366743
 20
245.86353979167211
 30
0.0
 11
93.695747811366743
 21
253.86353979167211
 31
0.0
  0
ARC
  5
1669E
  8
0
 10
137.72668334245981
 20
194.5320659313453
 30
0.0
 40
83.428210799400205
 50
121.2530366017901
 51
123.734965636338
  0
ARC
  5
166A0
  8
0
 10
135.6928827573629
 20
288.63122966403989
 30
0.0
 40
68.964520857585896
 50
230.0339518723344
 51
233.2633384941997
  0
LINE
  5
166A1
  8
0
 10
95.39257859741582
 20
245.86353979167211
 30
0.0
 11
93.695747811366743
 21
245.86353979167211
 31
0.0
  0
LINE
  5
166A2
  8
0
 10
93.695747811366743
 20
253.86353979167211
 30
0.0
 11
95.39257859741582
 21
253.86353979167211
 31
0.0
  0
LINE
  5
166A3
  8
0
 10
93.884287198680866
 20
253.86353979167211
 30
0.0
 11
93.884287198680866
 21
245.86353979167211
 31
0.0
  0
LINE
  5
166A5
  8
0
 10
49.500869996150811
 20
245.86353979167191
 30
0.0
 11
49.500869996150811
 21
253.863539791672
 31
0.0
  0
LINE
  5
166AF
  8
0
 10
47.99257859741607
 20
253.86353979167191
 30
0.0
 11
49.689409376387907
 21
253.8635397916733
 31
0.0
  0
LINE
  5
166B0
  8
0
 10
47.992578597416177
 20
245.86353979167191
 30
0.0
 11
49.689409376387907
 21
245.86353979167191
 31
0.0
  0
LINE
  5
166B7
  8
0
 10
67.09257859741615
 20
254.1014973936735
 30
0.0
 11
67.092578597416207
 21
259.363539791672
 31
0.0
  0
LINE
  5
166B8
  8
0
 10
63.592578597416207
 20
259.363539791672
 30
0.0
 11
63.592578597416257
 21
252.12526874329089
 31
0.0
  0
LINE
  5
166BA
  8
0
 10
79.792578597416139
 20
259.36353979167211
 30
0.0
 11
79.792578597416195
 21
252.12526872642309
 31
0.0
  0
LINE
  5
166BB
  8
0
 10
76.292578597416124
 20
259.36353979167211
 30
0.0
 11
76.292578597416195
 21
254.10149737680581
 31
0.0
  0
LINE
  5
166C8
  8
0
 10
574.09257858248111
 20
253.86353979167171
 30
0.0
 11
574.09257858248122
 21
265.85462464909511
 31
0.0
  0
LINE
  5
166C9
  8
0
 10
574.09257858248111
 20
233.3623646757469
 30
0.0
 11
574.09257858248111
 21
245.8635397916718
 31
0.0
  0
LINE
  5
166CA
  8
0
 10
528.59257858248111
 20
245.863539791672
 30
0.0
 11
528.59257858248111
 21
233.3623646757471
 31
0.0
  0
LINE
  5
166CB
  8
0
 10
528.59257858248111
 20
265.85462464909529
 30
0.0
 11
528.59257858248111
 21
253.863539791672
 31
0.0
  0
LINE
  5
166CC
  8
0
 10
528.59257858248111
 20
233.36236467574699
 30
0.0
 11
574.09257858248111
 21
233.3623646757469
 31
0.0
  0
LINE
  5
166CD
  8
0
 10
574.09257858248111
 20
265.85462464909511
 30
0.0
 11
528.59257858248111
 21
265.85462464909529
 31
0.0
  0
LINE
  5
166CE
  8
0
 10
573.67628265343183
 20
245.8635397916718
 30
0.0
 11
573.67628265343183
 21
253.86353979167171
 31
0.0
  0
LINE
  5
166CF
  8
0
 10
529.00887451153039
 20
253.863539791672
 30
0.0
 11
529.00887451153039
 21
245.863539791672
 31
0.0
  0
LINE
  5
166D0
  8
0
 10
574.43823841360063
 20
245.8635397916718
 30
0.0
 11
574.43823841360063
 21
253.86353979167171
 31
0.0
  0
LINE
  5
166D1
  8
0
 10
528.24691875136159
 20
253.863539791672
 30
0.0
 11
528.24691875136159
 21
245.863539791672
 31
0.0
  0
LINE
  5
166D2
  8
0
 10
574.89158236656681
 20
245.8635397916718
 30
0.0
 11
574.89158236656681
 21
253.86353979167171
 31
0.0
  0
LINE
  5
166D3
  8
0
 10
527.79357479839564
 20
253.863539791672
 30
0.0
 11
527.79357479839564
 21
245.863539791672
 31
0.0
  0
LINE
  5
166D4
  8
0
 10
575.04257858248116
 20
245.8635397916718
 30
0.0
 11
575.04257858248116
 21
253.86353979167171
 31
0.0
  0
LINE
  5
166D5
  8
0
 10
527.64257858248118
 20
253.863539791672
 30
0.0
 11
527.64257858248118
 21
245.863539791672
 31
0.0
  0
LINE
  5
166D8
  8
0
 10
555.94257858248147
 20
215.70353979167189
 30
0.0
 11
559.44257858248147
 21
215.70353979167189
 31
0.0
  0
LINE
  5
166D9
  8
0
 10
543.24257858248143
 20
215.70353979167189
 30
0.0
 11
546.74257858248143
 21
215.70353979167189
 31
0.0
  0
POLYLINE
  5
166DA
  8
0
 66
     1
 10
0.0
 20
0.0
 30
0.0
 70
   128
  0
VERTEX
  5
1709D
  8
0
 10
551.34257858248202
 20
251.3635397916691
 30
0.0
  0
VERTEX
  5
1709E
  8
0
 10
551.98141496329947
 20
251.56363050670689
 30
0.0
  0
VERTEX
  5
1709F
  8
0
 10
552.58670457252174
 20
251.85136425610699
 30
0.0
  0
VERTEX
  5
170A0
  8
0
 10
553.77875342313655
 20
252.57079462832431
 30
0.0
  0
VERTEX
  5
170A1
  8
0
 10
555.17518876229929
 20
253.52814596308281
 30
0.0
  0
VERTEX
  5
170A2
  8
0
 10
556.52278137377107
 20
254.49713765602351
 30
0.0
  0
VERTEX
  5
170A3
  8
0
 10
557.86921594006844
 20
255.46679884054049
 30
0.0
  0
VERTEX
  5
170A4
  8
0
 10
559.16888276520012
 20
256.3861407447892
 30
0.0
  0
VERTEX
  5
170A5
  8
0
 10
561.01161001396838
 20
257.61960072494992
 30
0.0
  0
VERTEX
  5
170A6
  8
0
 10
561.89593583771637
 20
258.1593067403403
 30
0.0
  0
VERTEX
  5
170A7
  8
0
 10
562.717578582481
 20
258.60853979167217
 30
0.0
  0
SEQEND
  5
170A8
  8
0
  0
POLYLINE
  5
166DC
  8
0
 66
     1
 10
0.0
 20
0.0
 30
0.0
 70
   128
  0
VERTEX
  5
170A9
  8
0
 10
562.717578582481
 20
242.3635397916718
 30
0.0
  0
VERTEX
  5
170AA
  8
0
 10
561.89042478665851
 20
242.9907971075844
 30
0.0
  0
VERTEX
  5
170AB
  8
0
 10
561.00218276845158
 20
243.69285651584809
 30
0.0
  0
VERTEX
  5
170AC
  8
0
 10
560.03092140803983
 20
244.4827230074151
 30
0.0
  0
VERTEX
  5
170AD
  8
0
 10
559.01651883670968
 20
245.324204156051
 30
0.0
  0
VERTEX
  5
170AE
  8
0
 10
557.72921049170941
 20
246.4072673519602
 30
0.0
  0
VERTEX
  5
170AF
  8
0
 10
556.39994406193114
 20
247.53362004188011
 30
0.0
  0
VERTEX
  5
170B0
  8
0
 10
554.99781239850313
 20
248.7204272304794
 30
0.0
  0
VERTEX
  5
170B1
  8
0
 10
553.55346537721084
 20
249.9078087663946
 30
0.0
  0
VERTEX
  5
170B2
  8
0
 10
552.50927428935165
 20
250.70390032979969
 30
0.0
  0
VERTEX
  5
170B3
  8
0
 10
551.94815544410812
 20
251.0756268782942
 30
0.0
  0
VERTEX
  5
170B4
  8
0
 10
551.34257858248077
 20
251.3635397916693
 30
0.0
  0
SEQEND
  5
170B5
  8
0
  0
POLYLINE
  5
166DD
  8
0
 66
     1
 10
0.0
 20
0.0
 30
0.0
 70
   128
  0
VERTEX
  5
170B6
  8
0
 10
551.34257858248111
 20
251.3635397916689
 30
0.0
  0
VERTEX
  5
170B7
  8
0
 10
550.70374220166423
 20
251.56363050670609
 30
0.0
  0
VERTEX
  5
170B8
  8
0
 10
550.09845259244275
 20
251.85136425610571
 30
0.0
  0
VERTEX
  5
170B9
  8
0
 10
548.90640374182897
 20
252.57079462832189
 30
0.0
  0
VERTEX
  5
170BA
  8
0
 10
547.50996840266612
 20
253.52814596308039
 30
0.0
  0
VERTEX
  5
170BB
  8
0
 10
546.16237579119434
 20
254.49713765602121
 30
0.0
  0
VERTEX
  5
170BC
  8
0
 10
544.81594122489673
 20
255.46679884053839
 30
0.0
  0
VERTEX
  5
170BD
  8
0
 10
543.51627439976482
 20
256.38614074478733
 30
0.0
  0
VERTEX
  5
170BE
  8
0
 10
541.67354715099555
 20
257.61960072494878
 30
0.0
  0
VERTEX
  5
170BF
  8
0
 10
540.78922132724676
 20
258.15930674033962
 30
0.0
  0
VERTEX
  5
170C0
  8
0
 10
539.96757858248168
 20
258.60853979167189
 30
0.0
  0
SEQEND
  5
170C1
  8
0
  0
POLYLINE
  5
166DF
  8
0
 66
     1
 10
0.0
 20
0.0
 30
0.0
 70
   128
  0
VERTEX
  5
170C2
  8
0
 10
539.96757858248168
 20
242.36353979167239
 30
0.0
  0
VERTEX
  5
170C3
  8
0
 10
540.79473237830405
 20
242.99079710758519
 30
0.0
  0
VERTEX
  5
170C4
  8
0
 10
541.68297439651133
 20
243.69285651584889
 30
0.0
  0
VERTEX
  5
170C5
  8
0
 10
542.65423575692284
 20
244.48272300741581
 30
0.0
  0
VERTEX
  5
170C6
  8
0
 10
543.668638328253
 20
245.32420415605191
 30
0.0
  0
VERTEX
  5
170C7
  8
0
 10
544.95594667325349
 20
246.40726735196111
 30
0.0
  0
VERTEX
  5
170C8
  8
0
 10
546.28521310303188
 20
247.53362004188111
 30
0.0
  0
VERTEX
  5
170C9
  8
0
 10
547.68734476645989
 20
248.72042723048051
 30
0.0
  0
VERTEX
  5
170CA
  8
0
 10
549.13169178775252
 20
249.90780876639579
 30
0.0
  0
VERTEX
  5
170CB
  8
0
 10
550.17588287561136
 20
250.70390032980049
 30
0.0
  0
VERTEX
  5
170CC
  8
0
 10
550.73700172085501
 20
251.07562687829491
 30
0.0
  0
VERTEX
  5
170CD
  8
0
 10
551.34257858248225
 20
251.36353979166969
 30
0.0
  0
SEQEND
  5
170CE
  8
0
  0
ARC
  5
166E2
  8
0
 10
503.92422537198632
 20
279.3618541584832
 30
0.0
 40
51.652672502416081
 50
302.4517632683739
 51
314.25094636508902
  0
ARC
  5
166E4
  8
0
 10
192.73289256865431
 20
-277.37788050512569
 30
0.0
 40
638.63398744014262
 50
57.063125674307159
 51
57.948872087552203
  0
ARC
  5
166E5
  8
0
 10
909.95226459165633
 20
-277.37788049785132
 30
0.0
 40
638.63398743150822
 50
122.05112791244051
 51
122.9368743257001
  0
ARC
  5
166E7
  8
0
 10
598.76093179297709
 20
279.36185415848422
 30
0.0
 40
51.65267250241773
 50
225.749053634918
 51
237.5482367316261
  0
LINE
  5
166EA
  8
0
 10
572.51634371324394
 20
245.8635397916718
 30
0.0
 11
572.51634371324405
 21
253.86353979167171
 31
0.0
  0
ARC
  5
166EB
  8
0
 10
624.22568420029484
 20
299.82802512411308
 30
0.0
 40
83.252634559360587
 50
230.29827898914891
 51
232.97378185863889
  0
ARC
  5
166EC
  8
0
 10
620.48901114365435
 20
189.68493477256831
 30
0.0
 40
89.187657314764948
 50
121.3464302163823
 51
123.6684081794524
  0
LINE
  5
166ED
  8
0
 10
530.16881345171805
 20
253.863539791672
 30
0.0
 11
530.16881345171805
 21
245.863539791672
 31
0.0
  0
ARC
  5
166EF
  8
0
 10
483.95070258846232
 20
192.40029947765311
 30
0.0
 40
85.955078994171856
 50
56.301521128771498
 51
58.71047663308623
  0
ARC
  5
166F0
  8
0
 10
480.0552617731858
 20
297.84120398474499
 30
0.0
 40
80.704648582597798
 50
306.9716006757078
 51
309.73110895775341
  0
LINE
  5
166F2
  8
0
 10
572.51634371324394
 20
245.8635397916718
 30
0.0
 11
575.04257858248116
 21
245.8635397916718
 31
0.0
  0
LINE
  5
166F3
  8
0
 10
572.51634371324405
 20
253.86353979167171
 30
0.0
 11
575.04257858248116
 21
253.86353979167171
 31
0.0
  0
LINE
  5
166F4
  8
0
 10
572.71499295067576
 20
253.86353979167171
 30
0.0
 11
572.71499295067576
 21
245.8635397916718
 31
0.0
  0
LINE
  5
166F6
  8
0
 10
529.97016421428634
 20
245.863539791672
 30
0.0
 11
529.97016421428634
 21
253.863539791672
 31
0.0
  0
LINE
  5
16706
  8
0
 10
530.16881345171805
 20
253.863539791672
 30
0.0
 11
527.64257858248152
 21
253.863539791672
 31
0.0
  0
LINE
  5
16707
  8
0
 10
527.64257858248084
 20
245.863539791672
 30
0.0
 11
530.16881345171805
 21
245.863539791672
 31
0.0
  0
LINE
  5
1670E
  8
0
 10
559.44257858248147
 20
215.70353979167189
 30
0.0
 11
559.44257858248147
 21
233.36236467574699
 31
0.0
  0
LINE
  5
1670F
  8
0
 10
555.94257858248147
 20
233.36236467574699
 30
0.0
 11
555.94257858248147
 21
215.70353979167189
 31
0.0
  0
LINE
  5
16710
  8
0
 10
546.74257858248143
 20
215.70353979167189
 30
0.0
 11
546.74257858248143
 21
233.3623646757469
 31
0.0
  0
LINE
  5
16711
  8
0
 10
543.24257858248143
 20
215.70353979167189
 30
0.0
 11
543.24257858248143
 21
233.36236467574699
 31
0.0
  0
LINE
  5
16712
  8
0
 10
175.39257860123749
 20
181.49353979167199
 30
0.0
 11
175.39257860123749
 21
180.99353979167199
 31
0.0
  0
LINE
  5
16713
  8
0
 10
189.9925786012376
 20
180.99353979167199
 30
0.0
 11
189.9925786012376
 21
181.49353979167199
 31
0.0
  0
LINE
  5
16714
  8
0
 10
177.69257860123719
 20
235.57353979167189
 30
0.0
 11
177.69257860123719
 21
230.88593594126459
 31
0.0
  0
LINE
  5
16715
  8
0
 10
177.69257860123719
 20
208.9935397916725
 30
0.0
 11
177.69257860123719
 21
181.49353979167199
 31
0.0
  0
LINE
  5
16716
  8
0
 10
187.6925786012371
 20
181.49353979167199
 30
0.0
 11
187.6925786012371
 21
208.99353979167199
 31
0.0
  0
LINE
  5
16717
  8
0
 10
187.6925786012371
 20
233.3792159696963
 30
0.0
 11
187.6925786012371
 21
235.57353979167189
 31
0.0
  0
LINE
  5
16718
  8
0
 10
187.6925786012288
 20
235.57353979167189
 30
0.0
 11
186.7725786012507
 21
236.49353979166679
 31
0.0
  0
LINE
  5
16719
  8
0
 10
178.6125786012243
 20
236.49353979166679
 30
0.0
 11
177.69257860124631
 21
235.57353979167189
 31
0.0
  0
LINE
  5
1671A
  8
0
 10
172.8776240250132
 20
175.44588080845469
 30
0.0
 11
174.1925786012377
 21
175.09353979167179
 31
0.0
  0
LINE
  5
1671B
  8
0
 10
191.1925786012373
 20
175.09353979167199
 30
0.0
 11
192.50753317746091
 21
175.44588080845469
 31
0.0
  0
LINE
  5
1671C
  8
0
 10
192.50753317079671
 20
213.23435041696479
 30
0.0
 11
191.1925786012373
 21
213.99353979167211
 31
0.0
  0
LINE
  5
1671D
  8
0
 10
172.87762402501369
 20
209.7527291702271
 30
0.0
 11
174.1925786012371
 21
208.9935397916723
 31
0.0
  0
LINE
  5
1671E
  8
0
 10
191.1925786012375
 20
208.99353979167179
 30
0.0
 11
192.507533177461
 21
209.75272917022659
 31
0.0
  0
LINE
  5
1671F
  8
0
 10
174.19257860123739
 20
213.99353979167191
 30
0.0
 11
172.87762404667319
 21
213.23435042562221
 31
0.0
  0
LINE
  5
16721
  8
0
 10
187.60005588934911
 20
175.44588080845469
 30
0.0
 11
187.60005588934911
 21
180.99353979167199
 31
0.0
  0
ARC
  5
16722
  8
0
 10
182.52836282124599
 20
211.7331115657833
 30
0.0
 40
36.639939773594847
 50
270.25679361596048
 51
277.95641708578199
  0
ARC
  5
16723
  8
0
 10
182.85610513814129
 20
211.7235116479946
 30
0.0
 40
36.63033686882045
 50
262.04257213634662
 51
269.74421716191472
  0
LINE
  5
16724
  8
0
 10
177.7851013131251
 20
175.44588080845469
 30
0.0
 11
177.7851013131251
 21
180.99353979167199
 31
0.0
  0
LINE
  5
16726
  8
0
 10
192.50753317746091
 20
175.44588080845469
 30
0.0
 11
192.50753317746091
 21
180.99353979167199
 31
0.0
  0
ARC
  5
16727
  8
0
 10
189.9551860862974
 20
184.50047217292919
 30
0.0
 40
9.4074492000428585
 50
270.60058270716939
 51
285.74231059881748
  0
ARC
  5
16728
  8
0
 10
190.15198910317079
 20
184.4975898890643
 30
0.0
 40
9.404562744104334
 50
254.2553521203771
 51
269.4017545736429
  0
ARC
  5
16729
  8
0
 10
175.23275422195891
 20
184.50047217294289
 30
0.0
 40
9.4074492000567531
 50
270.60058270718889
 51
285.74231059881038
  0
ARC
  5
1672A
  8
0
 10
175.42955723883759
 20
184.49758988907919
 30
0.0
 40
9.4045627441194828
 50
254.25535212038429
 51
269.40175457362989
  0
LINE
  5
1672B
  8
0
 10
172.87762402501329
 20
175.44588080845469
 30
0.0
 11
172.87762402501329
 21
180.99353979167199
 31
0.0
  0
LINE
  5
1672C
  8
0
 10
172.87762402501349
 20
180.99353979167199
 30
0.0
 11
192.50753317746091
 21
180.99353979167199
 31
0.0
  0
LINE
  5
1672F
  8
0
 10
175.39257860123749
 20
181.49353979167199
 30
0.0
 11
189.9925786012376
 21
181.49353979167199
 31
0.0
  0
LINE
  5
16730
  8
0
 10
187.6925786012371
 20
235.57353979167189
 30
0.0
 11
177.69257860123719
 21
235.57353979167189
 31
0.0
  0
LINE
  5
16731
  8
0
 10
186.7725786012507
 20
236.49353979166679
 30
0.0
 11
178.6125786012243
 21
236.49353979166679
 31
0.0
  0
LINE
  5
16732
  8
0
 10
174.1925786012377
 20
175.09353979167179
 30
0.0
 11
191.19257860123619
 21
175.09353979167179
 31
0.0
  0
ARC
  5
16734
  8
0
 10
189.87225254214439
 20
213.92519140345371
 30
0.0
 40
4.9349919062325647
 50
272.1081974480748
 51
302.27605001996488
  0
ARC
  5
16735
  8
0
 10
190.23197288444129
 20
213.9143199473493
 30
0.0
 40
4.9240049619478379
 50
237.6894906426607
 51
267.9262618892987
  0
LINE
  5
16736
  8
0
 10
187.60005588101831
 20
213.23435040830751
 30
0.0
 11
187.60005588934911
 21
209.75272917022679
 31
0.0
  0
ARC
  5
16737
  8
0
 10
190.2353365273195
 20
209.06188816883019
 30
0.0
 40
4.9349919173827477
 50
92.108197474141008
 51
122.27605008904121
  0
ARC
  5
16738
  8
0
 10
189.8756161844247
 20
209.07275964465151
 30
0.0
 40
4.9240049532223411
 50
57.689490698507868
 51
87.926261909563294
  0
LINE
  5
16739
  8
0
 10
192.507533177461
 20
209.7527291702265
 30
0.0
 11
192.50753317079671
 21
213.23435041696479
 31
0.0
  0
ARC
  5
1673A
  8
0
 10
182.8962110024209
 20
226.55065094650479
 30
0.0
 40
17.558292008562759
 50
253.07654928335501
 51
269.3354969426569
  0
LINE
  5
1673B
  8
0
 10
177.78510131312561
 20
209.75272917022701
 30
0.0
 11
177.7851012964644
 21
213.23435040830751
 31
0.0
  0
ARC
  5
1673C
  8
0
 10
182.9000551657119
 20
196.41157956902961
 30
0.0
 40
17.583184347420861
 50
90.67608955985051
 51
106.9118642650468
  0
POLYLINE
  5
1673D
  8
0
 66
     1
 10
0.0
 20
0.0
 30
0.0
 70
   128
  0
VERTEX
  5
170CF
  8
0
 10
182.69257860123739
 20
213.99353979167199
 30
0.0
  0
VERTEX
  5
170D0
  8
0
 10
185.1463172019746
 20
213.79315277981311
 30
0.0
  0
VERTEX
  5
170D1
  8
0
 10
187.60005580271169
 20
213.23435043812731
 30
0.0
  0
SEQEND
  5
170D2
  8
0
  0
ARC
  5
1673E
  8
0
 10
182.48510203979859
 20
226.5754999890232
 30
0.0
 40
17.583184322095381
 50
270.67608955093249
 51
286.91186422306077
  0
ARC
  5
16740
  8
0
 10
175.14982067781111
 20
213.925191403448
 30
0.0
 40
4.9349919062264229
 50
272.10819744804871
 51
302.27605001998108
  0
ARC
  5
16742
  8
0
 10
175.1531843665137
 20
209.0727598768103
 30
0.0
 40
4.9240047195355334
 50
57.689489755603162
 51
87.926262351649697
  0
ARC
  5
16745
  8
0
 10
175.5095410201049
 20
213.91431994734751
 30
0.0
 40
4.9240049619454869
 50
237.68949064265351
 51
267.92626188930518
  0
LINE
  5
16746
  8
0
 10
172.87762402501369
 20
209.7527291702271
 30
0.0
 11
172.87762404667319
 21
213.23435042562221
 31
0.0
  0
POLYLINE
  5
16747
  8
0
 66
     1
 10
0.0
 20
0.0
 30
0.0
 70
   128
  0
VERTEX
  5
170D3
  8
0
 10
172.87762406833261
 20
213.23435043812719
 30
0.0
  0
VERTEX
  5
170D4
  8
0
 10
174.0797799528377
 20
213.78516468478381
 30
0.0
  0
VERTEX
  5
170D5
  8
0
 10
175.3313626690699
 20
213.99353979167211
 30
0.0
  0
SEQEND
  5
170D6
  8
0
  0
LINE
  5
16748
  8
0
 10
174.1925786012371
 20
208.9935397916723
 30
0.0
 11
191.19257860123841
 21
208.9935397916723
 31
0.0
  0
CIRCLE
  5
1674A
  8
0
 10
290.09257860123728
 20
250.363539791672
 30
0.0
 40
5.5000000000000711
  0
LINE
  5
1674D
  8
0
 10
252.69257860123739
 20
222.983539791672
 30
0.0
 11
253.71201217459611
 21
222.983539791672
 31
0.0
  0
LINE
  5
1674F
  8
0
 10
249.67257860123729
 20
248.83256558591691
 30
0.0
 11
253.71201217459611
 21
249.83970949138009
 31
0.0
  0
ARC
  5
16750
  8
0
 10
252.69257860123739
 20
217.983539791672
 30
0.0
 40
5.000000000000056
 50
90.0
 51
127.15691691896539
  0
LINE
  5
16753
  8
0
 10
247.6925786012373
 20
213.99353979167199
 30
0.0
 11
247.6925786012373
 21
217.983539791672
 31
0.0
  0
LINE
  5
16755
  8
0
 10
247.6925786012373
 20
213.99353979167211
 30
0.0
 11
171.6925786012371
 21
213.99353979167199
 31
0.0
  0
ARC
  5
16756
  8
0
 10
252.69257860123659
 20
217.9835397916722
 30
0.0
 40
4.999999999999261
 50
156.2967321864127
 51
180.00000000000321
  0
LINE
  5
16757
  8
0
 10
249.67257860123729
 20
248.83256558591691
 30
0.0
 11
175.4829691232392
 21
230.33501842305199
 31
0.0
  0
ARC
  5
16758
  8
0
 10
176.69257860123739
 20
225.483539791672
 30
0.0
 40
5.000000000000397
 50
104.0000000000028
 51
180.0
  0
LINE
  5
16759
  8
0
 10
171.6925786012371
 20
213.99353979167199
 30
0.0
 11
171.6925786012371
 21
225.483539791672
 31
0.0
  0
ARC
  5
1675A
  8
0
 10
252.69257860123739
 20
217.983539791672
 30
0.0
 40
5.0000000000000071
 50
127.15691691896539
 51
156.296732186414
  0
LINE
  5
1675C
  8
0
 10
271.25314502787847
 20
220.23657283852191
 30
0.0
 11
270.95137789348138
 21
220.6758474839796
 31
0.0
  0
ARC
  5
1675D
  8
0
 10
266.73812745113401
 20
217.983539791672
 30
0.0
 40
5.0000000000000284
 50
32.578970392804202
 51
90.0
  0
LINE
  5
1675E
  8
0
 10
266.73812745113401
 20
222.983539791672
 30
0.0
 11
253.71201217459611
 21
222.983539791672
 31
0.0
  0
LINE
  5
1675F
  8
0
 10
253.71201217459611
 20
249.83970949138009
 30
0.0
 11
271.25314502787847
 21
254.21320511329591
 31
0.0
  0
LINE
  5
16760
  8
0
 10
274.99141658936139
 20
255.14526089580579
 30
0.0
 11
275.29257860123732
 21
255.31913686443201
 31
0.0
  0
ARC
  5
16762
  8
0
 10
277.69257860123753
 20
224.9835397916722
 30
0.0
 40
8.0000000000003784
 50
216.3965819872048
 51
252.54239687628089
  0
LINE
  5
16763
  8
0
 10
271.25314502787847
 20
254.21320511329591
 30
0.0
 11
274.99141658936139
 21
255.14526089580579
 31
0.0
  0
ARC
  5
16765
  8
0
 10
287.59257860123728
 20
250.87353979167199
 30
0.0
 40
9.9999999999999716
 50
90.0
 51
120.0000000000005
  0
LINE
  5
16766
  8
0
 10
287.59257860123728
 20
260.87353979167187
 30
0.0
 11
300.29257860123721
 21
260.87353979167187
 31
0.0
  0
ARC
  5
16767
  8
0
 10
300.29257860123721
 20
248.87353979167199
 30
0.0
 40
11.999999999999989
 50
24.57180641944786
 51
90.0
  0
LINE
  5
16770
  8
0
 10
275.29257860123732
 20
255.31913686443201
 30
0.0
 11
282.59257860123728
 21
259.5337938295163
 31
0.0
  0
ARC
  5
16771
  8
0
 10
277.69257860123741
 20
224.983539791672
 30
0.0
 40
8.0000000000000213
 50
252.54239687628089
 51
255.52248781406971
  0
LINE
  5
16773
  8
0
 10
284.59257860123728
 20
357.75459791951261
 30
0.0
 11
284.59257860123728
 21
356.50721303950309
 31
0.0
  0
LINE
  5
16774
  8
0
 10
295.59257860123728
 20
356.50721303950309
 30
0.0
 11
295.59257860123728
 21
357.75459791951261
 31
0.0
  0
ARC
  5
16775
  8
0
 10
290.09257860123728
 20
315.454597919506
 30
0.0
 40
60.000000000006828
 50
92.626976854986296
 51
95.259496464416316
  0
ARC
  5
16776
  8
0
 10
290.09257860123728
 20
315.454597919506
 30
0.0
 40
60.000000000006828
 50
84.740503535583699
 51
87.373023145013676
  0
ARC
  5
16777
  8
0
 10
290.09257860123728
 20
416.25459791950721
 30
0.0
 40
59.999999999994543
 50
264.74050353558368
 51
270.0
  0
ARC
  5
16778
  8
0
 10
290.09257860123728
 20
416.25459791950732
 30
0.0
 40
59.999999999994593
 50
270.0
 51
275.25949646441632
  0
LINE
  5
16779
  8
0
 10
284.59257860123728
 20
375.20198279952223
 30
0.0
 11
284.59257860123728
 21
373.95459791951259
 31
0.0
  0
LINE
  5
1677A
  8
0
 10
295.59257860123728
 20
373.95459791951259
 30
0.0
 11
295.59257860123728
 21
375.20198279952223
 31
0.0
  0
LINE
  5
1677B
  8
0
 10
286.09257860123728
 20
370.45459791951271
 30
0.0
 11
286.09257860123728
 21
369.40459791951258
 31
0.0
  0
LINE
  5
1677C
  8
0
 10
286.09257860123728
 20
362.30459791951267
 30
0.0
 11
286.09257860123728
 21
361.25459791951278
 31
0.0
  0
LINE
  5
1677D
  8
0
 10
294.09257860123728
 20
361.25459791951272
 30
0.0
 11
294.09257860123728
 21
362.30459791951267
 31
0.0
  0
LINE
  5
1677E
  8
0
 10
294.09257860123728
 20
369.40459791951258
 30
0.0
 11
294.09257860123728
 21
370.45459791951282
 31
0.0
  0
LINE
  5
1677F
  8
0
 10
279.19257860123741
 20
357.75459791951261
 30
0.0
 11
279.19257860123741
 21
356.50721303950309
 31
0.0
  0
ARC
  5
16780
  8
0
 10
284.6925786012373
 20
416.25459791950721
 30
0.0
 40
59.999999999994529
 50
264.74050353558368
 51
272.579181051646
  0
ARC
  5
16781
  8
0
 10
284.6925786012373
 20
315.454597919506
 30
0.0
 40
60.000000000006828
 50
92.626976854986296
 51
95.259496464416316
  0
LINE
  5
16782
  8
0
 10
279.19257860123741
 20
375.20198279952223
 30
0.0
 11
279.19257860123741
 21
373.95459791951259
 31
0.0
  0
LINE
  5
16783
  8
0
 10
280.6925786012373
 20
370.45459791951271
 30
0.0
 11
280.6925786012373
 21
369.40459791951258
 31
0.0
  0
LINE
  5
16784
  8
0
 10
280.6925786012373
 20
362.30459791951267
 30
0.0
 11
280.6925786012373
 21
361.25459791951272
 31
0.0
  0
LINE
  5
16785
  8
0
 10
311.58274939208451
 20
362.30459791951267
 30
0.0
 11
311.58274939208451
 21
369.40459791951258
 31
0.0
  0
ARC
  5
16788
  8
0
 10
182.69257860123739
 20
365.85459791951268
 30
0.0
 40
9.9999999999999432
 50
294.4946484714194
 51
65.505351528580547
  0
LINE
  5
16789
  8
0
 10
178.54649611291171
 20
356.75459791951278
 30
0.0
 11
186.83866108956281
 21
356.75459791951272
 31
0.0
  0
ARC
  5
1678A
  8
0
 10
182.69257860123739
 20
365.85459791951268
 30
0.0
 40
10.00000000000002
 50
114.4946484714194
 51
245.50535152858049
  0
LINE
  5
1678B
  8
0
 10
186.83866108956281
 20
374.95459791951259
 30
0.0
 11
178.5464961129116
 21
374.95459791951259
 31
0.0
  0
LINE
  5
1678E
  8
0
 10
295.59084164229631
 20
356.50721303950309
 30
0.0
 11
295.59257860123728
 21
356.50721303950309
 31
0.0
  0
LINE
  5
1678F
  8
0
 10
279.19257860123741
 20
356.50721303950309
 30
0.0
 11
295.59084164229631
 21
356.50721303950309
 31
0.0
  0
LINE
  5
16790
  8
0
 10
292.84257860123728
 20
375.39154395449202
 30
0.0
 11
287.34257860123722
 21
375.39154395449202
 31
0.0
  0
LINE
  5
16793
  8
0
 10
290.04362276219479
 20
373.95459791951259
 30
0.0
 11
284.59257860123728
 21
373.95459791951259
 31
0.0
  0
LINE
  5
16794
  8
0
 10
295.59257860123728
 20
373.95459791951259
 30
0.0
 11
290.04362276219479
 21
373.95459791951259
 31
0.0
  0
LINE
  5
16797
  8
0
 10
287.34257860123722
 20
375.39154395449202
 30
0.0
 11
281.94257860123741
 21
375.39154395449202
 31
0.0
  0
LINE
  5
16798
  8
0
 10
295.59257860123728
 20
375.20198279952223
 30
0.0
 11
279.19257860123599
 21
375.20198279952223
 31
0.0
  0
ARC
  5
167A4
  8
0
 10
275.29257860123732
 20
352.30459791951267
 30
0.0
 40
9.9999999999998916
 50
90.0
 51
91.725792168190125
  0
ARC
  5
167A6
  8
0
 10
275.29257860123732
 20
355.80459791951301
 30
0.0
 40
9.9999999999997975
 50
89.189708562931941
 51
91.725792168190125
  0
LINE
  5
167A7
  8
0
 10
275.43399642189672
 20
365.90559791951262
 30
0.0
 11
275.43399642189672
 21
365.80359791951281
 31
0.0
  0
ARC
  5
167A8
  8
0
 10
275.29257860123732
 20
375.90459791951258
 30
0.0
 40
10.00000000000002
 50
268.2742078318164
 51
270.81029143706809
  0
ARC
  5
167AA
  8
0
 10
275.29257860123732
 20
379.40459791951258
 30
0.0
 40
10.0
 50
268.2742078318164
 51
270.0
  0
LINE
  5
167AB
  8
0
 10
275.29257860123732
 20
362.30459791951267
 30
0.0
 11
311.58274939208451
 21
362.30459791951267
 31
0.0
  0
LINE
  5
167AC
  8
0
 10
311.58274939208451
 20
369.40459791951258
 30
0.0
 11
275.29257860123732
 21
369.40459791951258
 31
0.0
  0
LINE
  5
167AD
  8
0
 10
253.71201217459611
 20
353.70675793367877
 30
0.0
 11
271.25314502787847
 21
361.45243790534653
 31
0.0
  0
ARC
  5
167AE
  8
0
 10
249.67257860123729
 20
362.85459791951268
 30
0.0
 40
9.9999999999999432
 50
270.0
 51
293.82492940886272
  0
LINE
  5
167AF
  8
0
 10
249.67257860123729
 20
352.85459791951268
 30
0.0
 11
171.6925786012371
 21
352.85459791951268
 31
0.0
  0
LINE
  5
167B1
  8
0
 10
249.67257860123729
 20
356.35459791951268
 30
0.0
 11
171.6925786012371
 21
356.35459791951268
 31
0.0
  0
ARC
  5
167B2
  8
0
 10
249.67257860123729
 20
362.8545979195128
 30
0.0
 40
6.5000000000001581
 50
270.0
 51
292.99975042274878
  0
LINE
  5
167B3
  8
0
 10
271.38530741306431
 20
365.00966347398179
 30
0.0
 11
252.21230487354981
 21
356.8713053091077
 31
0.0
  0
ARC
  5
167B4
  8
0
 10
275.29257860123732
 20
352.30459791951267
 30
0.0
 40
9.9999999999998934
 50
91.725792168190125
 51
113.8249294088554
  0
ARC
  5
167B5
  8
0
 10
275.29257860123732
 20
355.80459791951301
 30
0.0
 40
9.9999999999998277
 50
91.725792168190125
 51
112.9997504227487
  0
ARC
  5
167B6
  8
0
 10
249.6725786012374
 20
368.85459791951268
 30
0.0
 40
10.0
 50
66.175070591144618
 51
90.0
  0
LINE
  5
167B7
  8
0
 10
271.25314502787847
 20
370.25675793367878
 30
0.0
 11
253.71201217459611
 21
378.0024379053466
 31
0.0
  0
LINE
  5
167B8
  8
0
 10
252.21230487354981
 20
374.83789052991762
 30
0.0
 11
271.38530741306431
 21
366.69953236504358
 31
0.0
  0
ARC
  5
167B9
  8
0
 10
249.67257860123729
 20
368.85459791951268
 30
0.0
 40
6.4999999999999432
 50
67.000249577251239
 51
90.0
  0
LINE
  5
167BA
  8
0
 10
171.6925786012371
 20
375.35459791951263
 30
0.0
 11
249.67257860123729
 21
375.35459791951268
 31
0.0
  0
LINE
  5
167BC
  8
0
 10
249.6725786012374
 20
378.85459791951268
 30
0.0
 11
171.6925786012371
 21
378.85459791951263
 31
0.0
  0
ARC
  5
167BD
  8
0
 10
275.29257860123732
 20
379.40459791951258
 30
0.0
 40
9.9999999999999751
 50
246.17507059114459
 51
268.2742078318164
  0
ARC
  5
167BE
  8
0
 10
275.29257860123732
 20
375.90459791951258
 30
0.0
 40
10.00000000000003
 50
247.0002495772512
 51
268.2742078318164
  0
LINE
  5
167BF
  8
0
 10
311.55188725255613
 20
362.30459791951267
 30
0.0
 11
311.58274939208451
 21
362.30459791951267
 31
0.0
  0
LINE
  5
167C0
  8
0
 10
311.58274939208451
 20
369.40459791951258
 30
0.0
 11
311.55188725255613
 21
369.40459791951258
 31
0.0
  0
LINE
  5
167C4
  8
0
 10
171.6925786012371
 20
352.85459791951268
 30
0.0
 11
171.6925786012371
 21
378.85459791951263
 31
0.0
  0
LINE
  5
167C7
  8
0
 10
236.6925786012373
 20
360.75459791951272
 30
0.0
 11
191.2943226104486
 21
360.75459791951272
 31
0.0
  0
ARC
  5
167C8
  8
0
 10
236.6925786012373
 20
365.85459791951268
 30
0.0
 40
5.1000000000000218
 50
270.0
 51
90.0
  0
LINE
  5
167C9
  8
0
 10
191.2943226104486
 20
370.95459791951259
 30
0.0
 11
236.6925786012373
 21
370.95459791951259
 31
0.0
  0
LINE
  5
167CA
  8
0
 10
247.6925786012373
 20
356.35459791951268
 30
0.0
 11
247.6925786012373
 21
375.35459791951268
 31
0.0
  0
LINE
  5
167CC
  8
0
 10
274.88190252598417
 20
365.79616161901521
 30
0.0
 11
274.88190252598417
 21
365.91303422001022
 31
0.0
  0
LINE
  5
167CD
  8
0
 10
64.392578582479985
 20
181.49353979167191
 30
0.0
 11
64.392578582479985
 21
180.99353979167191
 31
0.0
  0
LINE
  5
167CE
  8
0
 10
78.99257858247995
 20
180.99353979167191
 30
0.0
 11
78.99257858247995
 21
181.49353979167191
 31
0.0
  0
LINE
  5
167CF
  8
0
 10
66.692578582479769
 20
235.57353979167181
 30
0.0
 11
66.692578582479769
 21
229.57023662229381
 31
0.0
  0
LINE
  5
167D0
  8
0
 10
66.692578582479882
 20
208.99353979167191
 30
0.0
 11
66.692578582479939
 21
181.49353979167179
 31
0.0
  0
LINE
  5
167D1
  8
0
 10
76.692578582479939
 20
181.49353979167191
 30
0.0
 11
76.692578582479882
 21
208.9935397916723
 31
0.0
  0
LINE
  5
167D2
  8
0
 10
76.692578582479825
 20
229.57023662229381
 30
0.0
 11
76.692578582479769
 21
235.57353979167181
 31
0.0
  0
LINE
  5
167D3
  8
0
 10
76.692578582470958
 20
235.57353979167181
 30
0.0
 11
75.772578582492997
 21
236.49353979166671
 31
0.0
  0
LINE
  5
167D4
  8
0
 10
67.61257858246654
 20
236.49353979166671
 30
0.0
 11
66.692578582488579
 21
235.57353979167181
 31
0.0
  0
ARC
  5
167D5
  8
0
 10
71.692578582479825
 20
216.49353979167191
 30
0.0
 40
13.99999999999997
 50
110.85094955089581
 51
130.54160187350271
  0
ARC
  5
167D6
  8
0
 10
71.692578582479825
 20
216.49353979167191
 30
0.0
 40
14.0
 50
49.458398126497258
 51
69.149050449104166
  0
LINE
  5
167D7
  8
0
 10
62.592578582479803
 20
218.1346940648599
 30
0.0
 11
62.962749174696967
 21
217.49353979167191
 31
0.0
  0
LINE
  5
167D8
  8
0
 10
80.422407990262684
 20
217.49353979167191
 30
0.0
 11
80.792578582479834
 21
218.1346940648599
 31
0.0
  0
LINE
  5
167D9
  8
0
 10
81.039963462488856
 20
255.86353979167191
 30
0.0
 11
79.79257858247928
 21
255.86353979167191
 31
0.0
  0
ARC
  5
167DA
  8
0
 10
122.0925785824859
 20
250.363539791672
 30
0.0
 40
60.000000000006779
 50
174.74050353558371
 51
177.37302314501369
  0
LINE
  5
167DB
  8
0
 10
63.592578582479348
 20
255.86353979167191
 30
0.0
 11
62.345193702469707
 21
255.8635397916718
 31
0.0
  0
ARC
  5
167DC
  8
0
 10
21.29257858248474
 20
250.3635397916716
 30
0.0
 40
59.999999999994593
 50
0.8773718633747888
 51
5.2594964644163156
  0
LINE
  5
167DF
  8
0
 10
80.792578582479791
 20
221.48353979167189
 30
0.0
 11
81.039963462489027
 21
221.48353979167189
 31
0.0
  0
ARC
  5
167E0
  8
0
 10
122.092578582486
 20
226.98353979167209
 30
0.0
 40
60.000000000006779
 50
184.29515960002379
 51
185.25949646441629
  0
LINE
  5
167E1
  8
0
 10
62.345193702469892
 20
221.48353979167189
 30
0.0
 11
62.592578582479909
 21
221.48353979167189
 31
0.0
  0
POLYLINE
  5
167E2
  8
0
 66
     1
 10
0.0
 20
0.0
 30
0.0
 70
   128
  0
VERTEX
  5
170D7
  8
0
 10
81.039963462489027
 20
221.48353979167189
 30
0.0
  0
VERTEX
  5
170D8
  8
0
 10
81.099138293795974
 20
222.16945467643691
 30
0.0
  0
VERTEX
  5
170D9
  8
0
 10
81.123922347913378
 20
222.49034620929771
 30
0.0
  0
SEQEND
  5
170DA
  8
0
  0
LINE
  5
167E3
  8
0
 10
71.742578582479325
 20
255.3191368644319
 30
0.0
 11
71.742578582479439
 21
236.49353979166671
 31
0.0
  0
LINE
  5
167E4
  8
0
 10
71.642578582479416
 20
236.49353979166671
 30
0.0
 11
71.642578582479345
 21
255.3191368644319
 31
0.0
  0
LINE
  5
167E5
  8
0
 10
63.192578582479932
 20
180.99353979167191
 30
0.0
 11
80.192578582479996
 21
180.99353979167191
 31
0.0
  0
LINE
  5
167E6
  8
0
 10
71.692578582480053
 20
175.4458808084546
 30
0.0
 11
71.692578582480166
 21
180.99353979167191
 31
0.0
  0
ARC
  5
167E7
  8
0
 10
67.297188011608739
 20
202.6555651014944
 30
0.0
 40
27.562408777126208
 50
270.30223427827627
 51
279.1761623612062
  0
ARC
  5
167E8
  8
0
 10
67.587358923044633
 20
202.64820439502509
 30
0.0
 40
27.555044960048711
 50
260.82264952651849
 51
269.69895383399938
  0
LINE
  5
167E9
  8
0
 10
63.192578582480003
 20
180.99353979167171
 30
0.0
 11
63.19257858248011
 21
175.09353979167179
 31
0.0
  0
LINE
  5
167EB
  8
0
 10
80.192578582480053
 20
175.0935397916719
 30
0.0
 11
80.192578582479996
 21
180.99353979167191
 31
0.0
  0
ARC
  5
167EC
  8
0
 10
75.797188011604874
 20
202.65556510153311
 30
0.0
 40
27.562408777164912
 50
270.30223427828292
 51
279.1761623612062
  0
ARC
  5
167ED
  8
0
 10
76.087358923048726
 20
202.64820439506511
 30
0.0
 40
27.55504496008891
 50
260.82264952652491
 51
269.69895383399279
  0
LINE
  5
167F0
  8
0
 10
63.192578582480053
 20
175.09353979167139
 30
0.0
 11
80.192578582479996
 21
175.09353979167179
 31
0.0
  0
LINE
  5
167F4
  8
0
 10
64.392578582479985
 20
181.49353979167191
 30
0.0
 11
78.99257858247995
 21
181.49353979167191
 31
0.0
  0
LINE
  5
167F5
  8
0
 10
76.692578582479769
 20
235.57353979167189
 30
0.0
 11
66.692578582479769
 21
235.57353979167181
 31
0.0
  0
LINE
  5
167F7
  8
0
 10
75.772578582492997
 20
236.49353979166671
 30
0.0
 11
67.61257858246654
 21
236.49353979166671
 31
0.0
  0
ARC
  5
167F8
  8
0
 10
76.13362531764102
 20
222.33854061344141
 30
0.0
 40
13.34636826211665
 50
250.56403107689209
 51
269.17981092269781
  0
LINE
  5
167F9
  8
0
 10
71.692578582479655
 20
209.75272917022701
 30
0.0
 11
71.692578619994663
 21
213.2343504256221
 31
0.0
  0
POLYLINE
  5
167FA
  8
0
 66
     1
 10
0.0
 20
0.0
 30
0.0
 70
   128
  0
VERTEX
  5
170DB
  8
0
 10
71.692578657509785
 20
213.23435043812711
 30
0.0
  0
VERTEX
  5
170DC
  8
0
 10
73.774773728090452
 20
213.78516468478369
 30
0.0
  0
VERTEX
  5
170DD
  8
0
 10
75.942578582479712
 20
213.99353979167199
 30
0.0
  0
SEQEND
  5
170DE
  8
0
  0
ARC
  5
167FB
  8
0
 10
75.751531876037291
 20
200.64853921041021
 30
0.0
 40
13.346368021222849
 50
70.564030842716733
 51
89.179811031195882
  0
ARC
  5
167FD
  8
0
 10
75.747925278510365
 20
222.3587304604925
 30
0.0
 40
13.366608078441811
 50
270.83440817264591
 51
289.42174982776322
  0
ARC
  5
167FE
  8
0
 10
67.63362531764659
 20
222.33854061346869
 30
0.0
 40
13.346368262144271
 50
250.5640310769127
 51
269.17981092267178
  0
POLYLINE
  5
16800
  8
0
 66
     1
 10
0.0
 20
0.0
 30
0.0
 70
   128
  0
VERTEX
  5
170DF
  8
0
 10
63.192578657509777
 20
213.2343504381268
 30
0.0
  0
VERTEX
  5
170E0
  8
0
 10
65.274773728090508
 20
213.7851646847833
 30
0.0
  0
VERTEX
  5
170E1
  8
0
 10
67.442578582479712
 20
213.99353979167159
 30
0.0
  0
SEQEND
  5
170E2
  8
0
  0
ARC
  5
16801
  8
0
 10
67.251531717725072
 20
200.6485378176686
 30
0.0
 40
13.34636941608766
 50
70.564032064214388
 51
89.179810437215437
  0
ARC
  5
16802
  8
0
 10
67.247925278503487
 20
222.35873046052461
 30
0.0
 40
13.36660807847425
 50
270.83440817267848
 51
289.42174982774259
  0
LINE
  5
16804
  8
0
 10
63.192578582479882
 20
213.99353979167191
 30
0.0
 11
63.192578582479882
 21
208.99353979167179
 31
0.0
  0
LINE
  5
16806
  8
0
 10
80.192578582479868
 20
208.99353979167211
 30
0.0
 11
80.192578582479143
 21
213.99353979167191
 31
0.0
  0
LINE
  5
16807
  8
0
 10
63.192578582479882
 20
208.9935397916725
 30
0.0
 11
80.192578582479868
 21
208.99353979167211
 31
0.0
  0
LINE
  5
1680A
  8
0
 10
76.675712036653522
 20
229.57667324577579
 30
0.0
 11
66.709445128333982
 21
229.57667324577579
 31
0.0
  0
LINE
  5
1680C
  8
0
 10
80.792578582479734
 20
218.1346940648595
 30
0.0
 11
80.792578582479734
 21
227.1326186991713
 31
0.0
  0
LINE
  5
1680D
  8
0
 10
62.592578582479909
 20
226.29149876280451
 30
0.0
 11
80.792578582479734
 21
226.29149876280459
 31
0.0
  0
LINE
  5
1680E
  8
0
 10
62.592578582479803
 20
227.1326186991713
 30
0.0
 11
62.59257858248111
 21
218.1346940648576
 31
0.0
  0
LINE
  5
16810
  8
0
 10
62.592578582479909
 20
219.6935397916719
 30
0.0
 11
80.792578582479791
 21
219.6935397916719
 31
0.0
  0
LINE
  5
16815
  8
0
 10
81.039963462488913
 20
251.42094938116301
 30
0.0
 11
81.039963462488856
 21
255.86353979167191
 31
0.0
  0
LINE
  5
16816
  8
0
 10
62.155632547499977
 20
253.11353979167191
 30
0.0
 11
62.155632547500034
 21
251.3139161853197
 31
0.0
  0
LINE
  5
16817
  8
0
 10
62.345193702469707
 20
255.86332190788551
 30
0.0
 11
62.345193702469771
 21
251.42094938116281
 31
0.0
  0
LINE
  5
16819
  8
0
 10
81.039963462489027
 20
221.48353979167189
 30
0.0
 11
81.039963462489027
 21
222.69640273936551
 31
0.0
  0
LINE
  5
1681A
  8
0
 10
62.345193702469892
 20
222.696402739365
 30
0.0
 11
62.345193702469892
 21
221.48353979167049
 31
0.0
  0
LINE
  5
1681C
  8
0
 10
81.192578582479896
 20
217.49353979167191
 30
0.0
 11
62.192578582479882
 21
217.49353979167179
 31
0.0
  0
ARC
  5
1681E
  8
0
 10
78.692578582479825
 20
219.99353979167191
 30
0.0
 40
6.0000000000000142
 50
270.0
 51
0.0
  0
LINE
  5
1681F
  8
0
 10
63.192578582479833
 20
213.99353979167191
 30
0.0
 11
80.192578582479769
 21
213.99353979167199
 31
0.0
  0
ARC
  5
16820
  8
0
 10
64.692578582479825
 20
219.99353979167191
 30
0.0
 40
5.9999999999999849
 50
180.00000000000651
 51
270.0
  0
LINE
  5
16821
  8
0
 10
58.692578582479833
 20
248.83256558591671
 30
0.0
 11
58.692578582479833
 21
219.99353979167179
 31
0.0
  0
LINE
  5
16822
  8
0
 10
84.692578582479882
 20
219.99353979167191
 30
0.0
 11
84.692578582479598
 21
248.83256558591671
 31
0.0
  0
LINE
  5
16823
  8
0
 10
81.192578582479655
 20
248.83256558591671
 30
0.0
 11
81.192578582479896
 21
217.49353979167191
 31
0.0
  0
LINE
  5
16824
  8
0
 10
62.192578582479882
 20
217.49353979167179
 30
0.0
 11
62.192578582479648
 21
248.83256558591671
 31
0.0
  0
POLYLINE
  5
1682B
  8
0
 10
59.54473859664553
 20
249.83970949137989
 30
0.0
 66
     1
 70
     8
  0
VERTEX
  8
0
  5
1712B
 10
59.5447
 20
249.840
 30
0.000000
  70
    32
  0
VERTEX
  8
0
  5
1712C
 10
59.5317
 20
249.832
 30
0.000000
  70
    32
  0
VERTEX
  8
0
  5
1712D
 10
59.5187
 20
249.825
 30
0.000000
  70
    32
  0
VERTEX
  8
0
  5
1712E
 10
59.5058
 20
249.817
 30
0.000000
  70
    32
  0
VERTEX
  8
0
  5
1712F
 10
59.4930
 20
249.810
 30
0.000000
  70
    32
  0
VERTEX
  8
0
  5
17130
 10
59.4803
 20
249.803
 30
0.000000
  70
    32
  0
VERTEX
  8
0
  5
17131
 10
59.4677
 20
249.795
 30
0.000000
  70
    32
  0
VERTEX
  8
0
  5
17132
 10
59.4553
 20
249.788
 30
0.000000
  70
    32
  0
VERTEX
  8
0
  5
17133
 10
59.4429
 20
249.780
 30
0.000000
  70
    32
  0
VERTEX
  8
0
  5
17134
 10
59.4306
 20
249.773
 30
0.000000
  70
    32
  0
VERTEX
  8
0
  5
17135
 10
59.4184
 20
249.765
 30
0.000000
  70
    32
  0
VERTEX
  8
0
  5
17136
 10
59.4063
 20
249.758
 30
0.000000
  70
    32
  0
VERTEX
  8
0
  5
17137
 10
59.3943
 20
249.750
 30
0.000000
  70
    32
  0
VERTEX
  8
0
  5
17138
 10
59.3824
 20
249.743
 30
0.000000
  70
    32
  0
VERTEX
  8
0
  5
17139
 10
59.3705
 20
249.735
 30
0.000000
  70
    32
  0
VERTEX
  8
0
  5
1713A
 10
59.3588
 20
249.727
 30
0.000000
  70
    32
  0
VERTEX
  8
0
  5
1713B
 10
59.3472
 20
249.720
 30
0.000000
  70
    32
  0
VERTEX
  8
0
  5
1713C
 10
59.3357
 20
249.712
 30
0.000000
  70
    32
  0
VERTEX
  8
0
  5
1713D
 10
59.3243
 20
249.705
 30
0.000000
  70
    32
  0
VERTEX
  8
0
  5
1713E
 10
59.3130
 20
249.697
 30
0.000000
  70
    32
  0
VERTEX
  8
0
  5
1713F
 10
59.3018
 20
249.689
 30
0.000000
  70
    32
  0
VERTEX
  8
0
  5
17140
 10
59.2907
 20
249.682
 30
0.000000
  70
    32
  0
VERTEX
  8
0
  5
17141
 10
59.2796
 20
249.674
 30
0.000000
  70
    32
  0
VERTEX
  8
0
  5
17142
 10
59.2687
 20
249.667
 30
0.000000
  70
    32
  0
VERTEX
  8
0
  5
17143
 10
59.2579
 20
249.659
 30
0.000000
  70
    32
  0
VERTEX
  8
0
  5
17144
 10
59.2472
 20
249.651
 30
0.000000
  70
    32
  0
VERTEX
  8
0
  5
17145
 10
59.2366
 20
249.644
 30
0.000000
  70
    32
  0
VERTEX
  8
0
  5
17146
 10
59.2260
 20
249.636
 30
0.000000
  70
    32
  0
VERTEX
  8
0
  5
17147
 10
59.2156
 20
249.628
 30
0.000000
  70
    32
  0
VERTEX
  8
0
  5
17148
 10
59.2053
 20
249.621
 30
0.000000
  70
    32
  0
VERTEX
  8
0
  5
17149
 10
59.1951
 20
249.613
 30
0.000000
  70
    32
  0
VERTEX
  8
0
  5
1714A
 10
59.1850
 20
249.605
 30
0.000000
  70
    32
  0
VERTEX
  8
0
  5
1714B
 10
59.1750
 20
249.598
 30
0.000000
  70
    32
  0
VERTEX
  8
0
  5
1714C
 10
59.1650
 20
249.590
 30
0.000000
  70
    32
  0
VERTEX
  8
0
  5
1714D
 10
59.1552
 20
249.582
 30
0.000000
  70
    32
  0
VERTEX
  8
0
  5
1714E
 10
59.1455
 20
249.574
 30
0.000000
  70
    32
  0
VERTEX
  8
0
  5
1714F
 10
59.1359
 20
249.567
 30
0.000000
  70
    32
  0
VERTEX
  8
0
  5
17150
 10
59.1264
 20
249.559
 30
0.000000
  70
    32
  0
VERTEX
  8
0
  5
17151
 10
59.1170
 20
249.551
 30
0.000000
  70
    32
  0
VERTEX
  8
0
  5
17152
 10
59.1076
 20
249.543
 30
0.000000
  70
    32
  0
VERTEX
  8
0
  5
17153
 10
59.0984
 20
249.536
 30
0.000000
  70
    32
  0
VERTEX
  8
0
  5
17154
 10
59.0893
 20
249.528
 30
0.000000
  70
    32
  0
VERTEX
  8
0
  5
17155
 10
59.0803
 20
249.520
 30
0.000000
  70
    32
  0
VERTEX
  8
0
  5
17156
 10
59.0714
 20
249.512
 30
0.000000
  70
    32
  0
VERTEX
  8
0
  5
17157
 10
59.0626
 20
249.505
 30
0.000000
  70
    32
  0
VERTEX
  8
0
  5
17158
 10
59.0539
 20
249.497
 30
0.000000
  70
    32
  0
VERTEX
  8
0
  5
17159
 10
59.0453
 20
249.489
 30
0.000000
  70
    32
  0
VERTEX
  8
0
  5
1715A
 10
59.0368
 20
249.481
 30
0.000000
  70
    32
  0
VERTEX
  8
0
  5
1715B
 10
59.0284
 20
249.473
 30
0.000000
  70
    32
  0
VERTEX
  8
0
  5
1715C
 10
59.0201
 20
249.465
 30
0.000000
  70
    32
  0
VERTEX
  8
0
  5
1715D
 10
59.0119
 20
249.458
 30
0.000000
  70
    32
  0
VERTEX
  8
0
  5
1715E
 10
59.0038
 20
249.450
 30
0.000000
  70
    32
  0
VERTEX
  8
0
  5
1715F
 10
58.9958
 20
249.442
 30
0.000000
  70
    32
  0
VERTEX
  8
0
  5
17160
 10
58.9879
 20
249.434
 30
0.000000
  70
    32
  0
VERTEX
  8
0
  5
17161
 10
58.9801
 20
249.426
 30
0.000000
  70
    32
  0
VERTEX
  8
0
  5
17162
 10
58.9725
 20
249.418
 30
0.000000
  70
    32
  0
VERTEX
  8
0
  5
17163
 10
58.9649
 20
249.410
 30
0.000000
  70
    32
  0
VERTEX
  8
0
  5
17164
 10
58.9574
 20
249.403
 30
0.000000
  70
    32
  0
VERTEX
  8
0
  5
17165
 10
58.9500
 20
249.395
 30
0.000000
  70
    32
  0
VERTEX
  8
0
  5
17166
 10
58.9428
 20
249.387
 30
0.000000
  70
    32
  0
VERTEX
  8
0
  5
17167
 10
58.9356
 20
249.379
 30
0.000000
  70
    32
  0
VERTEX
  8
0
  5
17168
 10
58.9285
 20
249.371
 30
0.000000
  70
    32
  0
VERTEX
  8
0
  5
17169
 10
58.9216
 20
249.363
 30
0.000000
  70
    32
  0
VERTEX
  8
0
  5
1716A
 10
58.9147
 20
249.355
 30
0.000000
  70
    32
  0
VERTEX
  8
0
  5
1716B
 10
58.9079
 20
249.347
 30
0.000000
  70
    32
  0
VERTEX
  8
0
  5
1716C
 10
58.9013
 20
249.339
 30
0.000000
  70
    32
  0
VERTEX
  8
0
  5
1716D
 10
58.8947
 20
249.331
 30
0.000000
  70
    32
  0
VERTEX
  8
0
  5
1716E
 10
58.8883
 20
249.323
 30
0.000000
  70
    32
  0
VERTEX
  8
0
  5
1716F
 10
58.8819
 20
249.315
 30
0.000000
  70
    32
  0
VERTEX
  8
0
  5
17170
 10
58.8757
 20
249.308
 30
0.000000
  70
    32
  0
VERTEX
  8
0
  5
17171
 10
58.8696
 20
249.300
 30
0.000000
  70
    32
  0
VERTEX
  8
0
  5
17172
 10
58.8635
 20
249.292
 30
0.000000
  70
    32
  0
VERTEX
  8
0
  5
17173
 10
58.8576
 20
249.284
 30
0.000000
  70
    32
  0
VERTEX
  8
0
  5
17174
 10
58.8518
 20
249.276
 30
0.000000
  70
    32
  0
VERTEX
  8
0
  5
17175
 10
58.8461
 20
249.268
 30
0.000000
  70
    32
  0
VERTEX
  8
0
  5
17176
 10
58.8404
 20
249.260
 30
0.000000
  70
    32
  0
VERTEX
  8
0
  5
17177
 10
58.8349
 20
249.252
 30
0.000000
  70
    32
  0
VERTEX
  8
0
  5
17178
 10
58.8295
 20
249.244
 30
0.000000
  70
    32
  0
VERTEX
  8
0
  5
17179
 10
58.8242
 20
249.236
 30
0.000000
  70
    32
  0
VERTEX
  8
0
  5
1717A
 10
58.8190
 20
249.228
 30
0.000000
  70
    32
  0
VERTEX
  8
0
  5
1717B
 10
58.8139
 20
249.220
 30
0.000000
  70
    32
  0
VERTEX
  8
0
  5
1717C
 10
58.8089
 20
249.212
 30
0.000000
  70
    32
  0
VERTEX
  8
0
  5
1717D
 10
58.8040
 20
249.204
 30
0.000000
  70
    32
  0
VERTEX
  8
0
  5
1717E
 10
58.7992
 20
249.196
 30
0.000000
  70
    32
  0
VERTEX
  8
0
  5
1717F
 10
58.7946
 20
249.188
 30
0.000000
  70
    32
  0
VERTEX
  8
0
  5
17180
 10
58.7900
 20
249.180
 30
0.000000
  70
    32
  0
VERTEX
  8
0
  5
17181
 10
58.7855
 20
249.172
 30
0.000000
  70
    32
  0
VERTEX
  8
0
  5
17182
 10
58.7812
 20
249.164
 30
0.000000
  70
    32
  0
VERTEX
  8
0
  5
17183
 10
58.7769
 20
249.156
 30
0.000000
  70
    32
  0
VERTEX
  8
0
  5
17184
 10
58.7727
 20
249.148
 30
0.000000
  70
    32
  0
VERTEX
  8
0
  5
17185
 10
58.7687
 20
249.140
 30
0.000000
  70
    32
  0
VERTEX
  8
0
  5
17186
 10
58.7647
 20
249.132
 30
0.000000
  70
    32
  0
VERTEX
  8
0
  5
17187
 10
58.7609
 20
249.123
 30
0.000000
  70
    32
  0
VERTEX
  8
0
  5
17188
 10
58.7571
 20
249.115
 30
0.000000
  70
    32
  0
VERTEX
  8
0
  5
17189
 10
58.7535
 20
249.107
 30
0.000000
  70
    32
  0
VERTEX
  8
0
  5
1718A
 10
58.7500
 20
249.099
 30
0.000000
  70
    32
  0
VERTEX
  8
0
  5
1718B
 10
58.7466
 20
249.091
 30
0.000000
  70
    32
  0
VERTEX
  8
0
  5
1718C
 10
58.7432
 20
249.083
 30
0.000000
  70
    32
  0
VERTEX
  8
0
  5
1718D
 10
58.7400
 20
249.075
 30
0.000000
  70
    32
  0
VERTEX
  8
0
  5
1718E
 10
58.7369
 20
249.067
 30
0.000000
  70
    32
  0
VERTEX
  8
0
  5
1718F
 10
58.7339
 20
249.059
 30
0.000000
  70
    32
  0
VERTEX
  8
0
  5
17190
 10
58.7310
 20
249.051
 30
0.000000
  70
    32
  0
VERTEX
  8
0
  5
17191
 10
58.7282
 20
249.043
 30
0.000000
  70
    32
  0
VERTEX
  8
0
  5
17192
 10
58.7255
 20
249.035
 30
0.000000
  70
    32
  0
VERTEX
  8
0
  5
17193
 10
58.7230
 20
249.027
 30
0.000000
  70
    32
  0
VERTEX
  8
0
  5
17194
 10
58.7205
 20
249.019
 30
0.000000
  70
    32
  0
VERTEX
  8
0
  5
17195
 10
58.7181
 20
249.011
 30
0.000000
  70
    32
  0
VERTEX
  8
0
  5
17196
 10
58.7158
 20
249.003
 30
0.000000
  70
    32
  0
VERTEX
  8
0
  5
17197
 10
58.7137
 20
248.994
 30
0.000000
  70
    32
  0
VERTEX
  8
0
  5
17198
 10
58.7116
 20
248.986
 30
0.000000
  70
    32
  0
VERTEX
  8
0
  5
17199
 10
58.7097
 20
248.978
 30
0.000000
  70
    32
  0
VERTEX
  8
0
  5
1719A
 10
58.7078
 20
248.970
 30
0.000000
  70
    32
  0
VERTEX
  8
0
  5
1719B
 10
58.7061
 20
248.962
 30
0.000000
  70
    32
  0
VERTEX
  8
0
  5
1719C
 10
58.7044
 20
248.954
 30
0.000000
  70
    32
  0
VERTEX
  8
0
  5
1719D
 10
58.7029
 20
248.946
 30
0.000000
  70
    32
  0
VERTEX
  8
0
  5
1719E
 10
58.7015
 20
248.938
 30
0.000000
  70
    32
  0
VERTEX
  8
0
  5
1719F
 10
58.7002
 20
248.930
 30
0.000000
  70
    32
  0
VERTEX
  8
0
  5
171A0
 10
58.6990
 20
248.922
 30
0.000000
  70
    32
  0
VERTEX
  8
0
  5
171A1
 10
58.6979
 20
248.914
 30
0.000000
  70
    32
  0
VERTEX
  8
0
  5
171A2
 10
58.6969
 20
248.905
 30
0.000000
  70
    32
  0
VERTEX
  8
0
  5
171A3
 10
58.6960
 20
248.897
 30
0.000000
  70
    32
  0
VERTEX
  8
0
  5
171A4
 10
58.6952
 20
248.889
 30
0.000000
  70
    32
  0
VERTEX
  8
0
  5
171A5
 10
58.6945
 20
248.881
 30
0.000000
  70
    32
  0
VERTEX
  8
0
  5
171A6
 10
58.6939
 20
248.873
 30
0.000000
  70
    32
  0
VERTEX
  8
0
  5
171A7
 10
58.6934
 20
248.865
 30
0.000000
  70
    32
  0
VERTEX
  8
0
  5
171A8
 10
58.6931
 20
248.857
 30
0.000000
  70
    32
  0
VERTEX
  8
0
  5
171A9
 10
58.6928
 20
248.849
 30
0.000000
  70
    32
  0
VERTEX
  8
0
  5
171AA
 10
58.6926
 20
248.841
 30
0.000000
  70
    32
  0
VERTEX
  8
0
  5
171AB
 10
58.6926
 20
248.833
 30
0.000000
  70
    32
  0
SEQEND
  8
0
  5
171AC
  0
LINE
  5
1682C
  8
0
 10
67.290418568313271
 20
254.21320511329569
 30
0.0
 11
59.544738596645523
 21
249.83970949137981
 31
0.0
  0
POLYLINE
  5
1682D
  8
0
 10
67.290418568313513
 20
254.21320511329574
 30
0.0
 66
     1
 70
     8
  0
VERTEX
  8
0
  5
171AD
 10
67.2904
 20
254.213
 30
0.000000
  70
    32
  0
VERTEX
  8
0
  5
171AE
 10
67.3025
 20
254.220
 30
0.000000
  70
    32
  0
VERTEX
  8
0
  5
171AF
 10
67.3146
 20
254.227
 30
0.000000
  70
    32
  0
VERTEX
  8
0
  5
171B0
 10
67.3266
 20
254.234
 30
0.000000
  70
    32
  0
VERTEX
  8
0
  5
171B1
 10
67.3384
 20
254.241
 30
0.000000
  70
    32
  0
VERTEX
  8
0
  5
171B2
 10
67.3502
 20
254.248
 30
0.000000
  70
    32
  0
VERTEX
  8
0
  5
171B3
 10
67.3620
 20
254.255
 30
0.000000
  70
    32
  0
VERTEX
  8
0
  5
171B4
 10
67.3736
 20
254.262
 30
0.000000
  70
    32
  0
VERTEX
  8
0
  5
171B5
 10
67.3851
 20
254.268
 30
0.000000
  70
    32
  0
VERTEX
  8
0
  5
171B6
 10
67.3966
 20
254.275
 30
0.000000
  70
    32
  0
VERTEX
  8
0
  5
171B7
 10
67.4080
 20
254.282
 30
0.000000
  70
    32
  0
VERTEX
  8
0
  5
171B8
 10
67.4193
 20
254.289
 30
0.000000
  70
    32
  0
VERTEX
  8
0
  5
171B9
 10
67.4305
 20
254.296
 30
0.000000
  70
    32
  0
VERTEX
  8
0
  5
171BA
 10
67.4416
 20
254.303
 30
0.000000
  70
    32
  0
VERTEX
  8
0
  5
171BB
 10
67.4526
 20
254.310
 30
0.000000
  70
    32
  0
VERTEX
  8
0
  5
171BC
 10
67.4636
 20
254.317
 30
0.000000
  70
    32
  0
VERTEX
  8
0
  5
171BD
 10
67.4745
 20
254.324
 30
0.000000
  70
    32
  0
VERTEX
  8
0
  5
171BE
 10
67.4853
 20
254.331
 30
0.000000
  70
    32
  0
VERTEX
  8
0
  5
171BF
 10
67.4960
 20
254.338
 30
0.000000
  70
    32
  0
VERTEX
  8
0
  5
171C0
 10
67.5066
 20
254.345
 30
0.000000
  70
    32
  0
VERTEX
  8
0
  5
171C1
 10
67.5171
 20
254.352
 30
0.000000
  70
    32
  0
VERTEX
  8
0
  5
171C2
 10
67.5276
 20
254.359
 30
0.000000
  70
    32
  0
VERTEX
  8
0
  5
171C3
 10
67.5379
 20
254.367
 30
0.000000
  70
    32
  0
VERTEX
  8
0
  5
171C4
 10
67.5482
 20
254.374
 30
0.000000
  70
    32
  0
VERTEX
  8
0
  5
171C5
 10
67.5584
 20
254.381
 30
0.000000
  70
    32
  0
VERTEX
  8
0
  5
171C6
 10
67.5685
 20
254.388
 30
0.000000
  70
    32
  0
VERTEX
  8
0
  5
171C7
 10
67.5785
 20
254.395
 30
0.000000
  70
    32
  0
VERTEX
  8
0
  5
171C8
 10
67.5884
 20
254.402
 30
0.000000
  70
    32
  0
VERTEX
  8
0
  5
171C9
 10
67.5983
 20
254.409
 30
0.000000
  70
    32
  0
VERTEX
  8
0
  5
171CA
 10
67.6081
 20
254.416
 30
0.000000
  70
    32
  0
VERTEX
  8
0
  5
171CB
 10
67.6177
 20
254.423
 30
0.000000
  70
    32
  0
VERTEX
  8
0
  5
171CC
 10
67.6273
 20
254.430
 30
0.000000
  70
    32
  0
VERTEX
  8
0
  5
171CD
 10
67.6368
 20
254.437
 30
0.000000
  70
    32
  0
VERTEX
  8
0
  5
171CE
 10
67.6462
 20
254.445
 30
0.000000
  70
    32
  0
VERTEX
  8
0
  5
171CF
 10
67.6556
 20
254.452
 30
0.000000
  70
    32
  0
VERTEX
  8
0
  5
171D0
 10
67.6648
 20
254.459
 30
0.000000
  70
    32
  0
VERTEX
  8
0
  5
171D1
 10
67.6740
 20
254.466
 30
0.000000
  70
    32
  0
VERTEX
  8
0
  5
171D2
 10
67.6831
 20
254.473
 30
0.000000
  70
    32
  0
VERTEX
  8
0
  5
171D3
 10
67.6920
 20
254.480
 30
0.000000
  70
    32
  0
VERTEX
  8
0
  5
171D4
 10
67.7009
 20
254.488
 30
0.000000
  70
    32
  0
VERTEX
  8
0
  5
171D5
 10
67.7098
 20
254.495
 30
0.000000
  70
    32
  0
VERTEX
  8
0
  5
171D6
 10
67.7185
 20
254.502
 30
0.000000
  70
    32
  0
VERTEX
  8
0
  5
171D7
 10
67.7271
 20
254.509
 30
0.000000
  70
    32
  0
VERTEX
  8
0
  5
171D8
 10
67.7357
 20
254.516
 30
0.000000
  70
    32
  0
VERTEX
  8
0
  5
171D9
 10
67.7441
 20
254.524
 30
0.000000
  70
    32
  0
VERTEX
  8
0
  5
171DA
 10
67.7525
 20
254.531
 30
0.000000
  70
    32
  0
VERTEX
  8
0
  5
171DB
 10
67.7608
 20
254.538
 30
0.000000
  70
    32
  0
VERTEX
  8
0
  5
171DC
 10
67.7690
 20
254.545
 30
0.000000
  70
    32
  0
VERTEX
  8
0
  5
171DD
 10
67.7771
 20
254.552
 30
0.000000
  70
    32
  0
VERTEX
  8
0
  5
171DE
 10
67.7851
 20
254.560
 30
0.000000
  70
    32
  0
VERTEX
  8
0
  5
171DF
 10
67.7931
 20
254.567
 30
0.000000
  70
    32
  0
VERTEX
  8
0
  5
171E0
 10
67.8009
 20
254.574
 30
0.000000
  70
    32
  0
VERTEX
  8
0
  5
171E1
 10
67.8087
 20
254.581
 30
0.000000
  70
    32
  0
VERTEX
  8
0
  5
171E2
 10
67.8164
 20
254.589
 30
0.000000
  70
    32
  0
VERTEX
  8
0
  5
171E3
 10
67.8240
 20
254.596
 30
0.000000
  70
    32
  0
VERTEX
  8
0
  5
171E4
 10
67.8315
 20
254.603
 30
0.000000
  70
    32
  0
VERTEX
  8
0
  5
171E5
 10
67.8389
 20
254.611
 30
0.000000
  70
    32
  0
VERTEX
  8
0
  5
171E6
 10
67.8462
 20
254.618
 30
0.000000
  70
    32
  0
VERTEX
  8
0
  5
171E7
 10
67.8535
 20
254.625
 30
0.000000
  70
    32
  0
VERTEX
  8
0
  5
171E8
 10
67.8606
 20
254.632
 30
0.000000
  70
    32
  0
VERTEX
  8
0
  5
171E9
 10
67.8677
 20
254.640
 30
0.000000
  70
    32
  0
VERTEX
  8
0
  5
171EA
 10
67.8746
 20
254.647
 30
0.000000
  70
    32
  0
VERTEX
  8
0
  5
171EB
 10
67.8815
 20
254.654
 30
0.000000
  70
    32
  0
VERTEX
  8
0
  5
171EC
 10
67.8883
 20
254.662
 30
0.000000
  70
    32
  0
VERTEX
  8
0
  5
171ED
 10
67.8950
 20
254.669
 30
0.000000
  70
    32
  0
VERTEX
  8
0
  5
171EE
 10
67.9016
 20
254.676
 30
0.000000
  70
    32
  0
VERTEX
  8
0
  5
171EF
 10
67.9082
 20
254.684
 30
0.000000
  70
    32
  0
VERTEX
  8
0
  5
171F0
 10
67.9146
 20
254.691
 30
0.000000
  70
    32
  0
VERTEX
  8
0
  5
171F1
 10
67.9210
 20
254.698
 30
0.000000
  70
    32
  0
VERTEX
  8
0
  5
171F2
 10
67.9272
 20
254.706
 30
0.000000
  70
    32
  0
VERTEX
  8
0
  5
171F3
 10
67.9334
 20
254.713
 30
0.000000
  70
    32
  0
VERTEX
  8
0
  5
171F4
 10
67.9395
 20
254.720
 30
0.000000
  70
    32
  0
VERTEX
  8
0
  5
171F5
 10
67.9455
 20
254.728
 30
0.000000
  70
    32
  0
VERTEX
  8
0
  5
171F6
 10
67.9514
 20
254.735
 30
0.000000
  70
    32
  0
VERTEX
  8
0
  5
171F7
 10
67.9572
 20
254.743
 30
0.000000
  70
    32
  0
VERTEX
  8
0
  5
171F8
 10
67.9629
 20
254.750
 30
0.000000
  70
    32
  0
VERTEX
  8
0
  5
171F9
 10
67.9686
 20
254.757
 30
0.000000
  70
    32
  0
VERTEX
  8
0
  5
171FA
 10
67.9741
 20
254.765
 30
0.000000
  70
    32
  0
VERTEX
  8
0
  5
171FB
 10
67.9796
 20
254.772
 30
0.000000
  70
    32
  0
VERTEX
  8
0
  5
171FC
 10
67.9850
 20
254.779
 30
0.000000
  70
    32
  0
VERTEX
  8
0
  5
171FD
 10
67.9903
 20
254.787
 30
0.000000
  70
    32
  0
VERTEX
  8
0
  5
171FE
 10
67.9955
 20
254.794
 30
0.000000
  70
    32
  0
VERTEX
  8
0
  5
171FF
 10
68.0006
 20
254.802
 30
0.000000
  70
    32
  0
VERTEX
  8
0
  5
17200
 10
68.0056
 20
254.809
 30
0.000000
  70
    32
  0
VERTEX
  8
0
  5
17201
 10
68.0105
 20
254.816
 30
0.000000
  70
    32
  0
VERTEX
  8
0
  5
17202
 10
68.0153
 20
254.824
 30
0.000000
  70
    32
  0
VERTEX
  8
0
  5
17203
 10
68.0201
 20
254.831
 30
0.000000
  70
    32
  0
VERTEX
  8
0
  5
17204
 10
68.0247
 20
254.839
 30
0.000000
  70
    32
  0
VERTEX
  8
0
  5
17205
 10
68.0293
 20
254.846
 30
0.000000
  70
    32
  0
VERTEX
  8
0
  5
17206
 10
68.0338
 20
254.854
 30
0.000000
  70
    32
  0
VERTEX
  8
0
  5
17207
 10
68.0382
 20
254.861
 30
0.000000
  70
    32
  0
VERTEX
  8
0
  5
17208
 10
68.0425
 20
254.868
 30
0.000000
  70
    32
  0
VERTEX
  8
0
  5
17209
 10
68.0467
 20
254.876
 30
0.000000
  70
    32
  0
VERTEX
  8
0
  5
1720A
 10
68.0508
 20
254.883
 30
0.000000
  70
    32
  0
VERTEX
  8
0
  5
1720B
 10
68.0548
 20
254.891
 30
0.000000
  70
    32
  0
VERTEX
  8
0
  5
1720C
 10
68.0588
 20
254.898
 30
0.000000
  70
    32
  0
VERTEX
  8
0
  5
1720D
 10
68.0626
 20
254.906
 30
0.000000
  70
    32
  0
VERTEX
  8
0
  5
1720E
 10
68.0664
 20
254.913
 30
0.000000
  70
    32
  0
VERTEX
  8
0
  5
1720F
 10
68.0700
 20
254.921
 30
0.000000
  70
    32
  0
VERTEX
  8
0
  5
17210
 10
68.0736
 20
254.928
 30
0.000000
  70
    32
  0
VERTEX
  8
0
  5
17211
 10
68.0771
 20
254.936
 30
0.000000
  70
    32
  0
VERTEX
  8
0
  5
17212
 10
68.0805
 20
254.943
 30
0.000000
  70
    32
  0
VERTEX
  8
0
  5
17213
 10
68.0838
 20
254.950
 30
0.000000
  70
    32
  0
VERTEX
  8
0
  5
17214
 10
68.0870
 20
254.958
 30
0.000000
  70
    32
  0
VERTEX
  8
0
  5
17215
 10
68.0902
 20
254.965
 30
0.000000
  70
    32
  0
VERTEX
  8
0
  5
17216
 10
68.0932
 20
254.973
 30
0.000000
  70
    32
  0
VERTEX
  8
0
  5
17217
 10
68.0961
 20
254.980
 30
0.000000
  70
    32
  0
VERTEX
  8
0
  5
17218
 10
68.0990
 20
254.988
 30
0.000000
  70
    32
  0
VERTEX
  8
0
  5
17219
 10
68.1018
 20
254.995
 30
0.000000
  70
    32
  0
VERTEX
  8
0
  5
1721A
 10
68.1044
 20
255.003
 30
0.000000
  70
    32
  0
VERTEX
  8
0
  5
1721B
 10
68.1070
 20
255.010
 30
0.000000
  70
    32
  0
VERTEX
  8
0
  5
1721C
 10
68.1095
 20
255.018
 30
0.000000
  70
    32
  0
VERTEX
  8
0
  5
1721D
 10
68.1119
 20
255.025
 30
0.000000
  70
    32
  0
VERTEX
  8
0
  5
1721E
 10
68.1142
 20
255.033
 30
0.000000
  70
    32
  0
VERTEX
  8
0
  5
1721F
 10
68.1164
 20
255.040
 30
0.000000
  70
    32
  0
VERTEX
  8
0
  5
17220
 10
68.1186
 20
255.048
 30
0.000000
  70
    32
  0
VERTEX
  8
0
  5
17221
 10
68.1206
 20
255.055
 30
0.000000
  70
    32
  0
VERTEX
  8
0
  5
17222
 10
68.1226
 20
255.063
 30
0.000000
  70
    32
  0
VERTEX
  8
0
  5
17223
 10
68.1244
 20
255.070
 30
0.000000
  70
    32
  0
VERTEX
  8
0
  5
17224
 10
68.1262
 20
255.078
 30
0.000000
  70
    32
  0
VERTEX
  8
0
  5
17225
 10
68.1279
 20
255.085
 30
0.000000
  70
    32
  0
VERTEX
  8
0
  5
17226
 10
68.1295
 20
255.093
 30
0.000000
  70
    32
  0
VERTEX
  8
0
  5
17227
 10
68.1310
 20
255.100
 30
0.000000
  70
    32
  0
VERTEX
  8
0
  5
17228
 10
68.1324
 20
255.108
 30
0.000000
  70
    32
  0
VERTEX
  8
0
  5
17229
 10
68.1337
 20
255.115
 30
0.000000
  70
    32
  0
VERTEX
  8
0
  5
1722A
 10
68.1349
 20
255.123
 30
0.000000
  70
    32
  0
VERTEX
  8
0
  5
1722B
 10
68.1360
 20
255.130
 30
0.000000
  70
    32
  0
VERTEX
  8
0
  5
1722C
 10
68.1371
 20
255.138
 30
0.000000
  70
    32
  0
VERTEX
  8
0
  5
1722D
 10
68.1380
 20
255.145
 30
0.000000
  70
    32
  0
SEQEND
  8
0
  5
1722E
  0
POLYLINE
  5
1682F
  8
0
 10
70.847644136948588
 20
254.24615689684506
 30
0.0
 66
     1
 70
     8
  0
VERTEX
  8
0
  5
1722F
 10
70.8476
 20
254.246
 30
0.000000
  70
    32
  0
VERTEX
  8
0
  5
17230
 10
70.8589
 20
254.253
 30
0.000000
  70
    32
  0
VERTEX
  8
0
  5
17231
 10
70.8702
 20
254.259
 30
0.000000
  70
    32
  0
VERTEX
  8
0
  5
17232
 10
70.8813
 20
254.266
 30
0.000000
  70
    32
  0
VERTEX
  8
0
  5
17233
 10
70.8924
 20
254.273
 30
0.000000
  70
    32
  0
VERTEX
  8
0
  5
17234
 10
70.9033
 20
254.280
 30
0.000000
  70
    32
  0
VERTEX
  8
0
  5
17235
 10
70.9143
 20
254.286
 30
0.000000
  70
    32
  0
VERTEX
  8
0
  5
17236
 10
70.9251
 20
254.293
 30
0.000000
  70
    32
  0
VERTEX
  8
0
  5
17237
 10
70.9358
 20
254.300
 30
0.000000
  70
    32
  0
VERTEX
  8
0
  5
17238
 10
70.9465
 20
254.306
 30
0.000000
  70
    32
  0
VERTEX
  8
0
  5
17239
 10
70.9571
 20
254.313
 30
0.000000
  70
    32
  0
VERTEX
  8
0
  5
1723A
 10
70.9676
 20
254.320
 30
0.000000
  70
    32
  0
VERTEX
  8
0
  5
1723B
 10
70.9781
 20
254.327
 30
0.000000
  70
    32
  0
VERTEX
  8
0
  5
1723C
 10
70.9884
 20
254.333
 30
0.000000
  70
    32
  0
VERTEX
  8
0
  5
1723D
 10
70.9987
 20
254.340
 30
0.000000
  70
    32
  0
VERTEX
  8
0
  5
1723E
 10
71.0089
 20
254.347
 30
0.000000
  70
    32
  0
VERTEX
  8
0
  5
1723F
 10
71.0190
 20
254.354
 30
0.000000
  70
    32
  0
VERTEX
  8
0
  5
17240
 10
71.0291
 20
254.360
 30
0.000000
  70
    32
  0
VERTEX
  8
0
  5
17241
 10
71.0390
 20
254.367
 30
0.000000
  70
    32
  0
VERTEX
  8
0
  5
17242
 10
71.0489
 20
254.374
 30
0.000000
  70
    32
  0
VERTEX
  8
0
  5
17243
 10
71.0587
 20
254.381
 30
0.000000
  70
    32
  0
VERTEX
  8
0
  5
17244
 10
71.0684
 20
254.388
 30
0.000000
  70
    32
  0
VERTEX
  8
0
  5
17245
 10
71.0781
 20
254.395
 30
0.000000
  70
    32
  0
VERTEX
  8
0
  5
17246
 10
71.0877
 20
254.401
 30
0.000000
  70
    32
  0
VERTEX
  8
0
  5
17247
 10
71.0971
 20
254.408
 30
0.000000
  70
    32
  0
VERTEX
  8
0
  5
17248
 10
71.1066
 20
254.415
 30
0.000000
  70
    32
  0
VERTEX
  8
0
  5
17249
 10
71.1159
 20
254.422
 30
0.000000
  70
    32
  0
VERTEX
  8
0
  5
1724A
 10
71.1251
 20
254.429
 30
0.000000
  70
    32
  0
VERTEX
  8
0
  5
1724B
 10
71.1343
 20
254.436
 30
0.000000
  70
    32
  0
VERTEX
  8
0
  5
1724C
 10
71.1434
 20
254.442
 30
0.000000
  70
    32
  0
VERTEX
  8
0
  5
1724D
 10
71.1524
 20
254.449
 30
0.000000
  70
    32
  0
VERTEX
  8
0
  5
1724E
 10
71.1613
 20
254.456
 30
0.000000
  70
    32
  0
VERTEX
  8
0
  5
1724F
 10
71.1702
 20
254.463
 30
0.000000
  70
    32
  0
VERTEX
  8
0
  5
17250
 10
71.1790
 20
254.470
 30
0.000000
  70
    32
  0
VERTEX
  8
0
  5
17251
 10
71.1876
 20
254.477
 30
0.000000
  70
    32
  0
VERTEX
  8
0
  5
17252
 10
71.1963
 20
254.484
 30
0.000000
  70
    32
  0
VERTEX
  8
0
  5
17253
 10
71.2048
 20
254.491
 30
0.000000
  70
    32
  0
VERTEX
  8
0
  5
17254
 10
71.2132
 20
254.498
 30
0.000000
  70
    32
  0
VERTEX
  8
0
  5
17255
 10
71.2216
 20
254.505
 30
0.000000
  70
    32
  0
VERTEX
  8
0
  5
17256
 10
71.2299
 20
254.511
 30
0.000000
  70
    32
  0
VERTEX
  8
0
  5
17257
 10
71.2381
 20
254.518
 30
0.000000
  70
    32
  0
VERTEX
  8
0
  5
17258
 10
71.2462
 20
254.525
 30
0.000000
  70
    32
  0
VERTEX
  8
0
  5
17259
 10
71.2543
 20
254.532
 30
0.000000
  70
    32
  0
VERTEX
  8
0
  5
1725A
 10
71.2622
 20
254.539
 30
0.000000
  70
    32
  0
VERTEX
  8
0
  5
1725B
 10
71.2701
 20
254.546
 30
0.000000
  70
    32
  0
VERTEX
  8
0
  5
1725C
 10
71.2779
 20
254.553
 30
0.000000
  70
    32
  0
VERTEX
  8
0
  5
1725D
 10
71.2856
 20
254.560
 30
0.000000
  70
    32
  0
VERTEX
  8
0
  5
1725E
 10
71.2933
 20
254.567
 30
0.000000
  70
    32
  0
VERTEX
  8
0
  5
1725F
 10
71.3008
 20
254.574
 30
0.000000
  70
    32
  0
VERTEX
  8
0
  5
17260
 10
71.3083
 20
254.581
 30
0.000000
  70
    32
  0
VERTEX
  8
0
  5
17261
 10
71.3157
 20
254.588
 30
0.000000
  70
    32
  0
VERTEX
  8
0
  5
17262
 10
71.3230
 20
254.595
 30
0.000000
  70
    32
  0
VERTEX
  8
0
  5
17263
 10
71.3303
 20
254.602
 30
0.000000
  70
    32
  0
VERTEX
  8
0
  5
17264
 10
71.3374
 20
254.609
 30
0.000000
  70
    32
  0
VERTEX
  8
0
  5
17265
 10
71.3445
 20
254.616
 30
0.000000
  70
    32
  0
VERTEX
  8
0
  5
17266
 10
71.3515
 20
254.623
 30
0.000000
  70
    32
  0
VERTEX
  8
0
  5
17267
 10
71.3584
 20
254.630
 30
0.000000
  70
    32
  0
VERTEX
  8
0
  5
17268
 10
71.3652
 20
254.637
 30
0.000000
  70
    32
  0
VERTEX
  8
0
  5
17269
 10
71.3720
 20
254.644
 30
0.000000
  70
    32
  0
VERTEX
  8
0
  5
1726A
 10
71.3786
 20
254.651
 30
0.000000
  70
    32
  0
VERTEX
  8
0
  5
1726B
 10
71.3852
 20
254.658
 30
0.000000
  70
    32
  0
VERTEX
  8
0
  5
1726C
 10
71.3917
 20
254.665
 30
0.000000
  70
    32
  0
VERTEX
  8
0
  5
1726D
 10
71.3981
 20
254.672
 30
0.000000
  70
    32
  0
VERTEX
  8
0
  5
1726E
 10
71.4044
 20
254.679
 30
0.000000
  70
    32
  0
VERTEX
  8
0
  5
1726F
 10
71.4107
 20
254.687
 30
0.000000
  70
    32
  0
VERTEX
  8
0
  5
17270
 10
71.4169
 20
254.694
 30
0.000000
  70
    32
  0
VERTEX
  8
0
  5
17271
 10
71.4230
 20
254.701
 30
0.000000
  70
    32
  0
VERTEX
  8
0
  5
17272
 10
71.4290
 20
254.708
 30
0.000000
  70
    32
  0
VERTEX
  8
0
  5
17273
 10
71.4349
 20
254.715
 30
0.000000
  70
    32
  0
VERTEX
  8
0
  5
17274
 10
71.4407
 20
254.722
 30
0.000000
  70
    32
  0
VERTEX
  8
0
  5
17275
 10
71.4465
 20
254.729
 30
0.000000
  70
    32
  0
VERTEX
  8
0
  5
17276
 10
71.4522
 20
254.736
 30
0.000000
  70
    32
  0
VERTEX
  8
0
  5
17277
 10
71.4577
 20
254.743
 30
0.000000
  70
    32
  0
VERTEX
  8
0
  5
17278
 10
71.4633
 20
254.750
 30
0.000000
  70
    32
  0
VERTEX
  8
0
  5
17279
 10
71.4687
 20
254.757
 30
0.000000
  70
    32
  0
VERTEX
  8
0
  5
1727A
 10
71.4740
 20
254.765
 30
0.000000
  70
    32
  0
VERTEX
  8
0
  5
1727B
 10
71.4793
 20
254.772
 30
0.000000
  70
    32
  0
VERTEX
  8
0
  5
1727C
 10
71.4845
 20
254.779
 30
0.000000
  70
    32
  0
VERTEX
  8
0
  5
1727D
 10
71.4896
 20
254.786
 30
0.000000
  70
    32
  0
VERTEX
  8
0
  5
1727E
 10
71.4946
 20
254.793
 30
0.000000
  70
    32
  0
VERTEX
  8
0
  5
1727F
 10
71.4995
 20
254.800
 30
0.000000
  70
    32
  0
VERTEX
  8
0
  5
17280
 10
71.5044
 20
254.807
 30
0.000000
  70
    32
  0
VERTEX
  8
0
  5
17281
 10
71.5091
 20
254.814
 30
0.000000
  70
    32
  0
VERTEX
  8
0
  5
17282
 10
71.5138
 20
254.822
 30
0.000000
  70
    32
  0
VERTEX
  8
0
  5
17283
 10
71.5184
 20
254.829
 30
0.000000
  70
    32
  0
VERTEX
  8
0
  5
17284
 10
71.5229
 20
254.836
 30
0.000000
  70
    32
  0
VERTEX
  8
0
  5
17285
 10
71.5274
 20
254.843
 30
0.000000
  70
    32
  0
VERTEX
  8
0
  5
17286
 10
71.5317
 20
254.850
 30
0.000000
  70
    32
  0
VERTEX
  8
0
  5
17287
 10
71.5360
 20
254.857
 30
0.000000
  70
    32
  0
VERTEX
  8
0
  5
17288
 10
71.5401
 20
254.864
 30
0.000000
  70
    32
  0
VERTEX
  8
0
  5
17289
 10
71.5442
 20
254.872
 30
0.000000
  70
    32
  0
VERTEX
  8
0
  5
1728A
 10
71.5483
 20
254.879
 30
0.000000
  70
    32
  0
VERTEX
  8
0
  5
1728B
 10
71.5522
 20
254.886
 30
0.000000
  70
    32
  0
VERTEX
  8
0
  5
1728C
 10
71.5560
 20
254.893
 30
0.000000
  70
    32
  0
VERTEX
  8
0
  5
1728D
 10
71.5598
 20
254.900
 30
0.000000
  70
    32
  0
VERTEX
  8
0
  5
1728E
 10
71.5635
 20
254.907
 30
0.000000
  70
    32
  0
VERTEX
  8
0
  5
1728F
 10
71.5671
 20
254.915
 30
0.000000
  70
    32
  0
VERTEX
  8
0
  5
17290
 10
71.5706
 20
254.922
 30
0.000000
  70
    32
  0
VERTEX
  8
0
  5
17291
 10
71.5740
 20
254.929
 30
0.000000
  70
    32
  0
VERTEX
  8
0
  5
17292
 10
71.5774
 20
254.936
 30
0.000000
  70
    32
  0
VERTEX
  8
0
  5
17293
 10
71.5807
 20
254.943
 30
0.000000
  70
    32
  0
VERTEX
  8
0
  5
17294
 10
71.5838
 20
254.951
 30
0.000000
  70
    32
  0
VERTEX
  8
0
  5
17295
 10
71.5869
 20
254.958
 30
0.000000
  70
    32
  0
VERTEX
  8
0
  5
17296
 10
71.5899
 20
254.965
 30
0.000000
  70
    32
  0
VERTEX
  8
0
  5
17297
 10
71.5929
 20
254.972
 30
0.000000
  70
    32
  0
VERTEX
  8
0
  5
17298
 10
71.5957
 20
254.979
 30
0.000000
  70
    32
  0
VERTEX
  8
0
  5
17299
 10
71.5985
 20
254.986
 30
0.000000
  70
    32
  0
VERTEX
  8
0
  5
1729A
 10
71.6012
 20
254.994
 30
0.000000
  70
    32
  0
VERTEX
  8
0
  5
1729B
 10
71.6038
 20
255.001
 30
0.000000
  70
    32
  0
VERTEX
  8
0
  5
1729C
 10
71.6063
 20
255.008
 30
0.000000
  70
    32
  0
VERTEX
  8
0
  5
1729D
 10
71.6087
 20
255.015
 30
0.000000
  70
    32
  0
VERTEX
  8
0
  5
1729E
 10
71.6110
 20
255.023
 30
0.000000
  70
    32
  0
VERTEX
  8
0
  5
1729F
 10
71.6133
 20
255.030
 30
0.000000
  70
    32
  0
VERTEX
  8
0
  5
172A0
 10
71.6155
 20
255.037
 30
0.000000
  70
    32
  0
VERTEX
  8
0
  5
172A1
 10
71.6176
 20
255.044
 30
0.000000
  70
    32
  0
VERTEX
  8
0
  5
172A2
 10
71.6196
 20
255.051
 30
0.000000
  70
    32
  0
VERTEX
  8
0
  5
172A3
 10
71.6215
 20
255.059
 30
0.000000
  70
    32
  0
VERTEX
  8
0
  5
172A4
 10
71.6233
 20
255.066
 30
0.000000
  70
    32
  0
VERTEX
  8
0
  5
172A5
 10
71.6251
 20
255.073
 30
0.000000
  70
    32
  0
VERTEX
  8
0
  5
172A6
 10
71.6268
 20
255.080
 30
0.000000
  70
    32
  0
VERTEX
  8
0
  5
172A7
 10
71.6284
 20
255.087
 30
0.000000
  70
    32
  0
VERTEX
  8
0
  5
172A8
 10
71.6299
 20
255.095
 30
0.000000
  70
    32
  0
VERTEX
  8
0
  5
172A9
 10
71.6313
 20
255.102
 30
0.000000
  70
    32
  0
VERTEX
  8
0
  5
172AA
 10
71.6326
 20
255.109
 30
0.000000
  70
    32
  0
VERTEX
  8
0
  5
172AB
 10
71.6339
 20
255.116
 30
0.000000
  70
    32
  0
VERTEX
  8
0
  5
172AC
 10
71.6350
 20
255.124
 30
0.000000
  70
    32
  0
VERTEX
  8
0
  5
172AD
 10
71.6361
 20
255.131
 30
0.000000
  70
    32
  0
VERTEX
  8
0
  5
172AE
 10
71.6371
 20
255.138
 30
0.000000
  70
    32
  0
VERTEX
  8
0
  5
172AF
 10
71.6380
 20
255.145
 30
0.000000
  70
    32
  0
SEQEND
  8
0
  5
172B0
  0
LINE
  5
16830
  8
0
 10
62.709285972074547
 20
249.46579046516069
 30
0.0
 11
70.847644136948404
 21
254.24615689684501
 31
0.0
  0
POLYLINE
  5
16831
  8
0
 10
62.709285972074618
 20
249.46579046516072
 30
0.0
 66
     1
 70
     8
  0
VERTEX
  8
0
  5
172B1
 10
62.7093
 20
249.466
 30
0.000000
  70
    32
  0
VERTEX
  8
0
  5
172B2
 10
62.7014
 20
249.461
 30
0.000000
  70
    32
  0
VERTEX
  8
0
  5
172B3
 10
62.6935
 20
249.456
 30
0.000000
  70
    32
  0
VERTEX
  8
0
  5
172B4
 10
62.6857
 20
249.452
 30
0.000000
  70
    32
  0
VERTEX
  8
0
  5
172B5
 10
62.6779
 20
249.447
 30
0.000000
  70
    32
  0
VERTEX
  8
0
  5
172B6
 10
62.6702
 20
249.442
 30
0.000000
  70
    32
  0
VERTEX
  8
0
  5
172B7
 10
62.6626
 20
249.438
 30
0.000000
  70
    32
  0
VERTEX
  8
0
  5
172B8
 10
62.6550
 20
249.433
 30
0.000000
  70
    32
  0
VERTEX
  8
0
  5
172B9
 10
62.6475
 20
249.428
 30
0.000000
  70
    32
  0
VERTEX
  8
0
  5
172BA
 10
62.6400
 20
249.423
 30
0.000000
  70
    32
  0
VERTEX
  8
0
  5
172BB
 10
62.6326
 20
249.419
 30
0.000000
  70
    32
  0
VERTEX
  8
0
  5
172BC
 10
62.6252
 20
249.414
 30
0.000000
  70
    32
  0
VERTEX
  8
0
  5
172BD
 10
62.6180
 20
249.409
 30
0.000000
  70
    32
  0
VERTEX
  8
0
  5
172BE
 10
62.6107
 20
249.404
 30
0.000000
  70
    32
  0
VERTEX
  8
0
  5
172BF
 10
62.6036
 20
249.400
 30
0.000000
  70
    32
  0
VERTEX
  8
0
  5
172C0
 10
62.5965
 20
249.395
 30
0.000000
  70
    32
  0
VERTEX
  8
0
  5
172C1
 10
62.5894
 20
249.390
 30
0.000000
  70
    32
  0
VERTEX
  8
0
  5
172C2
 10
62.5824
 20
249.385
 30
0.000000
  70
    32
  0
VERTEX
  8
0
  5
172C3
 10
62.5755
 20
249.381
 30
0.000000
  70
    32
  0
VERTEX
  8
0
  5
172C4
 10
62.5687
 20
249.376
 30
0.000000
  70
    32
  0
VERTEX
  8
0
  5
172C5
 10
62.5619
 20
249.371
 30
0.000000
  70
    32
  0
VERTEX
  8
0
  5
172C6
 10
62.5551
 20
249.366
 30
0.000000
  70
    32
  0
VERTEX
  8
0
  5
172C7
 10
62.5484
 20
249.361
 30
0.000000
  70
    32
  0
VERTEX
  8
0
  5
172C8
 10
62.5418
 20
249.357
 30
0.000000
  70
    32
  0
VERTEX
  8
0
  5
172C9
 10
62.5352
 20
249.352
 30
0.000000
  70
    32
  0
VERTEX
  8
0
  5
172CA
 10
62.5287
 20
249.347
 30
0.000000
  70
    32
  0
VERTEX
  8
0
  5
172CB
 10
62.5223
 20
249.342
 30
0.000000
  70
    32
  0
VERTEX
  8
0
  5
172CC
 10
62.5159
 20
249.337
 30
0.000000
  70
    32
  0
VERTEX
  8
0
  5
172CD
 10
62.5096
 20
249.333
 30
0.000000
  70
    32
  0
VERTEX
  8
0
  5
172CE
 10
62.5034
 20
249.328
 30
0.000000
  70
    32
  0
VERTEX
  8
0
  5
172CF
 10
62.4972
 20
249.323
 30
0.000000
  70
    32
  0
VERTEX
  8
0
  5
172D0
 10
62.4910
 20
249.318
 30
0.000000
  70
    32
  0
VERTEX
  8
0
  5
172D1
 10
62.4849
 20
249.313
 30
0.000000
  70
    32
  0
VERTEX
  8
0
  5
172D2
 10
62.4789
 20
249.308
 30
0.000000
  70
    32
  0
VERTEX
  8
0
  5
172D3
 10
62.4730
 20
249.303
 30
0.000000
  70
    32
  0
VERTEX
  8
0
  5
172D4
 10
62.4671
 20
249.299
 30
0.000000
  70
    32
  0
VERTEX
  8
0
  5
172D5
 10
62.4613
 20
249.294
 30
0.000000
  70
    32
  0
VERTEX
  8
0
  5
172D6
 10
62.4555
 20
249.289
 30
0.000000
  70
    32
  0
VERTEX
  8
0
  5
172D7
 10
62.4498
 20
249.284
 30
0.000000
  70
    32
  0
VERTEX
  8
0
  5
172D8
 10
62.4441
 20
249.279
 30
0.000000
  70
    32
  0
VERTEX
  8
0
  5
172D9
 10
62.4385
 20
249.274
 30
0.000000
  70
    32
  0
VERTEX
  8
0
  5
172DA
 10
62.4330
 20
249.269
 30
0.000000
  70
    32
  0
VERTEX
  8
0
  5
172DB
 10
62.4276
 20
249.264
 30
0.000000
  70
    32
  0
VERTEX
  8
0
  5
172DC
 10
62.4222
 20
249.259
 30
0.000000
  70
    32
  0
VERTEX
  8
0
  5
172DD
 10
62.4168
 20
249.255
 30
0.000000
  70
    32
  0
VERTEX
  8
0
  5
172DE
 10
62.4115
 20
249.250
 30
0.000000
  70
    32
  0
VERTEX
  8
0
  5
172DF
 10
62.4063
 20
249.245
 30
0.000000
  70
    32
  0
VERTEX
  8
0
  5
172E0
 10
62.4012
 20
249.240
 30
0.000000
  70
    32
  0
VERTEX
  8
0
  5
172E1
 10
62.3961
 20
249.235
 30
0.000000
  70
    32
  0
VERTEX
  8
0
  5
172E2
 10
62.3910
 20
249.230
 30
0.000000
  70
    32
  0
VERTEX
  8
0
  5
172E3
 10
62.3861
 20
249.225
 30
0.000000
  70
    32
  0
VERTEX
  8
0
  5
172E4
 10
62.3812
 20
249.220
 30
0.000000
  70
    32
  0
VERTEX
  8
0
  5
172E5
 10
62.3763
 20
249.215
 30
0.000000
  70
    32
  0
VERTEX
  8
0
  5
172E6
 10
62.3716
 20
249.210
 30
0.000000
  70
    32
  0
VERTEX
  8
0
  5
172E7
 10
62.3668
 20
249.205
 30
0.000000
  70
    32
  0
VERTEX
  8
0
  5
172E8
 10
62.3622
 20
249.200
 30
0.000000
  70
    32
  0
VERTEX
  8
0
  5
172E9
 10
62.3576
 20
249.195
 30
0.000000
  70
    32
  0
VERTEX
  8
0
  5
172EA
 10
62.3530
 20
249.190
 30
0.000000
  70
    32
  0
VERTEX
  8
0
  5
172EB
 10
62.3486
 20
249.185
 30
0.000000
  70
    32
  0
VERTEX
  8
0
  5
172EC
 10
62.3442
 20
249.181
 30
0.000000
  70
    32
  0
VERTEX
  8
0
  5
172ED
 10
62.3398
 20
249.176
 30
0.000000
  70
    32
  0
VERTEX
  8
0
  5
172EE
 10
62.3355
 20
249.171
 30
0.000000
  70
    32
  0
VERTEX
  8
0
  5
172EF
 10
62.3313
 20
249.166
 30
0.000000
  70
    32
  0
VERTEX
  8
0
  5
172F0
 10
62.3272
 20
249.161
 30
0.000000
  70
    32
  0
VERTEX
  8
0
  5
172F1
 10
62.3231
 20
249.156
 30
0.000000
  70
    32
  0
VERTEX
  8
0
  5
172F2
 10
62.3190
 20
249.151
 30
0.000000
  70
    32
  0
VERTEX
  8
0
  5
172F3
 10
62.3151
 20
249.146
 30
0.000000
  70
    32
  0
VERTEX
  8
0
  5
172F4
 10
62.3112
 20
249.141
 30
0.000000
  70
    32
  0
VERTEX
  8
0
  5
172F5
 10
62.3073
 20
249.136
 30
0.000000
  70
    32
  0
VERTEX
  8
0
  5
172F6
 10
62.3035
 20
249.131
 30
0.000000
  70
    32
  0
VERTEX
  8
0
  5
172F7
 10
62.2998
 20
249.126
 30
0.000000
  70
    32
  0
VERTEX
  8
0
  5
172F8
 10
62.2962
 20
249.121
 30
0.000000
  70
    32
  0
VERTEX
  8
0
  5
172F9
 10
62.2926
 20
249.116
 30
0.000000
  70
    32
  0
VERTEX
  8
0
  5
172FA
 10
62.2890
 20
249.111
 30
0.000000
  70
    32
  0
VERTEX
  8
0
  5
172FB
 10
62.2856
 20
249.106
 30
0.000000
  70
    32
  0
VERTEX
  8
0
  5
172FC
 10
62.2822
 20
249.101
 30
0.000000
  70
    32
  0
VERTEX
  8
0
  5
172FD
 10
62.2788
 20
249.096
 30
0.000000
  70
    32
  0
VERTEX
  8
0
  5
172FE
 10
62.2755
 20
249.091
 30
0.000000
  70
    32
  0
VERTEX
  8
0
  5
172FF
 10
62.2723
 20
249.086
 30
0.000000
  70
    32
  0
VERTEX
  8
0
  5
17300
 10
62.2692
 20
249.081
 30
0.000000
  70
    32
  0
VERTEX
  8
0
  5
17301
 10
62.2661
 20
249.076
 30
0.000000
  70
    32
  0
VERTEX
  8
0
  5
17302
 10
62.2631
 20
249.071
 30
0.000000
  70
    32
  0
VERTEX
  8
0
  5
17303
 10
62.2601
 20
249.066
 30
0.000000
  70
    32
  0
VERTEX
  8
0
  5
17304
 10
62.2572
 20
249.061
 30
0.000000
  70
    32
  0
VERTEX
  8
0
  5
17305
 10
62.2544
 20
249.055
 30
0.000000
  70
    32
  0
VERTEX
  8
0
  5
17306
 10
62.2516
 20
249.050
 30
0.000000
  70
    32
  0
VERTEX
  8
0
  5
17307
 10
62.2489
 20
249.045
 30
0.000000
  70
    32
  0
VERTEX
  8
0
  5
17308
 10
62.2462
 20
249.040
 30
0.000000
  70
    32
  0
VERTEX
  8
0
  5
17309
 10
62.2437
 20
249.035
 30
0.000000
  70
    32
  0
VERTEX
  8
0
  5
1730A
 10
62.2411
 20
249.030
 30
0.000000
  70
    32
  0
VERTEX
  8
0
  5
1730B
 10
62.2387
 20
249.025
 30
0.000000
  70
    32
  0
VERTEX
  8
0
  5
1730C
 10
62.2363
 20
249.020
 30
0.000000
  70
    32
  0
VERTEX
  8
0
  5
1730D
 10
62.2340
 20
249.015
 30
0.000000
  70
    32
  0
VERTEX
  8
0
  5
1730E
 10
62.2317
 20
249.010
 30
0.000000
  70
    32
  0
VERTEX
  8
0
  5
1730F
 10
62.2295
 20
249.005
 30
0.000000
  70
    32
  0
VERTEX
  8
0
  5
17310
 10
62.2274
 20
249.000
 30
0.000000
  70
    32
  0
VERTEX
  8
0
  5
17311
 10
62.2253
 20
248.995
 30
0.000000
  70
    32
  0
VERTEX
  8
0
  5
17312
 10
62.2233
 20
248.990
 30
0.000000
  70
    32
  0
VERTEX
  8
0
  5
17313
 10
62.2213
 20
248.985
 30
0.000000
  70
    32
  0
VERTEX
  8
0
  5
17314
 10
62.2194
 20
248.980
 30
0.000000
  70
    32
  0
VERTEX
  8
0
  5
17315
 10
62.2176
 20
248.975
 30
0.000000
  70
    32
  0
VERTEX
  8
0
  5
17316
 10
62.2159
 20
248.970
 30
0.000000
  70
    32
  0
VERTEX
  8
0
  5
17317
 10
62.2142
 20
248.965
 30
0.000000
  70
    32
  0
VERTEX
  8
0
  5
17318
 10
62.2125
 20
248.959
 30
0.000000
  70
    32
  0
VERTEX
  8
0
  5
17319
 10
62.2110
 20
248.954
 30
0.000000
  70
    32
  0
VERTEX
  8
0
  5
1731A
 10
62.2095
 20
248.949
 30
0.000000
  70
    32
  0
VERTEX
  8
0
  5
1731B
 10
62.2080
 20
248.944
 30
0.000000
  70
    32
  0
VERTEX
  8
0
  5
1731C
 10
62.2067
 20
248.939
 30
0.000000
  70
    32
  0
VERTEX
  8
0
  5
1731D
 10
62.2054
 20
248.934
 30
0.000000
  70
    32
  0
VERTEX
  8
0
  5
1731E
 10
62.2041
 20
248.929
 30
0.000000
  70
    32
  0
VERTEX
  8
0
  5
1731F
 10
62.2029
 20
248.924
 30
0.000000
  70
    32
  0
VERTEX
  8
0
  5
17320
 10
62.2018
 20
248.919
 30
0.000000
  70
    32
  0
VERTEX
  8
0
  5
17321
 10
62.2008
 20
248.914
 30
0.000000
  70
    32
  0
VERTEX
  8
0
  5
17322
 10
62.1998
 20
248.909
 30
0.000000
  70
    32
  0
VERTEX
  8
0
  5
17323
 10
62.1988
 20
248.904
 30
0.000000
  70
    32
  0
VERTEX
  8
0
  5
17324
 10
62.1980
 20
248.899
 30
0.000000
  70
    32
  0
VERTEX
  8
0
  5
17325
 10
62.1972
 20
248.894
 30
0.000000
  70
    32
  0
VERTEX
  8
0
  5
17326
 10
62.1964
 20
248.888
 30
0.000000
  70
    32
  0
VERTEX
  8
0
  5
17327
 10
62.1958
 20
248.883
 30
0.000000
  70
    32
  0
VERTEX
  8
0
  5
17328
 10
62.1952
 20
248.878
 30
0.000000
  70
    32
  0
VERTEX
  8
0
  5
17329
 10
62.1946
 20
248.873
 30
0.000000
  70
    32
  0
VERTEX
  8
0
  5
1732A
 10
62.1941
 20
248.868
 30
0.000000
  70
    32
  0
VERTEX
  8
0
  5
1732B
 10
62.1937
 20
248.863
 30
0.000000
  70
    32
  0
VERTEX
  8
0
  5
1732C
 10
62.1934
 20
248.858
 30
0.000000
  70
    32
  0
VERTEX
  8
0
  5
1732D
 10
62.1931
 20
248.853
 30
0.000000
  70
    32
  0
VERTEX
  8
0
  5
1732E
 10
62.1929
 20
248.848
 30
0.000000
  70
    32
  0
VERTEX
  8
0
  5
1732F
 10
62.1927
 20
248.843
 30
0.000000
  70
    32
  0
VERTEX
  8
0
  5
17330
 10
62.1926
 20
248.838
 30
0.000000
  70
    32
  0
VERTEX
  8
0
  5
17331
 10
62.1926
 20
248.833
 30
0.000000
  70
    32
  0
SEQEND
  8
0
  5
17332
  0
POLYLINE
  5
16834
  8
0
 10
71.747114539094341
 20
255.14526089580556
 30
0.0
 66
     1
 70
     8
  0
VERTEX
  8
0
  5
17333
 10
71.7471
 20
255.145
 30
0.000000
  70
    32
  0
VERTEX
  8
0
  5
17334
 10
71.7480
 20
255.138
 30
0.000000
  70
    32
  0
VERTEX
  8
0
  5
17335
 10
71.7490
 20
255.131
 30
0.000000
  70
    32
  0
VERTEX
  8
0
  5
17336
 10
71.7501
 20
255.124
 30
0.000000
  70
    32
  0
VERTEX
  8
0
  5
17337
 10
71.7513
 20
255.116
 30
0.000000
  70
    32
  0
VERTEX
  8
0
  5
17338
 10
71.7525
 20
255.109
 30
0.000000
  70
    32
  0
VERTEX
  8
0
  5
17339
 10
71.7539
 20
255.102
 30
0.000000
  70
    32
  0
VERTEX
  8
0
  5
1733A
 10
71.7553
 20
255.095
 30
0.000000
  70
    32
  0
VERTEX
  8
0
  5
1733B
 10
71.7568
 20
255.087
 30
0.000000
  70
    32
  0
VERTEX
  8
0
  5
1733C
 10
71.7584
 20
255.080
 30
0.000000
  70
    32
  0
VERTEX
  8
0
  5
1733D
 10
71.7601
 20
255.073
 30
0.000000
  70
    32
  0
VERTEX
  8
0
  5
1733E
 10
71.7618
 20
255.066
 30
0.000000
  70
    32
  0
VERTEX
  8
0
  5
1733F
 10
71.7637
 20
255.059
 30
0.000000
  70
    32
  0
VERTEX
  8
0
  5
17340
 10
71.7656
 20
255.051
 30
0.000000
  70
    32
  0
VERTEX
  8
0
  5
17341
 10
71.7676
 20
255.044
 30
0.000000
  70
    32
  0
VERTEX
  8
0
  5
17342
 10
71.7697
 20
255.037
 30
0.000000
  70
    32
  0
VERTEX
  8
0
  5
17343
 10
71.7719
 20
255.030
 30
0.000000
  70
    32
  0
VERTEX
  8
0
  5
17344
 10
71.7741
 20
255.023
 30
0.000000
  70
    32
  0
VERTEX
  8
0
  5
17345
 10
71.7765
 20
255.015
 30
0.000000
  70
    32
  0
VERTEX
  8
0
  5
17346
 10
71.7789
 20
255.008
 30
0.000000
  70
    32
  0
VERTEX
  8
0
  5
17347
 10
71.7814
 20
255.001
 30
0.000000
  70
    32
  0
VERTEX
  8
0
  5
17348
 10
71.7840
 20
254.994
 30
0.000000
  70
    32
  0
VERTEX
  8
0
  5
17349
 10
71.7867
 20
254.986
 30
0.000000
  70
    32
  0
VERTEX
  8
0
  5
1734A
 10
71.7894
 20
254.979
 30
0.000000
  70
    32
  0
VERTEX
  8
0
  5
1734B
 10
71.7923
 20
254.972
 30
0.000000
  70
    32
  0
VERTEX
  8
0
  5
1734C
 10
71.7952
 20
254.965
 30
0.000000
  70
    32
  0
VERTEX
  8
0
  5
1734D
 10
71.7982
 20
254.958
 30
0.000000
  70
    32
  0
VERTEX
  8
0
  5
1734E
 10
71.8013
 20
254.951
 30
0.000000
  70
    32
  0
VERTEX
  8
0
  5
1734F
 10
71.8045
 20
254.943
 30
0.000000
  70
    32
  0
VERTEX
  8
0
  5
17350
 10
71.8078
 20
254.936
 30
0.000000
  70
    32
  0
VERTEX
  8
0
  5
17351
 10
71.8111
 20
254.929
 30
0.000000
  70
    32
  0
VERTEX
  8
0
  5
17352
 10
71.8145
 20
254.922
 30
0.000000
  70
    32
  0
VERTEX
  8
0
  5
17353
 10
71.8181
 20
254.915
 30
0.000000
  70
    32
  0
VERTEX
  8
0
  5
17354
 10
71.8217
 20
254.907
 30
0.000000
  70
    32
  0
VERTEX
  8
0
  5
17355
 10
71.8253
 20
254.900
 30
0.000000
  70
    32
  0
VERTEX
  8
0
  5
17356
 10
71.8291
 20
254.893
 30
0.000000
  70
    32
  0
VERTEX
  8
0
  5
17357
 10
71.8330
 20
254.886
 30
0.000000
  70
    32
  0
VERTEX
  8
0
  5
17358
 10
71.8369
 20
254.879
 30
0.000000
  70
    32
  0
VERTEX
  8
0
  5
17359
 10
71.8409
 20
254.872
 30
0.000000
  70
    32
  0
VERTEX
  8
0
  5
1735A
 10
71.8450
 20
254.864
 30
0.000000
  70
    32
  0
VERTEX
  8
0
  5
1735B
 10
71.8492
 20
254.857
 30
0.000000
  70
    32
  0
VERTEX
  8
0
  5
1735C
 10
71.8535
 20
254.850
 30
0.000000
  70
    32
  0
VERTEX
  8
0
  5
1735D
 10
71.8578
 20
254.843
 30
0.000000
  70
    32
  0
VERTEX
  8
0
  5
1735E
 10
71.8622
 20
254.836
 30
0.000000
  70
    32
  0
VERTEX
  8
0
  5
1735F
 10
71.8668
 20
254.829
 30
0.000000
  70
    32
  0
VERTEX
  8
0
  5
17360
 10
71.8714
 20
254.822
 30
0.000000
  70
    32
  0
VERTEX
  8
0
  5
17361
 10
71.8760
 20
254.814
 30
0.000000
  70
    32
  0
VERTEX
  8
0
  5
17362
 10
71.8808
 20
254.807
 30
0.000000
  70
    32
  0
VERTEX
  8
0
  5
17363
 10
71.8856
 20
254.800
 30
0.000000
  70
    32
  0
VERTEX
  8
0
  5
17364
 10
71.8906
 20
254.793
 30
0.000000
  70
    32
  0
VERTEX
  8
0
  5
17365
 10
71.8956
 20
254.786
 30
0.000000
  70
    32
  0
VERTEX
  8
0
  5
17366
 10
71.9007
 20
254.779
 30
0.000000
  70
    32
  0
VERTEX
  8
0
  5
17367
 10
71.9059
 20
254.772
 30
0.000000
  70
    32
  0
VERTEX
  8
0
  5
17368
 10
71.9111
 20
254.765
 30
0.000000
  70
    32
  0
VERTEX
  8
0
  5
17369
 10
71.9165
 20
254.757
 30
0.000000
  70
    32
  0
VERTEX
  8
0
  5
1736A
 10
71.9219
 20
254.750
 30
0.000000
  70
    32
  0
VERTEX
  8
0
  5
1736B
 10
71.9274
 20
254.743
 30
0.000000
  70
    32
  0
VERTEX
  8
0
  5
1736C
 10
71.9330
 20
254.736
 30
0.000000
  70
    32
  0
VERTEX
  8
0
  5
1736D
 10
71.9387
 20
254.729
 30
0.000000
  70
    32
  0
VERTEX
  8
0
  5
1736E
 10
71.9444
 20
254.722
 30
0.000000
  70
    32
  0
VERTEX
  8
0
  5
1736F
 10
71.9503
 20
254.715
 30
0.000000
  70
    32
  0
VERTEX
  8
0
  5
17370
 10
71.9562
 20
254.708
 30
0.000000
  70
    32
  0
VERTEX
  8
0
  5
17371
 10
71.9622
 20
254.701
 30
0.000000
  70
    32
  0
VERTEX
  8
0
  5
17372
 10
71.9683
 20
254.694
 30
0.000000
  70
    32
  0
VERTEX
  8
0
  5
17373
 10
71.9745
 20
254.687
 30
0.000000
  70
    32
  0
VERTEX
  8
0
  5
17374
 10
71.9807
 20
254.679
 30
0.000000
  70
    32
  0
VERTEX
  8
0
  5
17375
 10
71.9870
 20
254.672
 30
0.000000
  70
    32
  0
VERTEX
  8
0
  5
17376
 10
71.9935
 20
254.665
 30
0.000000
  70
    32
  0
VERTEX
  8
0
  5
17377
 10
72.0000
 20
254.658
 30
0.000000
  70
    32
  0
VERTEX
  8
0
  5
17378
 10
72.0065
 20
254.651
 30
0.000000
  70
    32
  0
VERTEX
  8
0
  5
17379
 10
72.0132
 20
254.644
 30
0.000000
  70
    32
  0
VERTEX
  8
0
  5
1737A
 10
72.0199
 20
254.637
 30
0.000000
  70
    32
  0
VERTEX
  8
0
  5
1737B
 10
72.0268
 20
254.630
 30
0.000000
  70
    32
  0
VERTEX
  8
0
  5
1737C
 10
72.0337
 20
254.623
 30
0.000000
  70
    32
  0
VERTEX
  8
0
  5
1737D
 10
72.0407
 20
254.616
 30
0.000000
  70
    32
  0
VERTEX
  8
0
  5
1737E
 10
72.0477
 20
254.609
 30
0.000000
  70
    32
  0
VERTEX
  8
0
  5
1737F
 10
72.0549
 20
254.602
 30
0.000000
  70
    32
  0
VERTEX
  8
0
  5
17380
 10
72.0621
 20
254.595
 30
0.000000
  70
    32
  0
VERTEX
  8
0
  5
17381
 10
72.0694
 20
254.588
 30
0.000000
  70
    32
  0
VERTEX
  8
0
  5
17382
 10
72.0768
 20
254.581
 30
0.000000
  70
    32
  0
VERTEX
  8
0
  5
17383
 10
72.0843
 20
254.574
 30
0.000000
  70
    32
  0
VERTEX
  8
0
  5
17384
 10
72.0919
 20
254.567
 30
0.000000
  70
    32
  0
VERTEX
  8
0
  5
17385
 10
72.0995
 20
254.560
 30
0.000000
  70
    32
  0
VERTEX
  8
0
  5
17386
 10
72.1072
 20
254.553
 30
0.000000
  70
    32
  0
VERTEX
  8
0
  5
17387
 10
72.1150
 20
254.546
 30
0.000000
  70
    32
  0
VERTEX
  8
0
  5
17388
 10
72.1229
 20
254.539
 30
0.000000
  70
    32
  0
VERTEX
  8
0
  5
17389
 10
72.1309
 20
254.532
 30
0.000000
  70
    32
  0
VERTEX
  8
0
  5
1738A
 10
72.1389
 20
254.525
 30
0.000000
  70
    32
  0
VERTEX
  8
0
  5
1738B
 10
72.1471
 20
254.518
 30
0.000000
  70
    32
  0
VERTEX
  8
0
  5
1738C
 10
72.1553
 20
254.511
 30
0.000000
  70
    32
  0
VERTEX
  8
0
  5
1738D
 10
72.1636
 20
254.505
 30
0.000000
  70
    32
  0
VERTEX
  8
0
  5
1738E
 10
72.1719
 20
254.498
 30
0.000000
  70
    32
  0
VERTEX
  8
0
  5
1738F
 10
72.1804
 20
254.491
 30
0.000000
  70
    32
  0
VERTEX
  8
0
  5
17390
 10
72.1889
 20
254.484
 30
0.000000
  70
    32
  0
VERTEX
  8
0
  5
17391
 10
72.1975
 20
254.477
 30
0.000000
  70
    32
  0
VERTEX
  8
0
  5
17392
 10
72.2062
 20
254.470
 30
0.000000
  70
    32
  0
VERTEX
  8
0
  5
17393
 10
72.2150
 20
254.463
 30
0.000000
  70
    32
  0
VERTEX
  8
0
  5
17394
 10
72.2238
 20
254.456
 30
0.000000
  70
    32
  0
VERTEX
  8
0
  5
17395
 10
72.2328
 20
254.449
 30
0.000000
  70
    32
  0
VERTEX
  8
0
  5
17396
 10
72.2418
 20
254.442
 30
0.000000
  70
    32
  0
VERTEX
  8
0
  5
17397
 10
72.2509
 20
254.436
 30
0.000000
  70
    32
  0
VERTEX
  8
0
  5
17398
 10
72.2600
 20
254.429
 30
0.000000
  70
    32
  0
VERTEX
  8
0
  5
17399
 10
72.2693
 20
254.422
 30
0.000000
  70
    32
  0
VERTEX
  8
0
  5
1739A
 10
72.2786
 20
254.415
 30
0.000000
  70
    32
  0
VERTEX
  8
0
  5
1739B
 10
72.2880
 20
254.408
 30
0.000000
  70
    32
  0
VERTEX
  8
0
  5
1739C
 10
72.2975
 20
254.401
 30
0.000000
  70
    32
  0
VERTEX
  8
0
  5
1739D
 10
72.3071
 20
254.395
 30
0.000000
  70
    32
  0
VERTEX
  8
0
  5
1739E
 10
72.3167
 20
254.388
 30
0.000000
  70
    32
  0
VERTEX
  8
0
  5
1739F
 10
72.3264
 20
254.381
 30
0.000000
  70
    32
  0
VERTEX
  8
0
  5
173A0
 10
72.3363
 20
254.374
 30
0.000000
  70
    32
  0
VERTEX
  8
0
  5
173A1
 10
72.3461
 20
254.367
 30
0.000000
  70
    32
  0
VERTEX
  8
0
  5
173A2
 10
72.3561
 20
254.360
 30
0.000000
  70
    32
  0
VERTEX
  8
0
  5
173A3
 10
72.3661
 20
254.354
 30
0.000000
  70
    32
  0
VERTEX
  8
0
  5
173A4
 10
72.3763
 20
254.347
 30
0.000000
  70
    32
  0
VERTEX
  8
0
  5
173A5
 10
72.3865
 20
254.340
 30
0.000000
  70
    32
  0
VERTEX
  8
0
  5
173A6
 10
72.3967
 20
254.333
 30
0.000000
  70
    32
  0
VERTEX
  8
0
  5
173A7
 10
72.4071
 20
254.327
 30
0.000000
  70
    32
  0
VERTEX
  8
0
  5
173A8
 10
72.4175
 20
254.320
 30
0.000000
  70
    32
  0
VERTEX
  8
0
  5
173A9
 10
72.4281
 20
254.313
 30
0.000000
  70
    32
  0
VERTEX
  8
0
  5
173AA
 10
72.4387
 20
254.306
 30
0.000000
  70
    32
  0
VERTEX
  8
0
  5
173AB
 10
72.4493
 20
254.300
 30
0.000000
  70
    32
  0
VERTEX
  8
0
  5
173AC
 10
72.4601
 20
254.293
 30
0.000000
  70
    32
  0
VERTEX
  8
0
  5
173AD
 10
72.4709
 20
254.286
 30
0.000000
  70
    32
  0
VERTEX
  8
0
  5
173AE
 10
72.4818
 20
254.280
 30
0.000000
  70
    32
  0
VERTEX
  8
0
  5
173AF
 10
72.4928
 20
254.273
 30
0.000000
  70
    32
  0
VERTEX
  8
0
  5
173B0
 10
72.5039
 20
254.266
 30
0.000000
  70
    32
  0
VERTEX
  8
0
  5
173B1
 10
72.5150
 20
254.259
 30
0.000000
  70
    32
  0
VERTEX
  8
0
  5
173B2
 10
72.5262
 20
254.253
 30
0.000000
  70
    32
  0
VERTEX
  8
0
  5
173B3
 10
72.5375
 20
254.246
 30
0.000000
  70
    32
  0
SEQEND
  8
0
  5
173B4
  0
POLYLINE
  5
16836
  8
0
 10
75.247114539094341
 20
255.14526089580556
 30
0.0
 66
     1
 70
     8
  0
VERTEX
  8
0
  5
173B5
 10
75.2471
 20
255.145
 30
0.000000
  70
    32
  0
VERTEX
  8
0
  5
173B6
 10
75.2481
 20
255.138
 30
0.000000
  70
    32
  0
VERTEX
  8
0
  5
173B7
 10
75.2491
 20
255.130
 30
0.000000
  70
    32
  0
VERTEX
  8
0
  5
173B8
 10
75.2502
 20
255.123
 30
0.000000
  70
    32
  0
VERTEX
  8
0
  5
173B9
 10
75.2515
 20
255.115
 30
0.000000
  70
    32
  0
VERTEX
  8
0
  5
173BA
 10
75.2528
 20
255.108
 30
0.000000
  70
    32
  0
VERTEX
  8
0
  5
173BB
 10
75.2542
 20
255.100
 30
0.000000
  70
    32
  0
VERTEX
  8
0
  5
173BC
 10
75.2557
 20
255.093
 30
0.000000
  70
    32
  0
VERTEX
  8
0
  5
173BD
 10
75.2573
 20
255.085
 30
0.000000
  70
    32
  0
VERTEX
  8
0
  5
173BE
 10
75.2590
 20
255.078
 30
0.000000
  70
    32
  0
VERTEX
  8
0
  5
173BF
 10
75.2607
 20
255.070
 30
0.000000
  70
    32
  0
VERTEX
  8
0
  5
173C0
 10
75.2626
 20
255.063
 30
0.000000
  70
    32
  0
VERTEX
  8
0
  5
173C1
 10
75.2645
 20
255.055
 30
0.000000
  70
    32
  0
VERTEX
  8
0
  5
173C2
 10
75.2666
 20
255.048
 30
0.000000
  70
    32
  0
VERTEX
  8
0
  5
173C3
 10
75.2687
 20
255.040
 30
0.000000
  70
    32
  0
VERTEX
  8
0
  5
173C4
 10
75.2709
 20
255.033
 30
0.000000
  70
    32
  0
VERTEX
  8
0
  5
173C5
 10
75.2732
 20
255.025
 30
0.000000
  70
    32
  0
VERTEX
  8
0
  5
173C6
 10
75.2756
 20
255.018
 30
0.000000
  70
    32
  0
VERTEX
  8
0
  5
173C7
 10
75.2781
 20
255.010
 30
0.000000
  70
    32
  0
VERTEX
  8
0
  5
173C8
 10
75.2807
 20
255.003
 30
0.000000
  70
    32
  0
VERTEX
  8
0
  5
173C9
 10
75.2834
 20
254.995
 30
0.000000
  70
    32
  0
VERTEX
  8
0
  5
173CA
 10
75.2862
 20
254.988
 30
0.000000
  70
    32
  0
VERTEX
  8
0
  5
173CB
 10
75.2890
 20
254.980
 30
0.000000
  70
    32
  0
VERTEX
  8
0
  5
173CC
 10
75.2920
 20
254.973
 30
0.000000
  70
    32
  0
VERTEX
  8
0
  5
173CD
 10
75.2950
 20
254.965
 30
0.000000
  70
    32
  0
VERTEX
  8
0
  5
173CE
 10
75.2981
 20
254.958
 30
0.000000
  70
    32
  0
VERTEX
  8
0
  5
173CF
 10
75.3013
 20
254.950
 30
0.000000
  70
    32
  0
VERTEX
  8
0
  5
173D0
 10
75.3047
 20
254.943
 30
0.000000
  70
    32
  0
VERTEX
  8
0
  5
173D1
 10
75.3081
 20
254.936
 30
0.000000
  70
    32
  0
VERTEX
  8
0
  5
173D2
 10
75.3115
 20
254.928
 30
0.000000
  70
    32
  0
VERTEX
  8
0
  5
173D3
 10
75.3151
 20
254.921
 30
0.000000
  70
    32
  0
VERTEX
  8
0
  5
173D4
 10
75.3188
 20
254.913
 30
0.000000
  70
    32
  0
VERTEX
  8
0
  5
173D5
 10
75.3225
 20
254.906
 30
0.000000
  70
    32
  0
VERTEX
  8
0
  5
173D6
 10
75.3264
 20
254.898
 30
0.000000
  70
    32
  0
VERTEX
  8
0
  5
173D7
 10
75.3303
 20
254.891
 30
0.000000
  70
    32
  0
VERTEX
  8
0
  5
173D8
 10
75.3344
 20
254.883
 30
0.000000
  70
    32
  0
VERTEX
  8
0
  5
173D9
 10
75.3385
 20
254.876
 30
0.000000
  70
    32
  0
VERTEX
  8
0
  5
173DA
 10
75.3427
 20
254.868
 30
0.000000
  70
    32
  0
VERTEX
  8
0
  5
173DB
 10
75.3470
 20
254.861
 30
0.000000
  70
    32
  0
VERTEX
  8
0
  5
173DC
 10
75.3514
 20
254.854
 30
0.000000
  70
    32
  0
VERTEX
  8
0
  5
173DD
 10
75.3558
 20
254.846
 30
0.000000
  70
    32
  0
VERTEX
  8
0
  5
173DE
 10
75.3604
 20
254.839
 30
0.000000
  70
    32
  0
VERTEX
  8
0
  5
173DF
 10
75.3651
 20
254.831
 30
0.000000
  70
    32
  0
VERTEX
  8
0
  5
173E0
 10
75.3698
 20
254.824
 30
0.000000
  70
    32
  0
VERTEX
  8
0
  5
173E1
 10
75.3747
 20
254.816
 30
0.000000
  70
    32
  0
VERTEX
  8
0
  5
173E2
 10
75.3796
 20
254.809
 30
0.000000
  70
    32
  0
VERTEX
  8
0
  5
173E3
 10
75.3846
 20
254.802
 30
0.000000
  70
    32
  0
VERTEX
  8
0
  5
173E4
 10
75.3897
 20
254.794
 30
0.000000
  70
    32
  0
VERTEX
  8
0
  5
173E5
 10
75.3949
 20
254.787
 30
0.000000
  70
    32
  0
VERTEX
  8
0
  5
173E6
 10
75.4002
 20
254.779
 30
0.000000
  70
    32
  0
VERTEX
  8
0
  5
173E7
 10
75.4056
 20
254.772
 30
0.000000
  70
    32
  0
VERTEX
  8
0
  5
173E8
 10
75.4110
 20
254.765
 30
0.000000
  70
    32
  0
VERTEX
  8
0
  5
173E9
 10
75.4166
 20
254.757
 30
0.000000
  70
    32
  0
VERTEX
  8
0
  5
173EA
 10
75.4222
 20
254.750
 30
0.000000
  70
    32
  0
VERTEX
  8
0
  5
173EB
 10
75.4279
 20
254.743
 30
0.000000
  70
    32
  0
VERTEX
  8
0
  5
173EC
 10
75.4338
 20
254.735
 30
0.000000
  70
    32
  0
VERTEX
  8
0
  5
173ED
 10
75.4397
 20
254.728
 30
0.000000
  70
    32
  0
VERTEX
  8
0
  5
173EE
 10
75.4457
 20
254.720
 30
0.000000
  70
    32
  0
VERTEX
  8
0
  5
173EF
 10
75.4517
 20
254.713
 30
0.000000
  70
    32
  0
VERTEX
  8
0
  5
173F0
 10
75.4579
 20
254.706
 30
0.000000
  70
    32
  0
VERTEX
  8
0
  5
173F1
 10
75.4642
 20
254.698
 30
0.000000
  70
    32
  0
VERTEX
  8
0
  5
173F2
 10
75.4705
 20
254.691
 30
0.000000
  70
    32
  0
VERTEX
  8
0
  5
173F3
 10
75.4770
 20
254.684
 30
0.000000
  70
    32
  0
VERTEX
  8
0
  5
173F4
 10
75.4835
 20
254.676
 30
0.000000
  70
    32
  0
VERTEX
  8
0
  5
173F5
 10
75.4901
 20
254.669
 30
0.000000
  70
    32
  0
VERTEX
  8
0
  5
173F6
 10
75.4968
 20
254.662
 30
0.000000
  70
    32
  0
VERTEX
  8
0
  5
173F7
 10
75.5036
 20
254.654
 30
0.000000
  70
    32
  0
VERTEX
  8
0
  5
173F8
 10
75.5105
 20
254.647
 30
0.000000
  70
    32
  0
VERTEX
  8
0
  5
173F9
 10
75.5175
 20
254.640
 30
0.000000
  70
    32
  0
VERTEX
  8
0
  5
173FA
 10
75.5246
 20
254.632
 30
0.000000
  70
    32
  0
VERTEX
  8
0
  5
173FB
 10
75.5317
 20
254.625
 30
0.000000
  70
    32
  0
VERTEX
  8
0
  5
173FC
 10
75.5389
 20
254.618
 30
0.000000
  70
    32
  0
VERTEX
  8
0
  5
173FD
 10
75.5463
 20
254.611
 30
0.000000
  70
    32
  0
VERTEX
  8
0
  5
173FE
 10
75.5537
 20
254.603
 30
0.000000
  70
    32
  0
VERTEX
  8
0
  5
173FF
 10
75.5612
 20
254.596
 30
0.000000
  70
    32
  0
VERTEX
  8
0
  5
17400
 10
75.5688
 20
254.589
 30
0.000000
  70
    32
  0
VERTEX
  8
0
  5
17401
 10
75.5765
 20
254.581
 30
0.000000
  70
    32
  0
VERTEX
  8
0
  5
17402
 10
75.5842
 20
254.574
 30
0.000000
  70
    32
  0
VERTEX
  8
0
  5
17403
 10
75.5921
 20
254.567
 30
0.000000
  70
    32
  0
VERTEX
  8
0
  5
17404
 10
75.6000
 20
254.560
 30
0.000000
  70
    32
  0
VERTEX
  8
0
  5
17405
 10
75.6080
 20
254.552
 30
0.000000
  70
    32
  0
VERTEX
  8
0
  5
17406
 10
75.6162
 20
254.545
 30
0.000000
  70
    32
  0
VERTEX
  8
0
  5
17407
 10
75.6244
 20
254.538
 30
0.000000
  70
    32
  0
VERTEX
  8
0
  5
17408
 10
75.6326
 20
254.531
 30
0.000000
  70
    32
  0
VERTEX
  8
0
  5
17409
 10
75.6410
 20
254.524
 30
0.000000
  70
    32
  0
VERTEX
  8
0
  5
1740A
 10
75.6495
 20
254.516
 30
0.000000
  70
    32
  0
VERTEX
  8
0
  5
1740B
 10
75.6580
 20
254.509
 30
0.000000
  70
    32
  0
VERTEX
  8
0
  5
1740C
 10
75.6667
 20
254.502
 30
0.000000
  70
    32
  0
VERTEX
  8
0
  5
1740D
 10
75.6754
 20
254.495
 30
0.000000
  70
    32
  0
VERTEX
  8
0
  5
1740E
 10
75.6842
 20
254.488
 30
0.000000
  70
    32
  0
VERTEX
  8
0
  5
1740F
 10
75.6931
 20
254.480
 30
0.000000
  70
    32
  0
VERTEX
  8
0
  5
17410
 10
75.7021
 20
254.473
 30
0.000000
  70
    32
  0
VERTEX
  8
0
  5
17411
 10
75.7112
 20
254.466
 30
0.000000
  70
    32
  0
VERTEX
  8
0
  5
17412
 10
75.7203
 20
254.459
 30
0.000000
  70
    32
  0
VERTEX
  8
0
  5
17413
 10
75.7296
 20
254.452
 30
0.000000
  70
    32
  0
VERTEX
  8
0
  5
17414
 10
75.7389
 20
254.445
 30
0.000000
  70
    32
  0
VERTEX
  8
0
  5
17415
 10
75.7483
 20
254.437
 30
0.000000
  70
    32
  0
VERTEX
  8
0
  5
17416
 10
75.7578
 20
254.430
 30
0.000000
  70
    32
  0
VERTEX
  8
0
  5
17417
 10
75.7674
 20
254.423
 30
0.000000
  70
    32
  0
VERTEX
  8
0
  5
17418
 10
75.7771
 20
254.416
 30
0.000000
  70
    32
  0
VERTEX
  8
0
  5
17419
 10
75.7869
 20
254.409
 30
0.000000
  70
    32
  0
VERTEX
  8
0
  5
1741A
 10
75.7967
 20
254.402
 30
0.000000
  70
    32
  0
VERTEX
  8
0
  5
1741B
 10
75.8067
 20
254.395
 30
0.000000
  70
    32
  0
VERTEX
  8
0
  5
1741C
 10
75.8167
 20
254.388
 30
0.000000
  70
    32
  0
VERTEX
  8
0
  5
1741D
 10
75.8268
 20
254.381
 30
0.000000
  70
    32
  0
VERTEX
  8
0
  5
1741E
 10
75.8370
 20
254.374
 30
0.000000
  70
    32
  0
VERTEX
  8
0
  5
1741F
 10
75.8472
 20
254.367
 30
0.000000
  70
    32
  0
VERTEX
  8
0
  5
17420
 10
75.8576
 20
254.359
 30
0.000000
  70
    32
  0
VERTEX
  8
0
  5
17421
 10
75.8681
 20
254.352
 30
0.000000
  70
    32
  0
VERTEX
  8
0
  5
17422
 10
75.8786
 20
254.345
 30
0.000000
  70
    32
  0
VERTEX
  8
0
  5
17423
 10
75.8892
 20
254.338
 30
0.000000
  70
    32
  0
VERTEX
  8
0
  5
17424
 10
75.8999
 20
254.331
 30
0.000000
  70
    32
  0
VERTEX
  8
0
  5
17425
 10
75.9107
 20
254.324
 30
0.000000
  70
    32
  0
VERTEX
  8
0
  5
17426
 10
75.9216
 20
254.317
 30
0.000000
  70
    32
  0
VERTEX
  8
0
  5
17427
 10
75.9325
 20
254.310
 30
0.000000
  70
    32
  0
VERTEX
  8
0
  5
17428
 10
75.9436
 20
254.303
 30
0.000000
  70
    32
  0
VERTEX
  8
0
  5
17429
 10
75.9547
 20
254.296
 30
0.000000
  70
    32
  0
VERTEX
  8
0
  5
1742A
 10
75.9659
 20
254.289
 30
0.000000
  70
    32
  0
VERTEX
  8
0
  5
1742B
 10
75.9772
 20
254.282
 30
0.000000
  70
    32
  0
VERTEX
  8
0
  5
1742C
 10
75.9886
 20
254.275
 30
0.000000
  70
    32
  0
VERTEX
  8
0
  5
1742D
 10
76.0000
 20
254.268
 30
0.000000
  70
    32
  0
VERTEX
  8
0
  5
1742E
 10
76.0116
 20
254.262
 30
0.000000
  70
    32
  0
VERTEX
  8
0
  5
1742F
 10
76.0232
 20
254.255
 30
0.000000
  70
    32
  0
VERTEX
  8
0
  5
17430
 10
76.0349
 20
254.248
 30
0.000000
  70
    32
  0
VERTEX
  8
0
  5
17431
 10
76.0467
 20
254.241
 30
0.000000
  70
    32
  0
VERTEX
  8
0
  5
17432
 10
76.0586
 20
254.234
 30
0.000000
  70
    32
  0
VERTEX
  8
0
  5
17433
 10
76.0706
 20
254.227
 30
0.000000
  70
    32
  0
VERTEX
  8
0
  5
17434
 10
76.0826
 20
254.220
 30
0.000000
  70
    32
  0
VERTEX
  8
0
  5
17435
 10
76.0947
 20
254.213
 30
0.000000
  70
    32
  0
SEQEND
  8
0
  5
17436
  0
LINE
  5
16837
  8
0
 10
83.840418568313396
 20
249.83970949138001
 30
0.0
 11
76.09473859664547
 21
254.2132051132958
 31
0.0
  0
POLYLINE
  5
16838
  8
0
 10
84.69257858247947
 20
248.83256558591674
 30
0.0
 66
     1
 70
     8
  0
VERTEX
  8
0
  5
17437
 10
84.6926
 20
248.833
 30
0.000000
  70
    32
  0
VERTEX
  8
0
  5
17438
 10
84.6925
 20
248.841
 30
0.000000
  70
    32
  0
VERTEX
  8
0
  5
17439
 10
84.6924
 20
248.849
 30
0.000000
  70
    32
  0
VERTEX
  8
0
  5
1743A
 10
84.6921
 20
248.857
 30
0.000000
  70
    32
  0
VERTEX
  8
0
  5
1743B
 10
84.6917
 20
248.865
 30
0.000000
  70
    32
  0
VERTEX
  8
0
  5
1743C
 10
84.6913
 20
248.873
 30
0.000000
  70
    32
  0
VERTEX
  8
0
  5
1743D
 10
84.6907
 20
248.881
 30
0.000000
  70
    32
  0
VERTEX
  8
0
  5
1743E
 10
84.6900
 20
248.889
 30
0.000000
  70
    32
  0
VERTEX
  8
0
  5
1743F
 10
84.6892
 20
248.897
 30
0.000000
  70
    32
  0
VERTEX
  8
0
  5
17440
 10
84.6883
 20
248.905
 30
0.000000
  70
    32
  0
VERTEX
  8
0
  5
17441
 10
84.6873
 20
248.914
 30
0.000000
  70
    32
  0
VERTEX
  8
0
  5
17442
 10
84.6862
 20
248.922
 30
0.000000
  70
    32
  0
VERTEX
  8
0
  5
17443
 10
84.6850
 20
248.930
 30
0.000000
  70
    32
  0
VERTEX
  8
0
  5
17444
 10
84.6837
 20
248.938
 30
0.000000
  70
    32
  0
VERTEX
  8
0
  5
17445
 10
84.6822
 20
248.946
 30
0.000000
  70
    32
  0
VERTEX
  8
0
  5
17446
 10
84.6807
 20
248.954
 30
0.000000
  70
    32
  0
VERTEX
  8
0
  5
17447
 10
84.6791
 20
248.962
 30
0.000000
  70
    32
  0
VERTEX
  8
0
  5
17448
 10
84.6773
 20
248.970
 30
0.000000
  70
    32
  0
VERTEX
  8
0
  5
17449
 10
84.6755
 20
248.978
 30
0.000000
  70
    32
  0
VERTEX
  8
0
  5
1744A
 10
84.6735
 20
248.986
 30
0.000000
  70
    32
  0
VERTEX
  8
0
  5
1744B
 10
84.6715
 20
248.994
 30
0.000000
  70
    32
  0
VERTEX
  8
0
  5
1744C
 10
84.6693
 20
249.003
 30
0.000000
  70
    32
  0
VERTEX
  8
0
  5
1744D
 10
84.6670
 20
249.011
 30
0.000000
  70
    32
  0
VERTEX
  8
0
  5
1744E
 10
84.6647
 20
249.019
 30
0.000000
  70
    32
  0
VERTEX
  8
0
  5
1744F
 10
84.6622
 20
249.027
 30
0.000000
  70
    32
  0
VERTEX
  8
0
  5
17450
 10
84.6596
 20
249.035
 30
0.000000
  70
    32
  0
VERTEX
  8
0
  5
17451
 10
84.6569
 20
249.043
 30
0.000000
  70
    32
  0
VERTEX
  8
0
  5
17452
 10
84.6541
 20
249.051
 30
0.000000
  70
    32
  0
VERTEX
  8
0
  5
17453
 10
84.6512
 20
249.059
 30
0.000000
  70
    32
  0
VERTEX
  8
0
  5
17454
 10
84.6482
 20
249.067
 30
0.000000
  70
    32
  0
VERTEX
  8
0
  5
17455
 10
84.6451
 20
249.075
 30
0.000000
  70
    32
  0
VERTEX
  8
0
  5
17456
 10
84.6419
 20
249.083
 30
0.000000
  70
    32
  0
VERTEX
  8
0
  5
17457
 10
84.6386
 20
249.091
 30
0.000000
  70
    32
  0
VERTEX
  8
0
  5
17458
 10
84.6352
 20
249.099
 30
0.000000
  70
    32
  0
VERTEX
  8
0
  5
17459
 10
84.6316
 20
249.107
 30
0.000000
  70
    32
  0
VERTEX
  8
0
  5
1745A
 10
84.6280
 20
249.115
 30
0.000000
  70
    32
  0
VERTEX
  8
0
  5
1745B
 10
84.6243
 20
249.123
 30
0.000000
  70
    32
  0
VERTEX
  8
0
  5
1745C
 10
84.6204
 20
249.132
 30
0.000000
  70
    32
  0
VERTEX
  8
0
  5
1745D
 10
84.6165
 20
249.140
 30
0.000000
  70
    32
  0
VERTEX
  8
0
  5
1745E
 10
84.6124
 20
249.148
 30
0.000000
  70
    32
  0
VERTEX
  8
0
  5
1745F
 10
84.6083
 20
249.156
 30
0.000000
  70
    32
  0
VERTEX
  8
0
  5
17460
 10
84.6040
 20
249.164
 30
0.000000
  70
    32
  0
VERTEX
  8
0
  5
17461
 10
84.5996
 20
249.172
 30
0.000000
  70
    32
  0
VERTEX
  8
0
  5
17462
 10
84.5952
 20
249.180
 30
0.000000
  70
    32
  0
VERTEX
  8
0
  5
17463
 10
84.5906
 20
249.188
 30
0.000000
  70
    32
  0
VERTEX
  8
0
  5
17464
 10
84.5859
 20
249.196
 30
0.000000
  70
    32
  0
VERTEX
  8
0
  5
17465
 10
84.5811
 20
249.204
 30
0.000000
  70
    32
  0
VERTEX
  8
0
  5
17466
 10
84.5762
 20
249.212
 30
0.000000
  70
    32
  0
VERTEX
  8
0
  5
17467
 10
84.5712
 20
249.220
 30
0.000000
  70
    32
  0
VERTEX
  8
0
  5
17468
 10
84.5662
 20
249.228
 30
0.000000
  70
    32
  0
VERTEX
  8
0
  5
17469
 10
84.5609
 20
249.236
 30
0.000000
  70
    32
  0
VERTEX
  8
0
  5
1746A
 10
84.5556
 20
249.244
 30
0.000000
  70
    32
  0
VERTEX
  8
0
  5
1746B
 10
84.5502
 20
249.252
 30
0.000000
  70
    32
  0
VERTEX
  8
0
  5
1746C
 10
84.5447
 20
249.260
 30
0.000000
  70
    32
  0
VERTEX
  8
0
  5
1746D
 10
84.5391
 20
249.268
 30
0.000000
  70
    32
  0
VERTEX
  8
0
  5
1746E
 10
84.5334
 20
249.276
 30
0.000000
  70
    32
  0
VERTEX
  8
0
  5
1746F
 10
84.5276
 20
249.284
 30
0.000000
  70
    32
  0
VERTEX
  8
0
  5
17470
 10
84.5216
 20
249.292
 30
0.000000
  70
    32
  0
VERTEX
  8
0
  5
17471
 10
84.5156
 20
249.300
 30
0.000000
  70
    32
  0
VERTEX
  8
0
  5
17472
 10
84.5095
 20
249.308
 30
0.000000
  70
    32
  0
VERTEX
  8
0
  5
17473
 10
84.5032
 20
249.315
 30
0.000000
  70
    32
  0
VERTEX
  8
0
  5
17474
 10
84.4969
 20
249.323
 30
0.000000
  70
    32
  0
VERTEX
  8
0
  5
17475
 10
84.4904
 20
249.331
 30
0.000000
  70
    32
  0
VERTEX
  8
0
  5
17476
 10
84.4839
 20
249.339
 30
0.000000
  70
    32
  0
VERTEX
  8
0
  5
17477
 10
84.4772
 20
249.347
 30
0.000000
  70
    32
  0
VERTEX
  8
0
  5
17478
 10
84.4705
 20
249.355
 30
0.000000
  70
    32
  0
VERTEX
  8
0
  5
17479
 10
84.4636
 20
249.363
 30
0.000000
  70
    32
  0
VERTEX
  8
0
  5
1747A
 10
84.4566
 20
249.371
 30
0.000000
  70
    32
  0
VERTEX
  8
0
  5
1747B
 10
84.4496
 20
249.379
 30
0.000000
  70
    32
  0
VERTEX
  8
0
  5
1747C
 10
84.4424
 20
249.387
 30
0.000000
  70
    32
  0
VERTEX
  8
0
  5
1747D
 10
84.4351
 20
249.395
 30
0.000000
  70
    32
  0
VERTEX
  8
0
  5
1747E
 10
84.4278
 20
249.403
 30
0.000000
  70
    32
  0
VERTEX
  8
0
  5
1747F
 10
84.4203
 20
249.410
 30
0.000000
  70
    32
  0
VERTEX
  8
0
  5
17480
 10
84.4127
 20
249.418
 30
0.000000
  70
    32
  0
VERTEX
  8
0
  5
17481
 10
84.4050
 20
249.426
 30
0.000000
  70
    32
  0
VERTEX
  8
0
  5
17482
 10
84.3972
 20
249.434
 30
0.000000
  70
    32
  0
VERTEX
  8
0
  5
17483
 10
84.3893
 20
249.442
 30
0.000000
  70
    32
  0
VERTEX
  8
0
  5
17484
 10
84.3813
 20
249.450
 30
0.000000
  70
    32
  0
VERTEX
  8
0
  5
17485
 10
84.3733
 20
249.458
 30
0.000000
  70
    32
  0
VERTEX
  8
0
  5
17486
 10
84.3651
 20
249.465
 30
0.000000
  70
    32
  0
VERTEX
  8
0
  5
17487
 10
84.3568
 20
249.473
 30
0.000000
  70
    32
  0
VERTEX
  8
0
  5
17488
 10
84.3484
 20
249.481
 30
0.000000
  70
    32
  0
VERTEX
  8
0
  5
17489
 10
84.3399
 20
249.489
 30
0.000000
  70
    32
  0
VERTEX
  8
0
  5
1748A
 10
84.3313
 20
249.497
 30
0.000000
  70
    32
  0
VERTEX
  8
0
  5
1748B
 10
84.3226
 20
249.505
 30
0.000000
  70
    32
  0
VERTEX
  8
0
  5
1748C
 10
84.3137
 20
249.512
 30
0.000000
  70
    32
  0
VERTEX
  8
0
  5
1748D
 10
84.3048
 20
249.520
 30
0.000000
  70
    32
  0
VERTEX
  8
0
  5
1748E
 10
84.2958
 20
249.528
 30
0.000000
  70
    32
  0
VERTEX
  8
0
  5
1748F
 10
84.2867
 20
249.536
 30
0.000000
  70
    32
  0
VERTEX
  8
0
  5
17490
 10
84.2775
 20
249.543
 30
0.000000
  70
    32
  0
VERTEX
  8
0
  5
17491
 10
84.2682
 20
249.551
 30
0.000000
  70
    32
  0
VERTEX
  8
0
  5
17492
 10
84.2588
 20
249.559
 30
0.000000
  70
    32
  0
VERTEX
  8
0
  5
17493
 10
84.2493
 20
249.567
 30
0.000000
  70
    32
  0
VERTEX
  8
0
  5
17494
 10
84.2397
 20
249.574
 30
0.000000
  70
    32
  0
VERTEX
  8
0
  5
17495
 10
84.2299
 20
249.582
 30
0.000000
  70
    32
  0
VERTEX
  8
0
  5
17496
 10
84.2201
 20
249.590
 30
0.000000
  70
    32
  0
VERTEX
  8
0
  5
17497
 10
84.2102
 20
249.598
 30
0.000000
  70
    32
  0
VERTEX
  8
0
  5
17498
 10
84.2002
 20
249.605
 30
0.000000
  70
    32
  0
VERTEX
  8
0
  5
17499
 10
84.1901
 20
249.613
 30
0.000000
  70
    32
  0
VERTEX
  8
0
  5
1749A
 10
84.1798
 20
249.621
 30
0.000000
  70
    32
  0
VERTEX
  8
0
  5
1749B
 10
84.1695
 20
249.628
 30
0.000000
  70
    32
  0
VERTEX
  8
0
  5
1749C
 10
84.1591
 20
249.636
 30
0.000000
  70
    32
  0
VERTEX
  8
0
  5
1749D
 10
84.1486
 20
249.644
 30
0.000000
  70
    32
  0
VERTEX
  8
0
  5
1749E
 10
84.1380
 20
249.651
 30
0.000000
  70
    32
  0
VERTEX
  8
0
  5
1749F
 10
84.1273
 20
249.659
 30
0.000000
  70
    32
  0
VERTEX
  8
0
  5
174A0
 10
84.1164
 20
249.667
 30
0.000000
  70
    32
  0
VERTEX
  8
0
  5
174A1
 10
84.1055
 20
249.674
 30
0.000000
  70
    32
  0
VERTEX
  8
0
  5
174A2
 10
84.0945
 20
249.682
 30
0.000000
  70
    32
  0
VERTEX
  8
0
  5
174A3
 10
84.0834
 20
249.689
 30
0.000000
  70
    32
  0
VERTEX
  8
0
  5
174A4
 10
84.0722
 20
249.697
 30
0.000000
  70
    32
  0
VERTEX
  8
0
  5
174A5
 10
84.0609
 20
249.705
 30
0.000000
  70
    32
  0
VERTEX
  8
0
  5
174A6
 10
84.0494
 20
249.712
 30
0.000000
  70
    32
  0
VERTEX
  8
0
  5
174A7
 10
84.0379
 20
249.720
 30
0.000000
  70
    32
  0
VERTEX
  8
0
  5
174A8
 10
84.0263
 20
249.727
 30
0.000000
  70
    32
  0
VERTEX
  8
0
  5
174A9
 10
84.0146
 20
249.735
 30
0.000000
  70
    32
  0
VERTEX
  8
0
  5
174AA
 10
84.0028
 20
249.743
 30
0.000000
  70
    32
  0
VERTEX
  8
0
  5
174AB
 10
83.9909
 20
249.750
 30
0.000000
  70
    32
  0
VERTEX
  8
0
  5
174AC
 10
83.9789
 20
249.758
 30
0.000000
  70
    32
  0
VERTEX
  8
0
  5
174AD
 10
83.9668
 20
249.765
 30
0.000000
  70
    32
  0
VERTEX
  8
0
  5
174AE
 10
83.9546
 20
249.773
 30
0.000000
  70
    32
  0
VERTEX
  8
0
  5
174AF
 10
83.9423
 20
249.780
 30
0.000000
  70
    32
  0
VERTEX
  8
0
  5
174B0
 10
83.9299
 20
249.788
 30
0.000000
  70
    32
  0
VERTEX
  8
0
  5
174B1
 10
83.9174
 20
249.795
 30
0.000000
  70
    32
  0
VERTEX
  8
0
  5
174B2
 10
83.9048
 20
249.803
 30
0.000000
  70
    32
  0
VERTEX
  8
0
  5
174B3
 10
83.8921
 20
249.810
 30
0.000000
  70
    32
  0
VERTEX
  8
0
  5
174B4
 10
83.8794
 20
249.817
 30
0.000000
  70
    32
  0
VERTEX
  8
0
  5
174B5
 10
83.8665
 20
249.825
 30
0.000000
  70
    32
  0
VERTEX
  8
0
  5
174B6
 10
83.8535
 20
249.832
 30
0.000000
  70
    32
  0
VERTEX
  8
0
  5
174B7
 10
83.8404
 20
249.840
 30
0.000000
  70
    32
  0
SEQEND
  8
0
  5
174B8
  0
POLYLINE
  5
16839
  8
0
 10
81.192578582479499
 20
248.83256558591674
 30
0.0
 66
     1
 70
     8
  0
VERTEX
  8
0
  5
174B9
 10
81.1926
 20
248.833
 30
0.000000
  70
    32
  0
VERTEX
  8
0
  5
174BA
 10
81.1925
 20
248.838
 30
0.000000
  70
    32
  0
VERTEX
  8
0
  5
174BB
 10
81.1925
 20
248.843
 30
0.000000
  70
    32
  0
VERTEX
  8
0
  5
174BC
 10
81.1923
 20
248.848
 30
0.000000
  70
    32
  0
VERTEX
  8
0
  5
174BD
 10
81.1921
 20
248.853
 30
0.000000
  70
    32
  0
VERTEX
  8
0
  5
174BE
 10
81.1918
 20
248.858
 30
0.000000
  70
    32
  0
VERTEX
  8
0
  5
174BF
 10
81.1914
 20
248.863
 30
0.000000
  70
    32
  0
VERTEX
  8
0
  5
174C0
 10
81.1910
 20
248.868
 30
0.000000
  70
    32
  0
VERTEX
  8
0
  5
174C1
 10
81.1905
 20
248.873
 30
0.000000
  70
    32
  0
VERTEX
  8
0
  5
174C2
 10
81.1900
 20
248.878
 30
0.000000
  70
    32
  0
VERTEX
  8
0
  5
174C3
 10
81.1894
 20
248.883
 30
0.000000
  70
    32
  0
VERTEX
  8
0
  5
174C4
 10
81.1887
 20
248.888
 30
0.000000
  70
    32
  0
VERTEX
  8
0
  5
174C5
 10
81.1880
 20
248.894
 30
0.000000
  70
    32
  0
VERTEX
  8
0
  5
174C6
 10
81.1872
 20
248.899
 30
0.000000
  70
    32
  0
VERTEX
  8
0
  5
174C7
 10
81.1863
 20
248.904
 30
0.000000
  70
    32
  0
VERTEX
  8
0
  5
174C8
 10
81.1854
 20
248.909
 30
0.000000
  70
    32
  0
VERTEX
  8
0
  5
174C9
 10
81.1844
 20
248.914
 30
0.000000
  70
    32
  0
VERTEX
  8
0
  5
174CA
 10
81.1833
 20
248.919
 30
0.000000
  70
    32
  0
VERTEX
  8
0
  5
174CB
 10
81.1822
 20
248.924
 30
0.000000
  70
    32
  0
VERTEX
  8
0
  5
174CC
 10
81.1810
 20
248.929
 30
0.000000
  70
    32
  0
VERTEX
  8
0
  5
174CD
 10
81.1798
 20
248.934
 30
0.000000
  70
    32
  0
VERTEX
  8
0
  5
174CE
 10
81.1785
 20
248.939
 30
0.000000
  70
    32
  0
VERTEX
  8
0
  5
174CF
 10
81.1771
 20
248.944
 30
0.000000
  70
    32
  0
VERTEX
  8
0
  5
174D0
 10
81.1757
 20
248.949
 30
0.000000
  70
    32
  0
VERTEX
  8
0
  5
174D1
 10
81.1742
 20
248.954
 30
0.000000
  70
    32
  0
VERTEX
  8
0
  5
174D2
 10
81.1726
 20
248.959
 30
0.000000
  70
    32
  0
VERTEX
  8
0
  5
174D3
 10
81.1710
 20
248.965
 30
0.000000
  70
    32
  0
VERTEX
  8
0
  5
174D4
 10
81.1693
 20
248.970
 30
0.000000
  70
    32
  0
VERTEX
  8
0
  5
174D5
 10
81.1675
 20
248.975
 30
0.000000
  70
    32
  0
VERTEX
  8
0
  5
174D6
 10
81.1657
 20
248.980
 30
0.000000
  70
    32
  0
VERTEX
  8
0
  5
174D7
 10
81.1638
 20
248.985
 30
0.000000
  70
    32
  0
VERTEX
  8
0
  5
174D8
 10
81.1619
 20
248.990
 30
0.000000
  70
    32
  0
VERTEX
  8
0
  5
174D9
 10
81.1599
 20
248.995
 30
0.000000
  70
    32
  0
VERTEX
  8
0
  5
174DA
 10
81.1578
 20
249.000
 30
0.000000
  70
    32
  0
VERTEX
  8
0
  5
174DB
 10
81.1557
 20
249.005
 30
0.000000
  70
    32
  0
VERTEX
  8
0
  5
174DC
 10
81.1535
 20
249.010
 30
0.000000
  70
    32
  0
VERTEX
  8
0
  5
174DD
 10
81.1512
 20
249.015
 30
0.000000
  70
    32
  0
VERTEX
  8
0
  5
174DE
 10
81.1489
 20
249.020
 30
0.000000
  70
    32
  0
VERTEX
  8
0
  5
174DF
 10
81.1465
 20
249.025
 30
0.000000
  70
    32
  0
VERTEX
  8
0
  5
174E0
 10
81.1440
 20
249.030
 30
0.000000
  70
    32
  0
VERTEX
  8
0
  5
174E1
 10
81.1415
 20
249.035
 30
0.000000
  70
    32
  0
VERTEX
  8
0
  5
174E2
 10
81.1389
 20
249.040
 30
0.000000
  70
    32
  0
VERTEX
  8
0
  5
174E3
 10
81.1363
 20
249.045
 30
0.000000
  70
    32
  0
VERTEX
  8
0
  5
174E4
 10
81.1336
 20
249.050
 30
0.000000
  70
    32
  0
VERTEX
  8
0
  5
174E5
 10
81.1308
 20
249.055
 30
0.000000
  70
    32
  0
VERTEX
  8
0
  5
174E6
 10
81.1280
 20
249.061
 30
0.000000
  70
    32
  0
VERTEX
  8
0
  5
174E7
 10
81.1251
 20
249.066
 30
0.000000
  70
    32
  0
VERTEX
  8
0
  5
174E8
 10
81.1221
 20
249.071
 30
0.000000
  70
    32
  0
VERTEX
  8
0
  5
174E9
 10
81.1191
 20
249.076
 30
0.000000
  70
    32
  0
VERTEX
  8
0
  5
174EA
 10
81.1160
 20
249.081
 30
0.000000
  70
    32
  0
VERTEX
  8
0
  5
174EB
 10
81.1128
 20
249.086
 30
0.000000
  70
    32
  0
VERTEX
  8
0
  5
174EC
 10
81.1096
 20
249.091
 30
0.000000
  70
    32
  0
VERTEX
  8
0
  5
174ED
 10
81.1063
 20
249.096
 30
0.000000
  70
    32
  0
VERTEX
  8
0
  5
174EE
 10
81.1030
 20
249.101
 30
0.000000
  70
    32
  0
VERTEX
  8
0
  5
174EF
 10
81.0996
 20
249.106
 30
0.000000
  70
    32
  0
VERTEX
  8
0
  5
174F0
 10
81.0961
 20
249.111
 30
0.000000
  70
    32
  0
VERTEX
  8
0
  5
174F1
 10
81.0926
 20
249.116
 30
0.000000
  70
    32
  0
VERTEX
  8
0
  5
174F2
 10
81.0890
 20
249.121
 30
0.000000
  70
    32
  0
VERTEX
  8
0
  5
174F3
 10
81.0853
 20
249.126
 30
0.000000
  70
    32
  0
VERTEX
  8
0
  5
174F4
 10
81.0816
 20
249.131
 30
0.000000
  70
    32
  0
VERTEX
  8
0
  5
174F5
 10
81.0778
 20
249.136
 30
0.000000
  70
    32
  0
VERTEX
  8
0
  5
174F6
 10
81.0740
 20
249.141
 30
0.000000
  70
    32
  0
VERTEX
  8
0
  5
174F7
 10
81.0701
 20
249.146
 30
0.000000
  70
    32
  0
VERTEX
  8
0
  5
174F8
 10
81.0661
 20
249.151
 30
0.000000
  70
    32
  0
VERTEX
  8
0
  5
174F9
 10
81.0621
 20
249.156
 30
0.000000
  70
    32
  0
VERTEX
  8
0
  5
174FA
 10
81.0580
 20
249.161
 30
0.000000
  70
    32
  0
VERTEX
  8
0
  5
174FB
 10
81.0538
 20
249.166
 30
0.000000
  70
    32
  0
VERTEX
  8
0
  5
174FC
 10
81.0496
 20
249.171
 30
0.000000
  70
    32
  0
VERTEX
  8
0
  5
174FD
 10
81.0453
 20
249.176
 30
0.000000
  70
    32
  0
VERTEX
  8
0
  5
174FE
 10
81.0410
 20
249.181
 30
0.000000
  70
    32
  0
VERTEX
  8
0
  5
174FF
 10
81.0366
 20
249.185
 30
0.000000
  70
    32
  0
VERTEX
  8
0
  5
17500
 10
81.0321
 20
249.190
 30
0.000000
  70
    32
  0
VERTEX
  8
0
  5
17501
 10
81.0276
 20
249.195
 30
0.000000
  70
    32
  0
VERTEX
  8
0
  5
17502
 10
81.0230
 20
249.200
 30
0.000000
  70
    32
  0
VERTEX
  8
0
  5
17503
 10
81.0183
 20
249.205
 30
0.000000
  70
    32
  0
VERTEX
  8
0
  5
17504
 10
81.0136
 20
249.210
 30
0.000000
  70
    32
  0
VERTEX
  8
0
  5
17505
 10
81.0088
 20
249.215
 30
0.000000
  70
    32
  0
VERTEX
  8
0
  5
17506
 10
81.0040
 20
249.220
 30
0.000000
  70
    32
  0
VERTEX
  8
0
  5
17507
 10
80.9991
 20
249.225
 30
0.000000
  70
    32
  0
VERTEX
  8
0
  5
17508
 10
80.9941
 20
249.230
 30
0.000000
  70
    32
  0
VERTEX
  8
0
  5
17509
 10
80.9891
 20
249.235
 30
0.000000
  70
    32
  0
VERTEX
  8
0
  5
1750A
 10
80.9840
 20
249.240
 30
0.000000
  70
    32
  0
VERTEX
  8
0
  5
1750B
 10
80.9788
 20
249.245
 30
0.000000
  70
    32
  0
VERTEX
  8
0
  5
1750C
 10
80.9736
 20
249.250
 30
0.000000
  70
    32
  0
VERTEX
  8
0
  5
1750D
 10
80.9683
 20
249.255
 30
0.000000
  70
    32
  0
VERTEX
  8
0
  5
1750E
 10
80.9630
 20
249.259
 30
0.000000
  70
    32
  0
VERTEX
  8
0
  5
1750F
 10
80.9576
 20
249.264
 30
0.000000
  70
    32
  0
VERTEX
  8
0
  5
17510
 10
80.9521
 20
249.269
 30
0.000000
  70
    32
  0
VERTEX
  8
0
  5
17511
 10
80.9466
 20
249.274
 30
0.000000
  70
    32
  0
VERTEX
  8
0
  5
17512
 10
80.9410
 20
249.279
 30
0.000000
  70
    32
  0
VERTEX
  8
0
  5
17513
 10
80.9354
 20
249.284
 30
0.000000
  70
    32
  0
VERTEX
  8
0
  5
17514
 10
80.9297
 20
249.289
 30
0.000000
  70
    32
  0
VERTEX
  8
0
  5
17515
 10
80.9239
 20
249.294
 30
0.000000
  70
    32
  0
VERTEX
  8
0
  5
17516
 10
80.9181
 20
249.299
 30
0.000000
  70
    32
  0
VERTEX
  8
0
  5
17517
 10
80.9122
 20
249.303
 30
0.000000
  70
    32
  0
VERTEX
  8
0
  5
17518
 10
80.9062
 20
249.308
 30
0.000000
  70
    32
  0
VERTEX
  8
0
  5
17519
 10
80.9002
 20
249.313
 30
0.000000
  70
    32
  0
VERTEX
  8
0
  5
1751A
 10
80.8941
 20
249.318
 30
0.000000
  70
    32
  0
VERTEX
  8
0
  5
1751B
 10
80.8880
 20
249.323
 30
0.000000
  70
    32
  0
VERTEX
  8
0
  5
1751C
 10
80.8818
 20
249.328
 30
0.000000
  70
    32
  0
VERTEX
  8
0
  5
1751D
 10
80.8755
 20
249.333
 30
0.000000
  70
    32
  0
VERTEX
  8
0
  5
1751E
 10
80.8692
 20
249.337
 30
0.000000
  70
    32
  0
VERTEX
  8
0
  5
1751F
 10
80.8628
 20
249.342
 30
0.000000
  70
    32
  0
VERTEX
  8
0
  5
17520
 10
80.8564
 20
249.347
 30
0.000000
  70
    32
  0
VERTEX
  8
0
  5
17521
 10
80.8499
 20
249.352
 30
0.000000
  70
    32
  0
VERTEX
  8
0
  5
17522
 10
80.8433
 20
249.357
 30
0.000000
  70
    32
  0
VERTEX
  8
0
  5
17523
 10
80.8367
 20
249.361
 30
0.000000
  70
    32
  0
VERTEX
  8
0
  5
17524
 10
80.8300
 20
249.366
 30
0.000000
  70
    32
  0
VERTEX
  8
0
  5
17525
 10
80.8233
 20
249.371
 30
0.000000
  70
    32
  0
VERTEX
  8
0
  5
17526
 10
80.8165
 20
249.376
 30
0.000000
  70
    32
  0
VERTEX
  8
0
  5
17527
 10
80.8096
 20
249.381
 30
0.000000
  70
    32
  0
VERTEX
  8
0
  5
17528
 10
80.8027
 20
249.385
 30
0.000000
  70
    32
  0
VERTEX
  8
0
  5
17529
 10
80.7957
 20
249.390
 30
0.000000
  70
    32
  0
VERTEX
  8
0
  5
1752A
 10
80.7887
 20
249.395
 30
0.000000
  70
    32
  0
VERTEX
  8
0
  5
1752B
 10
80.7816
 20
249.400
 30
0.000000
  70
    32
  0
VERTEX
  8
0
  5
1752C
 10
80.7744
 20
249.404
 30
0.000000
  70
    32
  0
VERTEX
  8
0
  5
1752D
 10
80.7672
 20
249.409
 30
0.000000
  70
    32
  0
VERTEX
  8
0
  5
1752E
 10
80.7599
 20
249.414
 30
0.000000
  70
    32
  0
VERTEX
  8
0
  5
1752F
 10
80.7526
 20
249.419
 30
0.000000
  70
    32
  0
VERTEX
  8
0
  5
17530
 10
80.7452
 20
249.423
 30
0.000000
  70
    32
  0
VERTEX
  8
0
  5
17531
 10
80.7377
 20
249.428
 30
0.000000
  70
    32
  0
VERTEX
  8
0
  5
17532
 10
80.7302
 20
249.433
 30
0.000000
  70
    32
  0
VERTEX
  8
0
  5
17533
 10
80.7226
 20
249.438
 30
0.000000
  70
    32
  0
VERTEX
  8
0
  5
17534
 10
80.7150
 20
249.442
 30
0.000000
  70
    32
  0
VERTEX
  8
0
  5
17535
 10
80.7073
 20
249.447
 30
0.000000
  70
    32
  0
VERTEX
  8
0
  5
17536
 10
80.6995
 20
249.452
 30
0.000000
  70
    32
  0
VERTEX
  8
0
  5
17537
 10
80.6917
 20
249.456
 30
0.000000
  70
    32
  0
VERTEX
  8
0
  5
17538
 10
80.6838
 20
249.461
 30
0.000000
  70
    32
  0
VERTEX
  8
0
  5
17539
 10
80.6759
 20
249.466
 30
0.000000
  70
    32
  0
SEQEND
  8
0
  5
1753A
  0
LINE
  5
1683A
  8
0
 10
72.537513028010324
 20
254.24615689684501
 30
0.0
 11
80.675871192884358
 21
249.46579046516069
 31
0.0
  0
POLYLINE
  5
1683D
  8
0
 66
     1
 10
0.0
 20
0.0
 30
0.0
 70
   128
  0
VERTEX
  5
170E3
  8
0
 10
62.192578582479598
 20
221.96846137182879
 30
0.0
  0
VERTEX
  5
170E4
  8
0
 10
62.219062027920927
 20
222.3511961797112
 30
0.0
  0
VERTEX
  5
170E5
  8
0
 10
62.310659517022657
 20
222.6534240755426
 30
0.0
  0
VERTEX
  5
170E6
  8
0
 10
62.46960117061149
 20
222.8512309677136
 30
0.0
  0
VERTEX
  5
170E7
  8
0
 10
62.592578582479909
 20
222.9072536740573
 30
0.0
  0
SEQEND
  5
170E8
  8
0
  0
POLYLINE
  5
1683E
  8
0
 66
     1
 10
0.0
 20
0.0
 30
0.0
 70
   128
  0
VERTEX
  5
170E9
  8
0
 10
81.192578582479598
 20
221.96846137182879
 30
0.0
  0
VERTEX
  5
170EA
  8
0
 10
81.166095137038212
 20
222.35119617971131
 30
0.0
  0
VERTEX
  5
170EB
  8
0
 10
81.074497647936539
 20
222.65342407554269
 30
0.0
  0
VERTEX
  5
170EC
  8
0
 10
80.915555994347642
 20
222.85123096771369
 30
0.0
  0
VERTEX
  5
170ED
  8
0
 10
80.792578582479791
 20
222.90725367405719
 30
0.0
  0
SEQEND
  5
170EE
  8
0
  0
POLYLINE
  5
1683F
  8
0
 10
68.138042625864344
 20
255.14526089580582
 30
0.0
 66
     1
 70
     8
  0
VERTEX
  8
0
  5
1753B
 10
68.1380
 20
255.145
 30
0.000000
  70
    32
  0
VERTEX
  8
0
  5
1753C
 10
68.1381
 20
255.147
 30
0.000000
  70
    32
  0
VERTEX
  8
0
  5
1753D
 10
68.1382
 20
255.148
 30
0.000000
  70
    32
  0
VERTEX
  8
0
  5
1753E
 10
68.1383
 20
255.149
 30
0.000000
  70
    32
  0
VERTEX
  8
0
  5
1753F
 10
68.1383
 20
255.151
 30
0.000000
  70
    32
  0
VERTEX
  8
0
  5
17540
 10
68.1384
 20
255.152
 30
0.000000
  70
    32
  0
VERTEX
  8
0
  5
17541
 10
68.1385
 20
255.153
 30
0.000000
  70
    32
  0
VERTEX
  8
0
  5
17542
 10
68.1385
 20
255.155
 30
0.000000
  70
    32
  0
VERTEX
  8
0
  5
17543
 10
68.1386
 20
255.156
 30
0.000000
  70
    32
  0
VERTEX
  8
0
  5
17544
 10
68.1387
 20
255.157
 30
0.000000
  70
    32
  0
VERTEX
  8
0
  5
17545
 10
68.1387
 20
255.159
 30
0.000000
  70
    32
  0
VERTEX
  8
0
  5
17546
 10
68.1388
 20
255.160
 30
0.000000
  70
    32
  0
VERTEX
  8
0
  5
17547
 10
68.1389
 20
255.162
 30
0.000000
  70
    32
  0
VERTEX
  8
0
  5
17548
 10
68.1389
 20
255.163
 30
0.000000
  70
    32
  0
VERTEX
  8
0
  5
17549
 10
68.1390
 20
255.164
 30
0.000000
  70
    32
  0
VERTEX
  8
0
  5
1754A
 10
68.1390
 20
255.166
 30
0.000000
  70
    32
  0
VERTEX
  8
0
  5
1754B
 10
68.1391
 20
255.167
 30
0.000000
  70
    32
  0
VERTEX
  8
0
  5
1754C
 10
68.1392
 20
255.168
 30
0.000000
  70
    32
  0
VERTEX
  8
0
  5
1754D
 10
68.1392
 20
255.170
 30
0.000000
  70
    32
  0
VERTEX
  8
0
  5
1754E
 10
68.1393
 20
255.171
 30
0.000000
  70
    32
  0
VERTEX
  8
0
  5
1754F
 10
68.1393
 20
255.172
 30
0.000000
  70
    32
  0
VERTEX
  8
0
  5
17550
 10
68.1394
 20
255.174
 30
0.000000
  70
    32
  0
VERTEX
  8
0
  5
17551
 10
68.1395
 20
255.175
 30
0.000000
  70
    32
  0
VERTEX
  8
0
  5
17552
 10
68.1395
 20
255.176
 30
0.000000
  70
    32
  0
VERTEX
  8
0
  5
17553
 10
68.1396
 20
255.178
 30
0.000000
  70
    32
  0
VERTEX
  8
0
  5
17554
 10
68.1396
 20
255.179
 30
0.000000
  70
    32
  0
VERTEX
  8
0
  5
17555
 10
68.1397
 20
255.181
 30
0.000000
  70
    32
  0
VERTEX
  8
0
  5
17556
 10
68.1398
 20
255.182
 30
0.000000
  70
    32
  0
VERTEX
  8
0
  5
17557
 10
68.1398
 20
255.183
 30
0.000000
  70
    32
  0
VERTEX
  8
0
  5
17558
 10
68.1399
 20
255.185
 30
0.000000
  70
    32
  0
VERTEX
  8
0
  5
17559
 10
68.1399
 20
255.186
 30
0.000000
  70
    32
  0
VERTEX
  8
0
  5
1755A
 10
68.1400
 20
255.187
 30
0.000000
  70
    32
  0
VERTEX
  8
0
  5
1755B
 10
68.1400
 20
255.189
 30
0.000000
  70
    32
  0
VERTEX
  8
0
  5
1755C
 10
68.1401
 20
255.190
 30
0.000000
  70
    32
  0
VERTEX
  8
0
  5
1755D
 10
68.1401
 20
255.191
 30
0.000000
  70
    32
  0
VERTEX
  8
0
  5
1755E
 10
68.1402
 20
255.193
 30
0.000000
  70
    32
  0
VERTEX
  8
0
  5
1755F
 10
68.1402
 20
255.194
 30
0.000000
  70
    32
  0
VERTEX
  8
0
  5
17560
 10
68.1403
 20
255.196
 30
0.000000
  70
    32
  0
VERTEX
  8
0
  5
17561
 10
68.1403
 20
255.197
 30
0.000000
  70
    32
  0
VERTEX
  8
0
  5
17562
 10
68.1404
 20
255.198
 30
0.000000
  70
    32
  0
VERTEX
  8
0
  5
17563
 10
68.1404
 20
255.200
 30
0.000000
  70
    32
  0
VERTEX
  8
0
  5
17564
 10
68.1405
 20
255.201
 30
0.000000
  70
    32
  0
VERTEX
  8
0
  5
17565
 10
68.1405
 20
255.202
 30
0.000000
  70
    32
  0
VERTEX
  8
0
  5
17566
 10
68.1406
 20
255.204
 30
0.000000
  70
    32
  0
VERTEX
  8
0
  5
17567
 10
68.1406
 20
255.205
 30
0.000000
  70
    32
  0
VERTEX
  8
0
  5
17568
 10
68.1407
 20
255.206
 30
0.000000
  70
    32
  0
VERTEX
  8
0
  5
17569
 10
68.1407
 20
255.208
 30
0.000000
  70
    32
  0
VERTEX
  8
0
  5
1756A
 10
68.1408
 20
255.209
 30
0.000000
  70
    32
  0
VERTEX
  8
0
  5
1756B
 10
68.1408
 20
255.210
 30
0.000000
  70
    32
  0
VERTEX
  8
0
  5
1756C
 10
68.1409
 20
255.212
 30
0.000000
  70
    32
  0
VERTEX
  8
0
  5
1756D
 10
68.1409
 20
255.213
 30
0.000000
  70
    32
  0
VERTEX
  8
0
  5
1756E
 10
68.1409
 20
255.215
 30
0.000000
  70
    32
  0
VERTEX
  8
0
  5
1756F
 10
68.1410
 20
255.216
 30
0.000000
  70
    32
  0
VERTEX
  8
0
  5
17570
 10
68.1410
 20
255.217
 30
0.000000
  70
    32
  0
VERTEX
  8
0
  5
17571
 10
68.1411
 20
255.219
 30
0.000000
  70
    32
  0
VERTEX
  8
0
  5
17572
 10
68.1411
 20
255.220
 30
0.000000
  70
    32
  0
VERTEX
  8
0
  5
17573
 10
68.1411
 20
255.221
 30
0.000000
  70
    32
  0
VERTEX
  8
0
  5
17574
 10
68.1412
 20
255.223
 30
0.000000
  70
    32
  0
VERTEX
  8
0
  5
17575
 10
68.1412
 20
255.224
 30
0.000000
  70
    32
  0
VERTEX
  8
0
  5
17576
 10
68.1413
 20
255.225
 30
0.000000
  70
    32
  0
VERTEX
  8
0
  5
17577
 10
68.1413
 20
255.227
 30
0.000000
  70
    32
  0
VERTEX
  8
0
  5
17578
 10
68.1413
 20
255.228
 30
0.000000
  70
    32
  0
VERTEX
  8
0
  5
17579
 10
68.1414
 20
255.229
 30
0.000000
  70
    32
  0
VERTEX
  8
0
  5
1757A
 10
68.1414
 20
255.231
 30
0.000000
  70
    32
  0
VERTEX
  8
0
  5
1757B
 10
68.1414
 20
255.232
 30
0.000000
  70
    32
  0
VERTEX
  8
0
  5
1757C
 10
68.1415
 20
255.234
 30
0.000000
  70
    32
  0
VERTEX
  8
0
  5
1757D
 10
68.1415
 20
255.235
 30
0.000000
  70
    32
  0
VERTEX
  8
0
  5
1757E
 10
68.1415
 20
255.236
 30
0.000000
  70
    32
  0
VERTEX
  8
0
  5
1757F
 10
68.1416
 20
255.238
 30
0.000000
  70
    32
  0
VERTEX
  8
0
  5
17580
 10
68.1416
 20
255.239
 30
0.000000
  70
    32
  0
VERTEX
  8
0
  5
17581
 10
68.1416
 20
255.240
 30
0.000000
  70
    32
  0
VERTEX
  8
0
  5
17582
 10
68.1417
 20
255.242
 30
0.000000
  70
    32
  0
VERTEX
  8
0
  5
17583
 10
68.1417
 20
255.243
 30
0.000000
  70
    32
  0
VERTEX
  8
0
  5
17584
 10
68.1417
 20
255.244
 30
0.000000
  70
    32
  0
VERTEX
  8
0
  5
17585
 10
68.1418
 20
255.246
 30
0.000000
  70
    32
  0
VERTEX
  8
0
  5
17586
 10
68.1418
 20
255.247
 30
0.000000
  70
    32
  0
VERTEX
  8
0
  5
17587
 10
68.1418
 20
255.248
 30
0.000000
  70
    32
  0
VERTEX
  8
0
  5
17588
 10
68.1419
 20
255.250
 30
0.000000
  70
    32
  0
VERTEX
  8
0
  5
17589
 10
68.1419
 20
255.251
 30
0.000000
  70
    32
  0
VERTEX
  8
0
  5
1758A
 10
68.1419
 20
255.253
 30
0.000000
  70
    32
  0
VERTEX
  8
0
  5
1758B
 10
68.1419
 20
255.254
 30
0.000000
  70
    32
  0
VERTEX
  8
0
  5
1758C
 10
68.1420
 20
255.255
 30
0.000000
  70
    32
  0
VERTEX
  8
0
  5
1758D
 10
68.1420
 20
255.257
 30
0.000000
  70
    32
  0
VERTEX
  8
0
  5
1758E
 10
68.1420
 20
255.258
 30
0.000000
  70
    32
  0
VERTEX
  8
0
  5
1758F
 10
68.1420
 20
255.259
 30
0.000000
  70
    32
  0
VERTEX
  8
0
  5
17590
 10
68.1421
 20
255.261
 30
0.000000
  70
    32
  0
VERTEX
  8
0
  5
17591
 10
68.1421
 20
255.262
 30
0.000000
  70
    32
  0
VERTEX
  8
0
  5
17592
 10
68.1421
 20
255.263
 30
0.000000
  70
    32
  0
VERTEX
  8
0
  5
17593
 10
68.1421
 20
255.265
 30
0.000000
  70
    32
  0
VERTEX
  8
0
  5
17594
 10
68.1422
 20
255.266
 30
0.000000
  70
    32
  0
VERTEX
  8
0
  5
17595
 10
68.1422
 20
255.268
 30
0.000000
  70
    32
  0
VERTEX
  8
0
  5
17596
 10
68.1422
 20
255.269
 30
0.000000
  70
    32
  0
VERTEX
  8
0
  5
17597
 10
68.1422
 20
255.270
 30
0.000000
  70
    32
  0
VERTEX
  8
0
  5
17598
 10
68.1422
 20
255.272
 30
0.000000
  70
    32
  0
VERTEX
  8
0
  5
17599
 10
68.1423
 20
255.273
 30
0.000000
  70
    32
  0
VERTEX
  8
0
  5
1759A
 10
68.1423
 20
255.274
 30
0.000000
  70
    32
  0
VERTEX
  8
0
  5
1759B
 10
68.1423
 20
255.276
 30
0.000000
  70
    32
  0
VERTEX
  8
0
  5
1759C
 10
68.1423
 20
255.277
 30
0.000000
  70
    32
  0
VERTEX
  8
0
  5
1759D
 10
68.1423
 20
255.278
 30
0.000000
  70
    32
  0
VERTEX
  8
0
  5
1759E
 10
68.1423
 20
255.280
 30
0.000000
  70
    32
  0
VERTEX
  8
0
  5
1759F
 10
68.1424
 20
255.281
 30
0.000000
  70
    32
  0
VERTEX
  8
0
  5
175A0
 10
68.1424
 20
255.282
 30
0.000000
  70
    32
  0
VERTEX
  8
0
  5
175A1
 10
68.1424
 20
255.284
 30
0.000000
  70
    32
  0
VERTEX
  8
0
  5
175A2
 10
68.1424
 20
255.285
 30
0.000000
  70
    32
  0
VERTEX
  8
0
  5
175A3
 10
68.1424
 20
255.287
 30
0.000000
  70
    32
  0
VERTEX
  8
0
  5
175A4
 10
68.1424
 20
255.288
 30
0.000000
  70
    32
  0
VERTEX
  8
0
  5
175A5
 10
68.1424
 20
255.289
 30
0.000000
  70
    32
  0
VERTEX
  8
0
  5
175A6
 10
68.1425
 20
255.291
 30
0.000000
  70
    32
  0
VERTEX
  8
0
  5
175A7
 10
68.1425
 20
255.292
 30
0.000000
  70
    32
  0
VERTEX
  8
0
  5
175A8
 10
68.1425
 20
255.293
 30
0.000000
  70
    32
  0
VERTEX
  8
0
  5
175A9
 10
68.1425
 20
255.295
 30
0.000000
  70
    32
  0
VERTEX
  8
0
  5
175AA
 10
68.1425
 20
255.296
 30
0.000000
  70
    32
  0
VERTEX
  8
0
  5
175AB
 10
68.1425
 20
255.297
 30
0.000000
  70
    32
  0
VERTEX
  8
0
  5
175AC
 10
68.1425
 20
255.299
 30
0.000000
  70
    32
  0
VERTEX
  8
0
  5
175AD
 10
68.1425
 20
255.300
 30
0.000000
  70
    32
  0
VERTEX
  8
0
  5
175AE
 10
68.1425
 20
255.301
 30
0.000000
  70
    32
  0
VERTEX
  8
0
  5
175AF
 10
68.1425
 20
255.303
 30
0.000000
  70
    32
  0
VERTEX
  8
0
  5
175B0
 10
68.1425
 20
255.304
 30
0.000000
  70
    32
  0
VERTEX
  8
0
  5
175B1
 10
68.1426
 20
255.306
 30
0.000000
  70
    32
  0
VERTEX
  8
0
  5
175B2
 10
68.1426
 20
255.307
 30
0.000000
  70
    32
  0
VERTEX
  8
0
  5
175B3
 10
68.1426
 20
255.308
 30
0.000000
  70
    32
  0
VERTEX
  8
0
  5
175B4
 10
68.1426
 20
255.310
 30
0.000000
  70
    32
  0
VERTEX
  8
0
  5
175B5
 10
68.1426
 20
255.311
 30
0.000000
  70
    32
  0
VERTEX
  8
0
  5
175B6
 10
68.1426
 20
255.312
 30
0.000000
  70
    32
  0
VERTEX
  8
0
  5
175B7
 10
68.1426
 20
255.314
 30
0.000000
  70
    32
  0
VERTEX
  8
0
  5
175B8
 10
68.1426
 20
255.315
 30
0.000000
  70
    32
  0
VERTEX
  8
0
  5
175B9
 10
68.1426
 20
255.316
 30
0.000000
  70
    32
  0
VERTEX
  8
0
  5
175BA
 10
68.1426
 20
255.318
 30
0.000000
  70
    32
  0
VERTEX
  8
0
  5
175BB
 10
68.1426
 20
255.319
 30
0.000000
  70
    32
  0
SEQEND
  8
0
  5
175BC
  0
POLYLINE
  5
16840
  8
0
 10
75.242578582479339
 20
255.3191368644317
 30
0.0
 66
     1
 70
     8
  0
VERTEX
  8
0
  5
175BD
 10
75.2426
 20
255.319
 30
0.000000
  70
    32
  0
VERTEX
  8
0
  5
175BE
 10
75.2426
 20
255.318
 30
0.000000
  70
    32
  0
VERTEX
  8
0
  5
175BF
 10
75.2426
 20
255.316
 30
0.000000
  70
    32
  0
VERTEX
  8
0
  5
175C0
 10
75.2426
 20
255.315
 30
0.000000
  70
    32
  0
VERTEX
  8
0
  5
175C1
 10
75.2426
 20
255.314
 30
0.000000
  70
    32
  0
VERTEX
  8
0
  5
175C2
 10
75.2426
 20
255.312
 30
0.000000
  70
    32
  0
VERTEX
  8
0
  5
175C3
 10
75.2426
 20
255.311
 30
0.000000
  70
    32
  0
VERTEX
  8
0
  5
175C4
 10
75.2426
 20
255.310
 30
0.000000
  70
    32
  0
VERTEX
  8
0
  5
175C5
 10
75.2426
 20
255.308
 30
0.000000
  70
    32
  0
VERTEX
  8
0
  5
175C6
 10
75.2426
 20
255.307
 30
0.000000
  70
    32
  0
VERTEX
  8
0
  5
175C7
 10
75.2426
 20
255.306
 30
0.000000
  70
    32
  0
VERTEX
  8
0
  5
175C8
 10
75.2426
 20
255.304
 30
0.000000
  70
    32
  0
VERTEX
  8
0
  5
175C9
 10
75.2426
 20
255.303
 30
0.000000
  70
    32
  0
VERTEX
  8
0
  5
175CA
 10
75.2426
 20
255.301
 30
0.000000
  70
    32
  0
VERTEX
  8
0
  5
175CB
 10
75.2426
 20
255.300
 30
0.000000
  70
    32
  0
VERTEX
  8
0
  5
175CC
 10
75.2426
 20
255.299
 30
0.000000
  70
    32
  0
VERTEX
  8
0
  5
175CD
 10
75.2426
 20
255.297
 30
0.000000
  70
    32
  0
VERTEX
  8
0
  5
175CE
 10
75.2427
 20
255.296
 30
0.000000
  70
    32
  0
VERTEX
  8
0
  5
175CF
 10
75.2427
 20
255.295
 30
0.000000
  70
    32
  0
VERTEX
  8
0
  5
175D0
 10
75.2427
 20
255.293
 30
0.000000
  70
    32
  0
VERTEX
  8
0
  5
175D1
 10
75.2427
 20
255.292
 30
0.000000
  70
    32
  0
VERTEX
  8
0
  5
175D2
 10
75.2427
 20
255.291
 30
0.000000
  70
    32
  0
VERTEX
  8
0
  5
175D3
 10
75.2427
 20
255.289
 30
0.000000
  70
    32
  0
VERTEX
  8
0
  5
175D4
 10
75.2427
 20
255.288
 30
0.000000
  70
    32
  0
VERTEX
  8
0
  5
175D5
 10
75.2427
 20
255.287
 30
0.000000
  70
    32
  0
VERTEX
  8
0
  5
175D6
 10
75.2428
 20
255.285
 30
0.000000
  70
    32
  0
VERTEX
  8
0
  5
175D7
 10
75.2428
 20
255.284
 30
0.000000
  70
    32
  0
VERTEX
  8
0
  5
175D8
 10
75.2428
 20
255.282
 30
0.000000
  70
    32
  0
VERTEX
  8
0
  5
175D9
 10
75.2428
 20
255.281
 30
0.000000
  70
    32
  0
VERTEX
  8
0
  5
175DA
 10
75.2428
 20
255.280
 30
0.000000
  70
    32
  0
VERTEX
  8
0
  5
175DB
 10
75.2428
 20
255.278
 30
0.000000
  70
    32
  0
VERTEX
  8
0
  5
175DC
 10
75.2428
 20
255.277
 30
0.000000
  70
    32
  0
VERTEX
  8
0
  5
175DD
 10
75.2429
 20
255.276
 30
0.000000
  70
    32
  0
VERTEX
  8
0
  5
175DE
 10
75.2429
 20
255.274
 30
0.000000
  70
    32
  0
VERTEX
  8
0
  5
175DF
 10
75.2429
 20
255.273
 30
0.000000
  70
    32
  0
VERTEX
  8
0
  5
175E0
 10
75.2429
 20
255.272
 30
0.000000
  70
    32
  0
VERTEX
  8
0
  5
175E1
 10
75.2429
 20
255.270
 30
0.000000
  70
    32
  0
VERTEX
  8
0
  5
175E2
 10
75.2430
 20
255.269
 30
0.000000
  70
    32
  0
VERTEX
  8
0
  5
175E3
 10
75.2430
 20
255.268
 30
0.000000
  70
    32
  0
VERTEX
  8
0
  5
175E4
 10
75.2430
 20
255.266
 30
0.000000
  70
    32
  0
VERTEX
  8
0
  5
175E5
 10
75.2430
 20
255.265
 30
0.000000
  70
    32
  0
VERTEX
  8
0
  5
175E6
 10
75.2430
 20
255.263
 30
0.000000
  70
    32
  0
VERTEX
  8
0
  5
175E7
 10
75.2431
 20
255.262
 30
0.000000
  70
    32
  0
VERTEX
  8
0
  5
175E8
 10
75.2431
 20
255.261
 30
0.000000
  70
    32
  0
VERTEX
  8
0
  5
175E9
 10
75.2431
 20
255.259
 30
0.000000
  70
    32
  0
VERTEX
  8
0
  5
175EA
 10
75.2431
 20
255.258
 30
0.000000
  70
    32
  0
VERTEX
  8
0
  5
175EB
 10
75.2432
 20
255.257
 30
0.000000
  70
    32
  0
VERTEX
  8
0
  5
175EC
 10
75.2432
 20
255.255
 30
0.000000
  70
    32
  0
VERTEX
  8
0
  5
175ED
 10
75.2432
 20
255.254
 30
0.000000
  70
    32
  0
VERTEX
  8
0
  5
175EE
 10
75.2432
 20
255.253
 30
0.000000
  70
    32
  0
VERTEX
  8
0
  5
175EF
 10
75.2433
 20
255.251
 30
0.000000
  70
    32
  0
VERTEX
  8
0
  5
175F0
 10
75.2433
 20
255.250
 30
0.000000
  70
    32
  0
VERTEX
  8
0
  5
175F1
 10
75.2433
 20
255.248
 30
0.000000
  70
    32
  0
VERTEX
  8
0
  5
175F2
 10
75.2434
 20
255.247
 30
0.000000
  70
    32
  0
VERTEX
  8
0
  5
175F3
 10
75.2434
 20
255.246
 30
0.000000
  70
    32
  0
VERTEX
  8
0
  5
175F4
 10
75.2434
 20
255.244
 30
0.000000
  70
    32
  0
VERTEX
  8
0
  5
175F5
 10
75.2434
 20
255.243
 30
0.000000
  70
    32
  0
VERTEX
  8
0
  5
175F6
 10
75.2435
 20
255.242
 30
0.000000
  70
    32
  0
VERTEX
  8
0
  5
175F7
 10
75.2435
 20
255.240
 30
0.000000
  70
    32
  0
VERTEX
  8
0
  5
175F8
 10
75.2435
 20
255.239
 30
0.000000
  70
    32
  0
VERTEX
  8
0
  5
175F9
 10
75.2436
 20
255.238
 30
0.000000
  70
    32
  0
VERTEX
  8
0
  5
175FA
 10
75.2436
 20
255.236
 30
0.000000
  70
    32
  0
VERTEX
  8
0
  5
175FB
 10
75.2436
 20
255.235
 30
0.000000
  70
    32
  0
VERTEX
  8
0
  5
175FC
 10
75.2437
 20
255.234
 30
0.000000
  70
    32
  0
VERTEX
  8
0
  5
175FD
 10
75.2437
 20
255.232
 30
0.000000
  70
    32
  0
VERTEX
  8
0
  5
175FE
 10
75.2437
 20
255.231
 30
0.000000
  70
    32
  0
VERTEX
  8
0
  5
175FF
 10
75.2438
 20
255.229
 30
0.000000
  70
    32
  0
VERTEX
  8
0
  5
17600
 10
75.2438
 20
255.228
 30
0.000000
  70
    32
  0
VERTEX
  8
0
  5
17601
 10
75.2439
 20
255.227
 30
0.000000
  70
    32
  0
VERTEX
  8
0
  5
17602
 10
75.2439
 20
255.225
 30
0.000000
  70
    32
  0
VERTEX
  8
0
  5
17603
 10
75.2439
 20
255.224
 30
0.000000
  70
    32
  0
VERTEX
  8
0
  5
17604
 10
75.2440
 20
255.223
 30
0.000000
  70
    32
  0
VERTEX
  8
0
  5
17605
 10
75.2440
 20
255.221
 30
0.000000
  70
    32
  0
VERTEX
  8
0
  5
17606
 10
75.2441
 20
255.220
 30
0.000000
  70
    32
  0
VERTEX
  8
0
  5
17607
 10
75.2441
 20
255.219
 30
0.000000
  70
    32
  0
VERTEX
  8
0
  5
17608
 10
75.2441
 20
255.217
 30
0.000000
  70
    32
  0
VERTEX
  8
0
  5
17609
 10
75.2442
 20
255.216
 30
0.000000
  70
    32
  0
VERTEX
  8
0
  5
1760A
 10
75.2442
 20
255.215
 30
0.000000
  70
    32
  0
VERTEX
  8
0
  5
1760B
 10
75.2443
 20
255.213
 30
0.000000
  70
    32
  0
VERTEX
  8
0
  5
1760C
 10
75.2443
 20
255.212
 30
0.000000
  70
    32
  0
VERTEX
  8
0
  5
1760D
 10
75.2444
 20
255.210
 30
0.000000
  70
    32
  0
VERTEX
  8
0
  5
1760E
 10
75.2444
 20
255.209
 30
0.000000
  70
    32
  0
VERTEX
  8
0
  5
1760F
 10
75.2444
 20
255.208
 30
0.000000
  70
    32
  0
VERTEX
  8
0
  5
17610
 10
75.2445
 20
255.206
 30
0.000000
  70
    32
  0
VERTEX
  8
0
  5
17611
 10
75.2445
 20
255.205
 30
0.000000
  70
    32
  0
VERTEX
  8
0
  5
17612
 10
75.2446
 20
255.204
 30
0.000000
  70
    32
  0
VERTEX
  8
0
  5
17613
 10
75.2446
 20
255.202
 30
0.000000
  70
    32
  0
VERTEX
  8
0
  5
17614
 10
75.2447
 20
255.201
 30
0.000000
  70
    32
  0
VERTEX
  8
0
  5
17615
 10
75.2447
 20
255.200
 30
0.000000
  70
    32
  0
VERTEX
  8
0
  5
17616
 10
75.2448
 20
255.198
 30
0.000000
  70
    32
  0
VERTEX
  8
0
  5
17617
 10
75.2448
 20
255.197
 30
0.000000
  70
    32
  0
VERTEX
  8
0
  5
17618
 10
75.2449
 20
255.196
 30
0.000000
  70
    32
  0
VERTEX
  8
0
  5
17619
 10
75.2449
 20
255.194
 30
0.000000
  70
    32
  0
VERTEX
  8
0
  5
1761A
 10
75.2450
 20
255.193
 30
0.000000
  70
    32
  0
VERTEX
  8
0
  5
1761B
 10
75.2450
 20
255.191
 30
0.000000
  70
    32
  0
VERTEX
  8
0
  5
1761C
 10
75.2451
 20
255.190
 30
0.000000
  70
    32
  0
VERTEX
  8
0
  5
1761D
 10
75.2451
 20
255.189
 30
0.000000
  70
    32
  0
VERTEX
  8
0
  5
1761E
 10
75.2452
 20
255.187
 30
0.000000
  70
    32
  0
VERTEX
  8
0
  5
1761F
 10
75.2452
 20
255.186
 30
0.000000
  70
    32
  0
VERTEX
  8
0
  5
17620
 10
75.2453
 20
255.185
 30
0.000000
  70
    32
  0
VERTEX
  8
0
  5
17621
 10
75.2453
 20
255.183
 30
0.000000
  70
    32
  0
VERTEX
  8
0
  5
17622
 10
75.2454
 20
255.182
 30
0.000000
  70
    32
  0
VERTEX
  8
0
  5
17623
 10
75.2455
 20
255.181
 30
0.000000
  70
    32
  0
VERTEX
  8
0
  5
17624
 10
75.2455
 20
255.179
 30
0.000000
  70
    32
  0
VERTEX
  8
0
  5
17625
 10
75.2456
 20
255.178
 30
0.000000
  70
    32
  0
VERTEX
  8
0
  5
17626
 10
75.2456
 20
255.176
 30
0.000000
  70
    32
  0
VERTEX
  8
0
  5
17627
 10
75.2457
 20
255.175
 30
0.000000
  70
    32
  0
VERTEX
  8
0
  5
17628
 10
75.2457
 20
255.174
 30
0.000000
  70
    32
  0
VERTEX
  8
0
  5
17629
 10
75.2458
 20
255.172
 30
0.000000
  70
    32
  0
VERTEX
  8
0
  5
1762A
 10
75.2459
 20
255.171
 30
0.000000
  70
    32
  0
VERTEX
  8
0
  5
1762B
 10
75.2459
 20
255.170
 30
0.000000
  70
    32
  0
VERTEX
  8
0
  5
1762C
 10
75.2460
 20
255.168
 30
0.000000
  70
    32
  0
VERTEX
  8
0
  5
1762D
 10
75.2461
 20
255.167
 30
0.000000
  70
    32
  0
VERTEX
  8
0
  5
1762E
 10
75.2461
 20
255.166
 30
0.000000
  70
    32
  0
VERTEX
  8
0
  5
1762F
 10
75.2462
 20
255.164
 30
0.000000
  70
    32
  0
VERTEX
  8
0
  5
17630
 10
75.2462
 20
255.163
 30
0.000000
  70
    32
  0
VERTEX
  8
0
  5
17631
 10
75.2463
 20
255.162
 30
0.000000
  70
    32
  0
VERTEX
  8
0
  5
17632
 10
75.2464
 20
255.160
 30
0.000000
  70
    32
  0
VERTEX
  8
0
  5
17633
 10
75.2464
 20
255.159
 30
0.000000
  70
    32
  0
VERTEX
  8
0
  5
17634
 10
75.2465
 20
255.157
 30
0.000000
  70
    32
  0
VERTEX
  8
0
  5
17635
 10
75.2466
 20
255.156
 30
0.000000
  70
    32
  0
VERTEX
  8
0
  5
17636
 10
75.2466
 20
255.155
 30
0.000000
  70
    32
  0
VERTEX
  8
0
  5
17637
 10
75.2467
 20
255.153
 30
0.000000
  70
    32
  0
VERTEX
  8
0
  5
17638
 10
75.2468
 20
255.152
 30
0.000000
  70
    32
  0
VERTEX
  8
0
  5
17639
 10
75.2468
 20
255.151
 30
0.000000
  70
    32
  0
VERTEX
  8
0
  5
1763A
 10
75.2469
 20
255.149
 30
0.000000
  70
    32
  0
VERTEX
  8
0
  5
1763B
 10
75.2470
 20
255.148
 30
0.000000
  70
    32
  0
VERTEX
  8
0
  5
1763C
 10
75.2470
 20
255.147
 30
0.000000
  70
    32
  0
VERTEX
  8
0
  5
1763D
 10
75.2471
 20
255.145
 30
0.000000
  70
    32
  0
SEQEND
  8
0
  5
1763E
  0
POLYLINE
  5
16841
  8
0
 10
71.743578582479344
 20
255.40078448125777
 30
0.0
 66
     1
 70
     8
  0
VERTEX
  8
0
  5
1763F
 10
71.7436
 20
255.401
 30
0.000000
  70
    32
  0
VERTEX
  8
0
  5
17640
 10
71.7435
 20
255.399
 30
0.000000
  70
    32
  0
VERTEX
  8
0
  5
17641
 10
71.7435
 20
255.397
 30
0.000000
  70
    32
  0
VERTEX
  8
0
  5
17642
 10
71.7434
 20
255.395
 30
0.000000
  70
    32
  0
VERTEX
  8
0
  5
17643
 10
71.7434
 20
255.393
 30
0.000000
  70
    32
  0
VERTEX
  8
0
  5
17644
 10
71.7433
 20
255.391
 30
0.000000
  70
    32
  0
VERTEX
  8
0
  5
17645
 10
71.7433
 20
255.389
 30
0.000000
  70
    32
  0
VERTEX
  8
0
  5
17646
 10
71.7433
 20
255.387
 30
0.000000
  70
    32
  0
VERTEX
  8
0
  5
17647
 10
71.7432
 20
255.385
 30
0.000000
  70
    32
  0
VERTEX
  8
0
  5
17648
 10
71.7432
 20
255.383
 30
0.000000
  70
    32
  0
VERTEX
  8
0
  5
17649
 10
71.7431
 20
255.381
 30
0.000000
  70
    32
  0
VERTEX
  8
0
  5
1764A
 10
71.7431
 20
255.379
 30
0.000000
  70
    32
  0
VERTEX
  8
0
  5
1764B
 10
71.7431
 20
255.377
 30
0.000000
  70
    32
  0
VERTEX
  8
0
  5
1764C
 10
71.7430
 20
255.375
 30
0.000000
  70
    32
  0
VERTEX
  8
0
  5
1764D
 10
71.7430
 20
255.373
 30
0.000000
  70
    32
  0
VERTEX
  8
0
  5
1764E
 10
71.7430
 20
255.371
 30
0.000000
  70
    32
  0
VERTEX
  8
0
  5
1764F
 10
71.7429
 20
255.369
 30
0.000000
  70
    32
  0
VERTEX
  8
0
  5
17650
 10
71.7429
 20
255.367
 30
0.000000
  70
    32
  0
VERTEX
  8
0
  5
17651
 10
71.7429
 20
255.365
 30
0.000000
  70
    32
  0
VERTEX
  8
0
  5
17652
 10
71.7429
 20
255.363
 30
0.000000
  70
    32
  0
VERTEX
  8
0
  5
17653
 10
71.7428
 20
255.361
 30
0.000000
  70
    32
  0
VERTEX
  8
0
  5
17654
 10
71.7428
 20
255.359
 30
0.000000
  70
    32
  0
VERTEX
  8
0
  5
17655
 10
71.7428
 20
255.357
 30
0.000000
  70
    32
  0
VERTEX
  8
0
  5
17656
 10
71.7428
 20
255.355
 30
0.000000
  70
    32
  0
VERTEX
  8
0
  5
17657
 10
71.7427
 20
255.353
 30
0.000000
  70
    32
  0
VERTEX
  8
0
  5
17658
 10
71.7427
 20
255.351
 30
0.000000
  70
    32
  0
VERTEX
  8
0
  5
17659
 10
71.7427
 20
255.349
 30
0.000000
  70
    32
  0
VERTEX
  8
0
  5
1765A
 10
71.7427
 20
255.347
 30
0.000000
  70
    32
  0
VERTEX
  8
0
  5
1765B
 10
71.7427
 20
255.345
 30
0.000000
  70
    32
  0
VERTEX
  8
0
  5
1765C
 10
71.7427
 20
255.343
 30
0.000000
  70
    32
  0
VERTEX
  8
0
  5
1765D
 10
71.7426
 20
255.341
 30
0.000000
  70
    32
  0
VERTEX
  8
0
  5
1765E
 10
71.7426
 20
255.339
 30
0.000000
  70
    32
  0
VERTEX
  8
0
  5
1765F
 10
71.7426
 20
255.337
 30
0.000000
  70
    32
  0
VERTEX
  8
0
  5
17660
 10
71.7426
 20
255.335
 30
0.000000
  70
    32
  0
VERTEX
  8
0
  5
17661
 10
71.7426
 20
255.333
 30
0.000000
  70
    32
  0
VERTEX
  8
0
  5
17662
 10
71.7426
 20
255.331
 30
0.000000
  70
    32
  0
VERTEX
  8
0
  5
17663
 10
71.7426
 20
255.329
 30
0.000000
  70
    32
  0
VERTEX
  8
0
  5
17664
 10
71.7426
 20
255.327
 30
0.000000
  70
    32
  0
VERTEX
  8
0
  5
17665
 10
71.7426
 20
255.325
 30
0.000000
  70
    32
  0
VERTEX
  8
0
  5
17666
 10
71.7426
 20
255.323
 30
0.000000
  70
    32
  0
VERTEX
  8
0
  5
17667
 10
71.7426
 20
255.321
 30
0.000000
  70
    32
  0
VERTEX
  8
0
  5
17668
 10
71.7426
 20
255.319
 30
0.000000
  70
    32
  0
VERTEX
  8
0
  5
17669
 10
71.7426
 20
255.317
 30
0.000000
  70
    32
  0
VERTEX
  8
0
  5
1766A
 10
71.7426
 20
255.315
 30
0.000000
  70
    32
  0
VERTEX
  8
0
  5
1766B
 10
71.7426
 20
255.313
 30
0.000000
  70
    32
  0
VERTEX
  8
0
  5
1766C
 10
71.7426
 20
255.311
 30
0.000000
  70
    32
  0
VERTEX
  8
0
  5
1766D
 10
71.7426
 20
255.309
 30
0.000000
  70
    32
  0
VERTEX
  8
0
  5
1766E
 10
71.7426
 20
255.307
 30
0.000000
  70
    32
  0
VERTEX
  8
0
  5
1766F
 10
71.7426
 20
255.305
 30
0.000000
  70
    32
  0
VERTEX
  8
0
  5
17670
 10
71.7426
 20
255.303
 30
0.000000
  70
    32
  0
VERTEX
  8
0
  5
17671
 10
71.7426
 20
255.301
 30
0.000000
  70
    32
  0
VERTEX
  8
0
  5
17672
 10
71.7426
 20
255.299
 30
0.000000
  70
    32
  0
VERTEX
  8
0
  5
17673
 10
71.7427
 20
255.297
 30
0.000000
  70
    32
  0
VERTEX
  8
0
  5
17674
 10
71.7427
 20
255.295
 30
0.000000
  70
    32
  0
VERTEX
  8
0
  5
17675
 10
71.7427
 20
255.293
 30
0.000000
  70
    32
  0
VERTEX
  8
0
  5
17676
 10
71.7427
 20
255.291
 30
0.000000
  70
    32
  0
VERTEX
  8
0
  5
17677
 10
71.7427
 20
255.289
 30
0.000000
  70
    32
  0
VERTEX
  8
0
  5
17678
 10
71.7427
 20
255.287
 30
0.000000
  70
    32
  0
VERTEX
  8
0
  5
17679
 10
71.7428
 20
255.285
 30
0.000000
  70
    32
  0
VERTEX
  8
0
  5
1767A
 10
71.7428
 20
255.283
 30
0.000000
  70
    32
  0
VERTEX
  8
0
  5
1767B
 10
71.7428
 20
255.281
 30
0.000000
  70
    32
  0
VERTEX
  8
0
  5
1767C
 10
71.7428
 20
255.279
 30
0.000000
  70
    32
  0
VERTEX
  8
0
  5
1767D
 10
71.7428
 20
255.277
 30
0.000000
  70
    32
  0
VERTEX
  8
0
  5
1767E
 10
71.7429
 20
255.275
 30
0.000000
  70
    32
  0
VERTEX
  8
0
  5
1767F
 10
71.7429
 20
255.273
 30
0.000000
  70
    32
  0
VERTEX
  8
0
  5
17680
 10
71.7429
 20
255.271
 30
0.000000
  70
    32
  0
VERTEX
  8
0
  5
17681
 10
71.7430
 20
255.269
 30
0.000000
  70
    32
  0
VERTEX
  8
0
  5
17682
 10
71.7430
 20
255.267
 30
0.000000
  70
    32
  0
VERTEX
  8
0
  5
17683
 10
71.7430
 20
255.265
 30
0.000000
  70
    32
  0
VERTEX
  8
0
  5
17684
 10
71.7431
 20
255.263
 30
0.000000
  70
    32
  0
VERTEX
  8
0
  5
17685
 10
71.7431
 20
255.261
 30
0.000000
  70
    32
  0
VERTEX
  8
0
  5
17686
 10
71.7431
 20
255.259
 30
0.000000
  70
    32
  0
VERTEX
  8
0
  5
17687
 10
71.7432
 20
255.257
 30
0.000000
  70
    32
  0
VERTEX
  8
0
  5
17688
 10
71.7432
 20
255.255
 30
0.000000
  70
    32
  0
VERTEX
  8
0
  5
17689
 10
71.7432
 20
255.253
 30
0.000000
  70
    32
  0
VERTEX
  8
0
  5
1768A
 10
71.7433
 20
255.251
 30
0.000000
  70
    32
  0
VERTEX
  8
0
  5
1768B
 10
71.7433
 20
255.249
 30
0.000000
  70
    32
  0
VERTEX
  8
0
  5
1768C
 10
71.7434
 20
255.247
 30
0.000000
  70
    32
  0
VERTEX
  8
0
  5
1768D
 10
71.7434
 20
255.245
 30
0.000000
  70
    32
  0
VERTEX
  8
0
  5
1768E
 10
71.7434
 20
255.243
 30
0.000000
  70
    32
  0
VERTEX
  8
0
  5
1768F
 10
71.7435
 20
255.241
 30
0.000000
  70
    32
  0
VERTEX
  8
0
  5
17690
 10
71.7435
 20
255.239
 30
0.000000
  70
    32
  0
VERTEX
  8
0
  5
17691
 10
71.7436
 20
255.237
 30
0.000000
  70
    32
  0
VERTEX
  8
0
  5
17692
 10
71.7436
 20
255.235
 30
0.000000
  70
    32
  0
VERTEX
  8
0
  5
17693
 10
71.7437
 20
255.233
 30
0.000000
  70
    32
  0
VERTEX
  8
0
  5
17694
 10
71.7437
 20
255.231
 30
0.000000
  70
    32
  0
VERTEX
  8
0
  5
17695
 10
71.7438
 20
255.229
 30
0.000000
  70
    32
  0
VERTEX
  8
0
  5
17696
 10
71.7438
 20
255.227
 30
0.000000
  70
    32
  0
VERTEX
  8
0
  5
17697
 10
71.7439
 20
255.225
 30
0.000000
  70
    32
  0
VERTEX
  8
0
  5
17698
 10
71.7440
 20
255.223
 30
0.000000
  70
    32
  0
VERTEX
  8
0
  5
17699
 10
71.7440
 20
255.221
 30
0.000000
  70
    32
  0
VERTEX
  8
0
  5
1769A
 10
71.7441
 20
255.219
 30
0.000000
  70
    32
  0
VERTEX
  8
0
  5
1769B
 10
71.7441
 20
255.217
 30
0.000000
  70
    32
  0
VERTEX
  8
0
  5
1769C
 10
71.7442
 20
255.215
 30
0.000000
  70
    32
  0
VERTEX
  8
0
  5
1769D
 10
71.7443
 20
255.213
 30
0.000000
  70
    32
  0
VERTEX
  8
0
  5
1769E
 10
71.7443
 20
255.211
 30
0.000000
  70
    32
  0
VERTEX
  8
0
  5
1769F
 10
71.7444
 20
255.209
 30
0.000000
  70
    32
  0
VERTEX
  8
0
  5
176A0
 10
71.7445
 20
255.207
 30
0.000000
  70
    32
  0
VERTEX
  8
0
  5
176A1
 10
71.7445
 20
255.205
 30
0.000000
  70
    32
  0
VERTEX
  8
0
  5
176A2
 10
71.7446
 20
255.203
 30
0.000000
  70
    32
  0
VERTEX
  8
0
  5
176A3
 10
71.7447
 20
255.201
 30
0.000000
  70
    32
  0
VERTEX
  8
0
  5
176A4
 10
71.7447
 20
255.199
 30
0.000000
  70
    32
  0
VERTEX
  8
0
  5
176A5
 10
71.7448
 20
255.197
 30
0.000000
  70
    32
  0
VERTEX
  8
0
  5
176A6
 10
71.7449
 20
255.195
 30
0.000000
  70
    32
  0
VERTEX
  8
0
  5
176A7
 10
71.7450
 20
255.193
 30
0.000000
  70
    32
  0
VERTEX
  8
0
  5
176A8
 10
71.7450
 20
255.191
 30
0.000000
  70
    32
  0
VERTEX
  8
0
  5
176A9
 10
71.7451
 20
255.189
 30
0.000000
  70
    32
  0
VERTEX
  8
0
  5
176AA
 10
71.7452
 20
255.187
 30
0.000000
  70
    32
  0
VERTEX
  8
0
  5
176AB
 10
71.7453
 20
255.185
 30
0.000000
  70
    32
  0
VERTEX
  8
0
  5
176AC
 10
71.7454
 20
255.183
 30
0.000000
  70
    32
  0
VERTEX
  8
0
  5
176AD
 10
71.7454
 20
255.181
 30
0.000000
  70
    32
  0
VERTEX
  8
0
  5
176AE
 10
71.7455
 20
255.179
 30
0.000000
  70
    32
  0
VERTEX
  8
0
  5
176AF
 10
71.7456
 20
255.177
 30
0.000000
  70
    32
  0
VERTEX
  8
0
  5
176B0
 10
71.7457
 20
255.175
 30
0.000000
  70
    32
  0
VERTEX
  8
0
  5
176B1
 10
71.7458
 20
255.173
 30
0.000000
  70
    32
  0
VERTEX
  8
0
  5
176B2
 10
71.7459
 20
255.171
 30
0.000000
  70
    32
  0
VERTEX
  8
0
  5
176B3
 10
71.7460
 20
255.169
 30
0.000000
  70
    32
  0
VERTEX
  8
0
  5
176B4
 10
71.7460
 20
255.167
 30
0.000000
  70
    32
  0
VERTEX
  8
0
  5
176B5
 10
71.7461
 20
255.165
 30
0.000000
  70
    32
  0
VERTEX
  8
0
  5
176B6
 10
71.7462
 20
255.163
 30
0.000000
  70
    32
  0
VERTEX
  8
0
  5
176B7
 10
71.7463
 20
255.161
 30
0.000000
  70
    32
  0
VERTEX
  8
0
  5
176B8
 10
71.7464
 20
255.159
 30
0.000000
  70
    32
  0
VERTEX
  8
0
  5
176B9
 10
71.7465
 20
255.157
 30
0.000000
  70
    32
  0
VERTEX
  8
0
  5
176BA
 10
71.7466
 20
255.155
 30
0.000000
  70
    32
  0
VERTEX
  8
0
  5
176BB
 10
71.7467
 20
255.153
 30
0.000000
  70
    32
  0
VERTEX
  8
0
  5
176BC
 10
71.7468
 20
255.151
 30
0.000000
  70
    32
  0
VERTEX
  8
0
  5
176BD
 10
71.7469
 20
255.149
 30
0.000000
  70
    32
  0
VERTEX
  8
0
  5
176BE
 10
71.7470
 20
255.147
 30
0.000000
  70
    32
  0
VERTEX
  8
0
  5
176BF
 10
71.7471
 20
255.145
 30
0.000000
  70
    32
  0
SEQEND
  8
0
  5
176C0
  0
POLYLINE
  5
16842
  8
0
 10
71.638042625864372
 20
255.14526089580582
 30
0.0
 66
     1
 70
     8
  0
VERTEX
  8
0
  5
176C1
 10
71.6380
 20
255.145
 30
0.000000
  70
    32
  0
VERTEX
  8
0
  5
176C2
 10
71.6381
 20
255.147
 30
0.000000
  70
    32
  0
VERTEX
  8
0
  5
176C3
 10
71.6382
 20
255.149
 30
0.000000
  70
    32
  0
VERTEX
  8
0
  5
176C4
 10
71.6383
 20
255.151
 30
0.000000
  70
    32
  0
VERTEX
  8
0
  5
176C5
 10
71.6384
 20
255.153
 30
0.000000
  70
    32
  0
VERTEX
  8
0
  5
176C6
 10
71.6385
 20
255.155
 30
0.000000
  70
    32
  0
VERTEX
  8
0
  5
176C7
 10
71.6386
 20
255.157
 30
0.000000
  70
    32
  0
VERTEX
  8
0
  5
176C8
 10
71.6387
 20
255.159
 30
0.000000
  70
    32
  0
VERTEX
  8
0
  5
176C9
 10
71.6388
 20
255.161
 30
0.000000
  70
    32
  0
VERTEX
  8
0
  5
176CA
 10
71.6389
 20
255.163
 30
0.000000
  70
    32
  0
VERTEX
  8
0
  5
176CB
 10
71.6390
 20
255.165
 30
0.000000
  70
    32
  0
VERTEX
  8
0
  5
176CC
 10
71.6391
 20
255.167
 30
0.000000
  70
    32
  0
VERTEX
  8
0
  5
176CD
 10
71.6392
 20
255.169
 30
0.000000
  70
    32
  0
VERTEX
  8
0
  5
176CE
 10
71.6393
 20
255.171
 30
0.000000
  70
    32
  0
VERTEX
  8
0
  5
176CF
 10
71.6394
 20
255.173
 30
0.000000
  70
    32
  0
VERTEX
  8
0
  5
176D0
 10
71.6395
 20
255.175
 30
0.000000
  70
    32
  0
VERTEX
  8
0
  5
176D1
 10
71.6396
 20
255.177
 30
0.000000
  70
    32
  0
VERTEX
  8
0
  5
176D2
 10
71.6396
 20
255.179
 30
0.000000
  70
    32
  0
VERTEX
  8
0
  5
176D3
 10
71.6397
 20
255.181
 30
0.000000
  70
    32
  0
VERTEX
  8
0
  5
176D4
 10
71.6398
 20
255.183
 30
0.000000
  70
    32
  0
VERTEX
  8
0
  5
176D5
 10
71.6399
 20
255.185
 30
0.000000
  70
    32
  0
VERTEX
  8
0
  5
176D6
 10
71.6400
 20
255.187
 30
0.000000
  70
    32
  0
VERTEX
  8
0
  5
176D7
 10
71.6400
 20
255.189
 30
0.000000
  70
    32
  0
VERTEX
  8
0
  5
176D8
 10
71.6401
 20
255.191
 30
0.000000
  70
    32
  0
VERTEX
  8
0
  5
176D9
 10
71.6402
 20
255.193
 30
0.000000
  70
    32
  0
VERTEX
  8
0
  5
176DA
 10
71.6403
 20
255.195
 30
0.000000
  70
    32
  0
VERTEX
  8
0
  5
176DB
 10
71.6403
 20
255.197
 30
0.000000
  70
    32
  0
VERTEX
  8
0
  5
176DC
 10
71.6404
 20
255.199
 30
0.000000
  70
    32
  0
VERTEX
  8
0
  5
176DD
 10
71.6405
 20
255.201
 30
0.000000
  70
    32
  0
VERTEX
  8
0
  5
176DE
 10
71.6406
 20
255.203
 30
0.000000
  70
    32
  0
VERTEX
  8
0
  5
176DF
 10
71.6406
 20
255.205
 30
0.000000
  70
    32
  0
VERTEX
  8
0
  5
176E0
 10
71.6407
 20
255.207
 30
0.000000
  70
    32
  0
VERTEX
  8
0
  5
176E1
 10
71.6408
 20
255.209
 30
0.000000
  70
    32
  0
VERTEX
  8
0
  5
176E2
 10
71.6408
 20
255.211
 30
0.000000
  70
    32
  0
VERTEX
  8
0
  5
176E3
 10
71.6409
 20
255.213
 30
0.000000
  70
    32
  0
VERTEX
  8
0
  5
176E4
 10
71.6410
 20
255.215
 30
0.000000
  70
    32
  0
VERTEX
  8
0
  5
176E5
 10
71.6410
 20
255.217
 30
0.000000
  70
    32
  0
VERTEX
  8
0
  5
176E6
 10
71.6411
 20
255.219
 30
0.000000
  70
    32
  0
VERTEX
  8
0
  5
176E7
 10
71.6411
 20
255.221
 30
0.000000
  70
    32
  0
VERTEX
  8
0
  5
176E8
 10
71.6412
 20
255.223
 30
0.000000
  70
    32
  0
VERTEX
  8
0
  5
176E9
 10
71.6413
 20
255.225
 30
0.000000
  70
    32
  0
VERTEX
  8
0
  5
176EA
 10
71.6413
 20
255.227
 30
0.000000
  70
    32
  0
VERTEX
  8
0
  5
176EB
 10
71.6414
 20
255.229
 30
0.000000
  70
    32
  0
VERTEX
  8
0
  5
176EC
 10
71.6414
 20
255.231
 30
0.000000
  70
    32
  0
VERTEX
  8
0
  5
176ED
 10
71.6415
 20
255.233
 30
0.000000
  70
    32
  0
VERTEX
  8
0
  5
176EE
 10
71.6415
 20
255.235
 30
0.000000
  70
    32
  0
VERTEX
  8
0
  5
176EF
 10
71.6416
 20
255.237
 30
0.000000
  70
    32
  0
VERTEX
  8
0
  5
176F0
 10
71.6416
 20
255.239
 30
0.000000
  70
    32
  0
VERTEX
  8
0
  5
176F1
 10
71.6417
 20
255.241
 30
0.000000
  70
    32
  0
VERTEX
  8
0
  5
176F2
 10
71.6417
 20
255.243
 30
0.000000
  70
    32
  0
VERTEX
  8
0
  5
176F3
 10
71.6418
 20
255.245
 30
0.000000
  70
    32
  0
VERTEX
  8
0
  5
176F4
 10
71.6418
 20
255.247
 30
0.000000
  70
    32
  0
VERTEX
  8
0
  5
176F5
 10
71.6418
 20
255.249
 30
0.000000
  70
    32
  0
VERTEX
  8
0
  5
176F6
 10
71.6419
 20
255.251
 30
0.000000
  70
    32
  0
VERTEX
  8
0
  5
176F7
 10
71.6419
 20
255.253
 30
0.000000
  70
    32
  0
VERTEX
  8
0
  5
176F8
 10
71.6420
 20
255.255
 30
0.000000
  70
    32
  0
VERTEX
  8
0
  5
176F9
 10
71.6420
 20
255.257
 30
0.000000
  70
    32
  0
VERTEX
  8
0
  5
176FA
 10
71.6420
 20
255.259
 30
0.000000
  70
    32
  0
VERTEX
  8
0
  5
176FB
 10
71.6421
 20
255.261
 30
0.000000
  70
    32
  0
VERTEX
  8
0
  5
176FC
 10
71.6421
 20
255.263
 30
0.000000
  70
    32
  0
VERTEX
  8
0
  5
176FD
 10
71.6421
 20
255.265
 30
0.000000
  70
    32
  0
VERTEX
  8
0
  5
176FE
 10
71.6422
 20
255.267
 30
0.000000
  70
    32
  0
VERTEX
  8
0
  5
176FF
 10
71.6422
 20
255.269
 30
0.000000
  70
    32
  0
VERTEX
  8
0
  5
17700
 10
71.6422
 20
255.271
 30
0.000000
  70
    32
  0
VERTEX
  8
0
  5
17701
 10
71.6423
 20
255.273
 30
0.000000
  70
    32
  0
VERTEX
  8
0
  5
17702
 10
71.6423
 20
255.275
 30
0.000000
  70
    32
  0
VERTEX
  8
0
  5
17703
 10
71.6423
 20
255.277
 30
0.000000
  70
    32
  0
VERTEX
  8
0
  5
17704
 10
71.6423
 20
255.279
 30
0.000000
  70
    32
  0
VERTEX
  8
0
  5
17705
 10
71.6424
 20
255.281
 30
0.000000
  70
    32
  0
VERTEX
  8
0
  5
17706
 10
71.6424
 20
255.283
 30
0.000000
  70
    32
  0
VERTEX
  8
0
  5
17707
 10
71.6424
 20
255.285
 30
0.000000
  70
    32
  0
VERTEX
  8
0
  5
17708
 10
71.6424
 20
255.287
 30
0.000000
  70
    32
  0
VERTEX
  8
0
  5
17709
 10
71.6424
 20
255.289
 30
0.000000
  70
    32
  0
VERTEX
  8
0
  5
1770A
 10
71.6425
 20
255.291
 30
0.000000
  70
    32
  0
VERTEX
  8
0
  5
1770B
 10
71.6425
 20
255.293
 30
0.000000
  70
    32
  0
VERTEX
  8
0
  5
1770C
 10
71.6425
 20
255.295
 30
0.000000
  70
    32
  0
VERTEX
  8
0
  5
1770D
 10
71.6425
 20
255.297
 30
0.000000
  70
    32
  0
VERTEX
  8
0
  5
1770E
 10
71.6425
 20
255.299
 30
0.000000
  70
    32
  0
VERTEX
  8
0
  5
1770F
 10
71.6425
 20
255.301
 30
0.000000
  70
    32
  0
VERTEX
  8
0
  5
17710
 10
71.6425
 20
255.303
 30
0.000000
  70
    32
  0
VERTEX
  8
0
  5
17711
 10
71.6425
 20
255.305
 30
0.000000
  70
    32
  0
VERTEX
  8
0
  5
17712
 10
71.6426
 20
255.307
 30
0.000000
  70
    32
  0
VERTEX
  8
0
  5
17713
 10
71.6426
 20
255.309
 30
0.000000
  70
    32
  0
VERTEX
  8
0
  5
17714
 10
71.6426
 20
255.311
 30
0.000000
  70
    32
  0
VERTEX
  8
0
  5
17715
 10
71.6426
 20
255.313
 30
0.000000
  70
    32
  0
VERTEX
  8
0
  5
17716
 10
71.6426
 20
255.315
 30
0.000000
  70
    32
  0
VERTEX
  8
0
  5
17717
 10
71.6426
 20
255.317
 30
0.000000
  70
    32
  0
VERTEX
  8
0
  5
17718
 10
71.6426
 20
255.319
 30
0.000000
  70
    32
  0
VERTEX
  8
0
  5
17719
 10
71.6426
 20
255.321
 30
0.000000
  70
    32
  0
VERTEX
  8
0
  5
1771A
 10
71.6426
 20
255.323
 30
0.000000
  70
    32
  0
VERTEX
  8
0
  5
1771B
 10
71.6426
 20
255.325
 30
0.000000
  70
    32
  0
VERTEX
  8
0
  5
1771C
 10
71.6426
 20
255.327
 30
0.000000
  70
    32
  0
VERTEX
  8
0
  5
1771D
 10
71.6426
 20
255.329
 30
0.000000
  70
    32
  0
VERTEX
  8
0
  5
1771E
 10
71.6426
 20
255.331
 30
0.000000
  70
    32
  0
VERTEX
  8
0
  5
1771F
 10
71.6426
 20
255.333
 30
0.000000
  70
    32
  0
VERTEX
  8
0
  5
17720
 10
71.6425
 20
255.335
 30
0.000000
  70
    32
  0
VERTEX
  8
0
  5
17721
 10
71.6425
 20
255.337
 30
0.000000
  70
    32
  0
VERTEX
  8
0
  5
17722
 10
71.6425
 20
255.339
 30
0.000000
  70
    32
  0
VERTEX
  8
0
  5
17723
 10
71.6425
 20
255.341
 30
0.000000
  70
    32
  0
VERTEX
  8
0
  5
17724
 10
71.6425
 20
255.343
 30
0.000000
  70
    32
  0
VERTEX
  8
0
  5
17725
 10
71.6425
 20
255.345
 30
0.000000
  70
    32
  0
VERTEX
  8
0
  5
17726
 10
71.6425
 20
255.347
 30
0.000000
  70
    32
  0
VERTEX
  8
0
  5
17727
 10
71.6424
 20
255.349
 30
0.000000
  70
    32
  0
VERTEX
  8
0
  5
17728
 10
71.6424
 20
255.351
 30
0.000000
  70
    32
  0
VERTEX
  8
0
  5
17729
 10
71.6424
 20
255.353
 30
0.000000
  70
    32
  0
VERTEX
  8
0
  5
1772A
 10
71.6424
 20
255.355
 30
0.000000
  70
    32
  0
VERTEX
  8
0
  5
1772B
 10
71.6424
 20
255.357
 30
0.000000
  70
    32
  0
VERTEX
  8
0
  5
1772C
 10
71.6423
 20
255.359
 30
0.000000
  70
    32
  0
VERTEX
  8
0
  5
1772D
 10
71.6423
 20
255.361
 30
0.000000
  70
    32
  0
VERTEX
  8
0
  5
1772E
 10
71.6423
 20
255.363
 30
0.000000
  70
    32
  0
VERTEX
  8
0
  5
1772F
 10
71.6423
 20
255.365
 30
0.000000
  70
    32
  0
VERTEX
  8
0
  5
17730
 10
71.6422
 20
255.367
 30
0.000000
  70
    32
  0
VERTEX
  8
0
  5
17731
 10
71.6422
 20
255.369
 30
0.000000
  70
    32
  0
VERTEX
  8
0
  5
17732
 10
71.6422
 20
255.371
 30
0.000000
  70
    32
  0
VERTEX
  8
0
  5
17733
 10
71.6421
 20
255.373
 30
0.000000
  70
    32
  0
VERTEX
  8
0
  5
17734
 10
71.6421
 20
255.375
 30
0.000000
  70
    32
  0
VERTEX
  8
0
  5
17735
 10
71.6421
 20
255.377
 30
0.000000
  70
    32
  0
VERTEX
  8
0
  5
17736
 10
71.6420
 20
255.379
 30
0.000000
  70
    32
  0
VERTEX
  8
0
  5
17737
 10
71.6420
 20
255.381
 30
0.000000
  70
    32
  0
VERTEX
  8
0
  5
17738
 10
71.6420
 20
255.383
 30
0.000000
  70
    32
  0
VERTEX
  8
0
  5
17739
 10
71.6419
 20
255.385
 30
0.000000
  70
    32
  0
VERTEX
  8
0
  5
1773A
 10
71.6419
 20
255.387
 30
0.000000
  70
    32
  0
VERTEX
  8
0
  5
1773B
 10
71.6419
 20
255.389
 30
0.000000
  70
    32
  0
VERTEX
  8
0
  5
1773C
 10
71.6418
 20
255.391
 30
0.000000
  70
    32
  0
VERTEX
  8
0
  5
1773D
 10
71.6418
 20
255.393
 30
0.000000
  70
    32
  0
VERTEX
  8
0
  5
1773E
 10
71.6417
 20
255.395
 30
0.000000
  70
    32
  0
VERTEX
  8
0
  5
1773F
 10
71.6417
 20
255.397
 30
0.000000
  70
    32
  0
VERTEX
  8
0
  5
17740
 10
71.6416
 20
255.399
 30
0.000000
  70
    32
  0
VERTEX
  8
0
  5
17741
 10
71.6416
 20
255.401
 30
0.000000
  70
    32
  0
SEQEND
  8
0
  5
17742
  0
LINE
  5
16844
  8
0
 10
71.641578582479383
 20
255.40078448125789
 30
0.0
 11
71.743578582479358
 21
255.4007844812578
 31
0.0
  0
LINE
  5
16845
  8
0
 10
75.242578582479325
 20
255.3191368644319
 30
0.0
 11
75.242578582479382
 21
260.87353979167182
 31
0.0
  0
LINE
  5
16846
  8
0
 10
68.142578582479302
 20
260.87353979167182
 30
0.0
 11
68.142578582479359
 21
255.3191368644319
 31
0.0
  0
LINE
  5
16847
  8
0
 10
75.242578582479325
 20
260.87353979167182
 30
0.0
 11
68.142578582479302
 21
260.87353979167182
 31
0.0
  0
LINE
  5
16852
  8
0
 10
542.2425785824812
 20
218.1346940648605
 30
0.0
 11
542.61274917469837
 21
217.49353979167239
 31
0.0
  0
LINE
  5
16853
  8
0
 10
560.0724079902642
 20
217.49353979167239
 30
0.0
 11
560.44257858248136
 21
218.1346940648605
 31
0.0
  0
LINE
  5
1686D
  8
0
 10
559.84257858248134
 20
175.0935397916719
 30
0.0
 11
559.84257858248134
 21
180.99353979167211
 31
0.0
  0
ARC
  5
1686E
  8
0
 10
555.44718801161036
 20
202.65556510150009
 30
0.0
 40
27.562408777131509
 50
270.30223427827627
 51
271.02985619193748
  0
ARC
  5
1686F
  8
0
 10
555.73735892304433
 20
202.6482043950046
 30
0.0
 40
27.55504496002802
 50
260.82264952651531
 51
269.69895383400592
  0
LINE
  5
16870
  8
0
 10
551.34257858248134
 20
175.4458808084548
 30
0.0
 11
551.34257858248134
 21
180.99353979167211
 31
0.0
  0
LINE
  5
16871
  8
0
 10
542.84257858248134
 20
180.99353979167211
 30
0.0
 11
543.24257858248097
 21
180.99353979167211
 31
0.0
  0
ARC
  5
16872
  8
0
 10
546.94718801161014
 20
202.6555651015
 30
0.0
 40
27.56240877713142
 50
270.30223427827627
 51
279.1761623612062
  0
ARC
  5
16873
  8
0
 10
547.23735892304455
 20
202.64820439501059
 30
0.0
 40
27.555044960033829
 50
260.82264952651531
 51
261.66419435665478
  0
LINE
  5
16874
  8
0
 10
542.84257858248134
 20
175.09353979167199
 30
0.0
 11
542.84257858248134
 21
180.99353979167211
 31
0.0
  0
LINE
  5
16879
  8
0
 10
542.84257858248134
 20
175.09353979167199
 30
0.0
 11
543.24257858248097
 21
175.09353979167199
 31
0.0
  0
ARC
  5
1687E
  8
0
 10
555.78723188417882
 20
200.62834913926349
 30
0.0
 40
13.36660806199923
 50
90.834408163932835
 51
94.052621573783014
  0
ARC
  5
1687F
  8
0
 10
555.40153178276785
 20
200.6485384012299
 30
0.0
 40
13.346368831655919
 50
70.564031645778101
 51
89.179810680549437
  0
LINE
  5
16880
  8
0
 10
559.84257858248145
 20
210.48353979167189
 30
0.0
 11
559.84257858248145
 21
213.99353979167259
 31
0.0
  0
LINE
  5
16883
  8
0
 10
542.84257857945261
 20
213.99353979167239
 30
0.0
 11
542.84257857945261
 21
210.483539791672
 31
0.0
  0
ARC
  5
16884
  8
0
 10
547.28723188929951
 20
200.62834910229799
 30
0.0
 40
13.3666080990354
 50
90.834408183573927
 51
109.4217498751681
  0
ARC
  5
16885
  8
0
 10
546.90153180928553
 20
200.64853862567719
 30
0.0
 40
13.34636860685206
 50
85.956743985665199
 51
89.179810780585257
  0
LINE
  5
16891
  8
0
 10
542.2425785824812
 20
219.03812416400271
 30
0.0
 11
542.2425785824812
 21
218.1346940648605
 31
0.0
  0
LINE
  5
16892
  8
0
 10
560.44257858248136
 20
218.1346940648605
 30
0.0
 11
560.44257858248125
 21
219.03812416400271
 31
0.0
  0
LINE
  5
168C1
  8
0
 10
563.49041856831502
 20
222.9835397916724
 30
0.0
 11
560.87952461746045
 21
222.9835397916726
 31
0.0
  0
LINE
  5
168C6
  8
0
 10
541.76272140167998
 20
222.9835397916724
 30
0.0
 11
539.1947385966472
 21
222.9835397916724
 31
0.0
  0
POLYLINE
  5
168CA
  8
0
 66
     1
 10
0.0
 20
0.0
 30
0.0
 70
   128
  0
VERTEX
  5
170EF
  8
0
 10
538.34257858248122
 20
221.96846137182931
 30
0.0
  0
VERTEX
  5
170F0
  8
0
 10
538.36338534093647
 20
222.38333368213611
 30
0.0
  0
VERTEX
  5
170F1
  8
0
 10
538.43592142409057
 20
222.70103984788011
 30
0.0
  0
VERTEX
  5
170F2
  8
0
 10
538.58153110593059
 20
222.9112776121695
 30
0.0
  0
VERTEX
  5
170F3
  8
0
 10
538.80949933178783
 20
222.9835397916724
 30
0.0
  0
SEQEND
  5
170F4
  8
0
  0
LINE
  5
168CC
  8
0
 10
538.80949933178783
 20
222.9835397916724
 30
0.0
 11
539.1947385966472
 21
222.9835397916724
 31
0.0
  0
POLYLINE
  5
168CF
  8
0
 66
     1
 10
0.0
 20
0.0
 30
0.0
 70
   128
  0
VERTEX
  5
170F5
  8
0
 10
563.8756578331745
 20
222.9835397916724
 30
0.0
  0
VERTEX
  5
170F6
  8
0
 10
564.07867080960239
 20
222.92880765211009
 30
0.0
  0
VERTEX
  5
170F7
  8
0
 10
564.22536769308999
 20
222.7553034999444
 30
0.0
  0
VERTEX
  5
170F8
  8
0
 10
564.31479764742073
 20
222.43593590425741
 30
0.0
  0
VERTEX
  5
170F9
  8
0
 10
564.34257858248122
 20
221.96846137182931
 30
0.0
  0
SEQEND
  5
170FA
  8
0
  0
LINE
  5
168D0
  8
0
 10
563.49041856831502
 20
222.9835397916724
 30
0.0
 11
563.8756578331745
 21
222.9835397916724
 31
0.0
  0
ARC
  5
168D2
  8
0
 10
558.34257858247838
 20
219.99353979167259
 30
0.0
 40
6.000000000002716
 50
340.42746205557899
 51
359.99999999999682
  0
LINE
  5
168D4
  8
0
 10
560.842578582481
 20
221.07546622536259
 30
0.0
 11
560.84257858248122
 21
217.98353979167251
 31
0.0
  0
LINE
  5
168D6
  8
0
 10
564.34257858248122
 20
233.36236467574699
 30
0.0
 11
564.34257858248122
 21
219.9935397916723
 31
0.0
  0
ARC
  5
168D7
  8
0
 10
544.3425785824802
 20
219.99353979167239
 30
0.0
 40
5.9999999999990328
 50
179.9999999999967
 51
199.57253794443139
  0
LINE
  5
168D8
  8
0
 10
538.34257858248122
 20
219.99353979167239
 30
0.0
 11
538.34257858248122
 21
233.36236467574699
 31
0.0
  0
LINE
  5
168DA
  8
0
 10
541.84257858248122
 20
217.49353979167259
 30
0.0
 11
541.84257858248111
 21
221.07546622536699
 31
0.0
  0
LINE
  5
168DC
  8
0
 10
541.84257858248122
 20
217.49353979167239
 30
0.0
 11
543.24257858248143
 21
217.49353979167259
 31
0.0
  0
LINE
  5
168DD
  8
0
 10
559.44257858248147
 20
217.4935397916723
 30
0.0
 11
560.84257858248122
 21
217.49353979167239
 31
0.0
  0
LINE
  5
168DE
  8
0
 10
559.84257858248145
 20
213.99353979167239
 30
0.0
 11
554.84257858248111
 21
213.99353979167239
 31
0.0
  0
ARC
  5
168DF
  8
0
 10
558.34257858248122
 20
219.99353979167239
 30
0.0
 40
6.0000000000000249
 50
270.0
 51
340.4274620555729
  0
ARC
  5
168E0
  8
0
 10
544.34257858248122
 20
219.99353979167239
 30
0.0
 40
6.0000000000000071
 50
199.57253794443139
 51
270.0
  0
LINE
  5
168E2
  8
0
 10
560.84257858248122
 20
217.98353979167251
 30
0.0
 11
560.84257858248122
 21
217.4935397916723
 31
0.0
  0
LINE
  5
168E7
  8
0
 10
295.59257860123722
 20
61.503539791671749
 30
0.0
 11
295.59257860123722
 21
62.750924671681332
 31
0.0
  0
ARC
  5
168E8
  8
0
 10
290.09257860123711
 20
103.8035397916783
 30
0.0
 40
60.000000000006807
 50
272.62697685498631
 51
275.25949646441632
  0
LINE
  5
168E9
  8
0
 10
295.59257860123722
 20
44.056154911662126
 30
0.0
 11
295.59257860123722
 21
45.30353979167171
 31
0.0
  0
ARC
  5
168EA
  8
0
 10
290.09257860123711
 20
3.0035397916771549
 30
0.0
 40
59.999999999994593
 50
84.740503535583699
 51
92.579181051645975
  0
LINE
  5
168EB
  8
0
 10
294.09257860123722
 20
48.803539791672172
 30
0.0
 11
294.09257860123722
 21
49.853539791671892
 31
0.0
  0
LINE
  5
168EC
  8
0
 10
294.09257860123722
 20
56.953539791671908
 30
0.0
 11
294.09257860123722
 21
58.00353979167226
 31
0.0
  0
LINE
  5
168ED
  8
0
 10
290.19257860123707
 20
61.503539791671869
 30
0.0
 11
290.19257860123707
 21
62.750924671681439
 31
0.0
  0
LINE
  5
168EE
  8
0
 10
279.19257860123719
 20
62.750924671681439
 30
0.0
 11
279.19257860123719
 21
61.503539791671869
 31
0.0
  0
ARC
  5
168EF
  8
0
 10
284.69257860123707
 20
103.8035397916785
 30
0.0
 40
60.000000000006821
 50
272.62697685498631
 51
275.25949646441632
  0
ARC
  5
168F0
  8
0
 10
284.69257860123707
 20
103.8035397916785
 30
0.0
 40
60.000000000006821
 50
264.74050353558368
 51
267.3730231450138
  0
LINE
  5
168F1
  8
0
 10
290.19257860123707
 20
44.056154911662361
 30
0.0
 11
290.19257860123707
 21
45.303539791671938
 31
0.0
  0
LINE
  5
168F2
  8
0
 10
279.19257860123719
 20
45.303539791671938
 30
0.0
 11
279.19257860123719
 21
44.056154911662361
 31
0.0
  0
ARC
  5
168F3
  8
0
 10
284.69257860123707
 20
3.0035397916773259
 30
0.0
 40
59.999999999994593
 50
84.740503535583699
 51
90.0
  0
ARC
  5
168F4
  8
0
 10
284.69257860123707
 20
3.0035397916773259
 30
0.0
 40
59.999999999994593
 50
90.0
 51
95.259496464416316
  0
LINE
  5
168F5
  8
0
 10
288.69257860123707
 20
48.803539791672172
 30
0.0
 11
288.69257860123707
 21
49.853539791671999
 31
0.0
  0
LINE
  5
168F6
  8
0
 10
288.69257860123707
 20
56.953539791672029
 30
0.0
 11
288.69257860123707
 21
58.00353979167226
 31
0.0
  0
LINE
  5
168F7
  8
0
 10
280.69257860123707
 20
58.00353979167221
 30
0.0
 11
280.69257860123707
 21
56.953539791672029
 31
0.0
  0
LINE
  5
168F8
  8
0
 10
280.69257860123707
 20
49.853539791671999
 30
0.0
 11
280.69257860123707
 21
48.803539791672172
 31
0.0
  0
LINE
  5
168FA
  8
0
 10
187.60005588934899
 20
61.903539791672301
 30
0.0
 11
177.7851013131249
 21
61.903539791672301
 31
0.0
  0
LINE
  5
168FE
  8
0
 10
172.8776240250136
 20
53.403539791672983
 30
0.0
 11
177.78510131312501
 21
44.903539791672301
 31
0.0
  0
LINE
  5
16901
  8
0
 10
177.78510131312501
 20
44.903539791672351
 30
0.0
 11
187.60005588934899
 21
44.903539791672301
 31
0.0
  0
LINE
  5
16903
  8
0
 10
192.50753317746069
 20
53.403539791672301
 30
0.0
 11
187.60005588934899
 21
61.903539791672301
 31
0.0
  0
LINE
  5
16908
  8
0
 10
177.78510131312521
 20
61.903539791672301
 30
0.0
 11
172.8776240250132
 21
53.403539791672301
 31
0.0
  0
LINE
  5
1690B
  8
0
 10
187.60005588934899
 20
44.903539791672351
 30
0.0
 11
192.5075331774608
 21
53.403539791672301
 31
0.0
  0
ARC
  5
1690C
  8
0
 10
182.69257860123719
 20
53.40353979167196
 30
0.0
 40
10.000000000000011
 50
329.3361702576139
 51
30.663829742386099
  0
ARC
  5
1690D
  8
0
 10
182.69257860123739
 20
53.40353979167196
 30
0.0
 40
8.7298294077828356
 50
16.823654147224222
 51
35.74676596295518
  0
ARC
  5
1690E
  8
0
 10
182.69257860123739
 20
53.40353979167196
 30
0.0
 40
8.7298294077828338
 50
324.25323403704482
 51
343.17459224129351
  0
LINE
  5
16910
  8
0
 10
295.59257860123722
 20
62.750924671681332
 30
0.0
 11
279.19257860123719
 21
62.750924671681332
 31
0.0
  0
LINE
  5
16914
  8
0
 10
290.19257860123707
 20
45.303539791671817
 30
0.0
 11
295.59257860123722
 21
45.30353979167171
 31
0.0
  0
LINE
  5
16918
  8
0
 10
281.94257860123719
 20
43.866593756692623
 30
0.0
 11
292.8425786012383
 21
43.866593756692389
 31
0.0
  0
LINE
  5
16919
  8
0
 10
279.19257860123588
 20
44.056154911662361
 30
0.0
 11
295.59257860123722
 21
44.056154911662411
 31
0.0
  0
LINE
  5
1691B
  8
0
 10
247.69257860123719
 20
40.750231026002091
 30
0.0
 11
247.6925786012369
 21
66.056848557340743
 31
0.0
  0
POLYLINE
  5
1691C
  8
0
 66
     1
 10
0.0
 20
0.0
 30
0.0
 70
   128
  0
VERTEX
  5
170FB
  8
0
 10
248.1143802656471
 20
40.403539791671953
 30
0.0
  0
VERTEX
  5
170FC
  8
0
 10
247.88982114933771
 20
40.435606029765829
 30
0.0
  0
VERTEX
  5
170FD
  8
0
 10
247.7469214776562
 20
40.540536323949482
 30
0.0
  0
VERTEX
  5
170FE
  8
0
 10
247.70605882988411
 20
40.632903379468409
 30
0.0
  0
VERTEX
  5
170FF
  8
0
 10
247.69257860123719
 20
40.750231026002091
 30
0.0
  0
SEQEND
  5
17100
  8
0
  0
LINE
  5
1691E
  8
0
 10
171.69257860123719
 20
40.403539791671953
 30
0.0
 11
171.69257860123719
 21
46.40353979167196
 31
0.0
  0
ARC
  5
1691F
  8
0
 10
236.6925786012371
 20
53.403539791672081
 30
0.0
 40
5.1000000000000076
 50
270.0
 51
90.0
  0
LINE
  5
16920
  8
0
 10
189.56304680459371
 20
58.50353979167199
 30
0.0
 11
236.6925786012371
 21
58.50353979167199
 31
0.0
  0
LINE
  5
16921
  8
0
 10
236.6925786012371
 20
48.303539791672051
 30
0.0
 11
189.56304680459371
 21
48.303539791672051
 31
0.0
  0
LINE
  5
16922
  8
0
 10
171.69257860123719
 20
46.40353979167196
 30
0.0
 11
171.6925786012369
 21
60.40353979167196
 31
0.0
  0
LINE
  5
16924
  8
0
 10
171.6925786012369
 20
60.40353979167196
 30
0.0
 11
171.6925786012369
 21
66.40353979167196
 31
0.0
  0
POLYLINE
  5
16926
  8
0
 66
     1
 10
0.0
 20
0.0
 30
0.0
 70
   128
  0
VERTEX
  5
17101
  8
0
 10
247.69257860123719
 20
66.056848557341937
 30
0.0
  0
VERTEX
  5
17102
  8
0
 10
247.7326327666392
 20
66.243064975822222
 30
0.0
  0
VERTEX
  5
17103
  8
0
 10
247.86129053980059
 20
66.359927484982677
 30
0.0
  0
VERTEX
  5
17104
  8
0
 10
248.1143802656471
 20
66.40353979167196
 30
0.0
  0
SEQEND
  5
17105
  8
0
  0
ARC
  5
1692C
  8
0
 10
275.2925786012371
 20
63.453539791671567
 30
0.0
 40
9.999999999999563
 50
247.0002495772512
 51
267.6463375033988
  0
LINE
  5
1692D
  8
0
 10
270.95137789348121
 20
54.432664159537687
 30
0.0
 11
271.38530741306408
 21
54.248474237202913
 31
0.0
  0
LINE
  5
1692F
  8
0
 10
271.2531450278783
 20
57.805699805838117
 30
0.0
 11
270.95137789348121
 21
57.938951840843849
 31
0.0
  0
ARC
  5
16930
  8
0
 10
275.29257860123732
 20
66.953539791673279
 30
0.0
 40
10.00000000000132
 50
246.17507059114459
 51
270.0
  0
ARC
  5
16931
  8
0
 10
275.29257860123749
 20
39.853539791670073
 30
0.0
 40
10.000000000001901
 50
90.0
 51
113.8249294088554
  0
LINE
  5
16932
  8
0
 10
270.95137789348121
 20
48.868127742500072
 30
0.0
 11
271.2531450278783
 21
49.001379777505917
 31
0.0
  0
LINE
  5
16934
  8
0
 10
271.38530741306408
 20
52.558605346141
 30
0.0
 11
270.95137789348121
 21
52.374415423806219
 31
0.0
  0
ARC
  5
16935
  8
0
 10
275.29257860123698
 20
43.353539791673029
 30
0.0
 40
9.9999999999989893
 50
92.353662496601217
 51
112.9997504227487
  0
LINE
  5
16936
  8
0
 10
274.88190252598412
 20
53.461976092169493
 30
0.0
 11
274.88190252598412
 21
53.345103491174427
 31
0.0
  0
LINE
  5
16937
  8
0
 10
301.55550614347709
 20
56.953539791672029
 30
0.0
 11
275.2925786012371
 21
56.953539791672029
 31
0.0
  0
LINE
  5
16938
  8
0
 10
275.2925786012371
 20
49.853539791671999
 30
0.0
 11
301.55550614347709
 21
49.853539791672063
 31
0.0
  0
ARC
  5
1693C
  8
0
 10
249.67257860123729
 20
50.403539791671278
 30
0.0
 40
6.4999999999993188
 50
270.0
 51
292.99975042275611
  0
LINE
  5
1693D
  8
0
 10
252.6925786012371
 20
44.624108814573887
 30
0.0
 11
252.21230487354961
 21
44.420247181267086
 31
0.0
  0
ARC
  5
1693F
  8
0
 10
249.6725786012374
 20
50.403539791671278
 30
0.0
 40
9.9999999999993605
 50
270.0
 51
287.57776743324769
  0
LINE
  5
16940
  8
0
 10
249.67257860123721
 20
40.403539791671953
 30
0.0
 11
171.69257860123719
 21
40.403539791671953
 31
0.0
  0
LINE
  5
16941
  8
0
 10
249.67257860123721
 20
43.90353979167196
 30
0.0
 11
247.6925786012371
 21
43.90353979167196
 31
0.0
  0
LINE
  5
16942
  8
0
 10
171.6925786012369
 20
66.403539791672003
 30
0.0
 11
249.67257860123721
 21
66.40353979167196
 31
0.0
  0
ARC
  5
16943
  8
0
 10
249.67257860123709
 20
56.403539791672188
 30
0.0
 40
9.9999999999998295
 50
72.422232566752285
 51
90.0
  0
LINE
  5
16945
  8
0
 10
252.69257860123719
 20
62.182970768770019
 30
0.0
 11
252.21230487354961
 21
62.386832402076827
 31
0.0
  0
ARC
  5
16946
  8
0
 10
249.67257860123729
 20
56.403539791672188
 30
0.0
 40
6.4999999999997442
 50
67.000249577251239
 51
90.0
  0
LINE
  5
16947
  8
0
 10
247.6925786012371
 20
62.90353979167196
 30
0.0
 11
249.67257860123721
 21
62.90353979167196
 31
0.0
  0
LINE
  5
16949
  8
0
 10
266.73812745113378
 20
47.007672671560613
 30
0.0
 11
270.95137789348132
 21
48.868127742500072
 31
0.0
  0
LINE
  5
1694A
  8
0
 10
270.95137789348121
 20
52.37441542380634
 30
0.0
 11
266.73812745113378
 21
50.586018376058057
 31
0.0
  0
LINE
  5
1694C
  8
0
 10
270.95137789348121
 20
57.938951840843849
 30
0.0
 11
266.73812745113378
 21
59.799406911783308
 31
0.0
  0
LINE
  5
1694D
  8
0
 10
266.73812745113378
 20
56.22106120728585
 30
0.0
 11
270.95137789348121
 21
54.43266415953758
 31
0.0
  0
ARC
  5
16951
  8
0
 10
249.67257860123721
 20
50.40353979167196
 30
0.0
 40
10.000000000000011
 50
287.57776743324769
 51
293.82492940886272
  0
LINE
  5
16952
  8
0
 10
253.71201217459591
 20
41.255699805838042
 30
0.0
 11
266.73812745113378
 21
47.007672671560613
 31
0.0
  0
LINE
  5
16953
  8
0
 10
266.73812745113378
 20
50.586018376058057
 30
0.0
 11
252.69257860123719
 21
44.624108814573788
 31
0.0
  0
ARC
  5
16954
  8
0
 10
249.67257860123721
 20
56.40353979167196
 30
0.0
 40
9.9999999999999734
 50
66.175070591144618
 51
72.422232566752285
  0
LINE
  5
16955
  8
0
 10
266.73812745113378
 20
59.799406911783308
 30
0.0
 11
253.71201217459591
 21
65.551379777505872
 31
0.0
  0
LINE
  5
16956
  8
0
 10
252.69257860123719
 20
62.182970768770019
 30
0.0
 11
266.73812745113378
 21
56.22106120728585
 31
0.0
  0
CIRCLE
  5
16966
  8
0
 10
332.19257860123719
 20
204.983539791672
 30
0.0
 40
5.500000000000056
  0
CIRCLE
  5
16967
  8
0
 10
311.41832516862019
 20
224.5381241640028
 30
0.0
 40
5.500000000000008
  0
CIRCLE
  5
16968
  8
0
 10
284.6925786012373
 20
226.983539791672
 30
0.0
 40
5.5000000000000142
  0
ARC
  5
1696F
  8
0
 10
332.19257860123719
 20
204.983539791672
 30
0.0
 40
10.00000000000002
 50
304.42110235415589
 51
47.160999999999078
  0
LINE
  5
16970
  8
0
 10
338.99198441022543
 20
212.31621192703301
 30
0.0
 11
325.44832619997862
 21
224.87491175838269
 31
0.0
  0
ARC
  5
16971
  8
0
 10
311.55550614347737
 20
224.11978750048809
 30
0.0
 40
10.000000000000041
 50
191.99769890977629
 51
227.16099999999909
  0
LINE
  5
16972
  8
0
 10
304.75610033448919
 20
216.78711536512719
 30
0.0
 11
309.35216536734731
 21
212.52529774857231
 31
0.0
  0
ARC
  5
16973
  8
0
 10
273.19257860123719
 20
178.98353979167209
 30
0.0
 40
2.4999999999999538
 50
53.130102354155319
 51
90.0
  0
LINE
  5
16974
  8
0
 10
273.19257860123719
 20
181.483539791672
 30
0.0
 11
268.6925786012373
 21
181.483539791672
 31
0.0
  0
LINE
  5
16975
  8
0
 10
268.6925786012373
 20
211.483539791672
 30
0.0
 11
268.6925786012373
 21
181.483539791672
 31
0.0
  0
LINE
  5
16976
  8
0
 10
268.6925786012373
 20
211.483539791672
 30
0.0
 11
273.19257860123719
 21
211.483539791672
 31
0.0
  0
ARC
  5
16978
  8
0
 10
273.19257860123753
 20
213.9835397916718
 30
0.0
 40
2.4999999999997722
 50
269.99999999999682
 51
306.86989764584212
  0
LINE
  5
16979
  8
0
 10
321.79257860123732
 20
161.4035397916721
 30
0.0
 11
321.79257860123732
 21
163.40353979167199
 31
0.0
  0
ARC
  5
1697A
  8
0
 10
326.1925786012373
 20
163.40353979167199
 30
0.0
 40
4.4000000000000048
 50
0.0
 51
180.0
  0
ARC
  5
1697B
  8
0
 10
284.6925786012373
 20
161.4035397916721
 30
0.0
 40
4.400000000000019
 50
180.0
 51
0.0
  0
ARC
  5
1697C
  8
0
 10
284.6925786012373
 20
163.40353979167199
 30
0.0
 40
4.400000000000019
 50
0.0
 51
180.0
  0
LINE
  5
1697D
  8
0
 10
275.69257860123719
 20
228.983539791672
 30
0.0
 11
275.6925786012373
 21
213.98353979167189
 31
0.0
  0
ARC
  5
1697E
  8
0
 10
283.6925786012373
 20
228.983539791672
 30
0.0
 40
8.0000000000000142
 50
90.0
 51
180.0
  0
LINE
  5
1697F
  8
0
 10
285.49257860123731
 20
236.983539791672
 30
0.0
 11
283.6925786012373
 21
236.983539791672
 31
0.0
  0
ARC
  5
16980
  8
0
 10
285.49257860123731
 20
228.983539791672
 30
0.0
 40
8.0000000000000249
 50
42.000000000001009
 51
90.0
  0
ARC
  5
16981
  8
0
 10
293.6925786012373
 20
224.3599468196665
 30
0.0
 40
5.0000000000000098
 50
0.0
 51
21.717023724571931
  0
LINE
  5
16982
  8
0
 10
298.69257860123719
 20
220.983539791672
 30
0.0
 11
298.69257860123719
 21
224.3599468196665
 31
0.0
  0
LINE
  5
16983
  8
0
 10
332.03154117401562
 20
212.98191881163811
 30
0.0
 11
307.36368086766038
 21
212.485262082958
 31
0.0
  0
LINE
  5
16984
  8
0
 10
335.17503763495
 20
189.78734343994159
 30
0.0
 11
339.71011956752449
 21
202.24737864506659
 31
0.0
  0
LINE
  5
16985
  8
0
 10
334.6925786012373
 20
161.4035397916721
 30
0.0
 11
334.6925786012373
 21
187.05118229333621
 31
0.0
  0
ARC
  5
16986
  8
0
 10
283.6925786012373
 20
161.4035397916721
 30
0.0
 40
8.0000000000000142
 50
180.0
 51
270.0
  0
ARC
  5
16987
  8
0
 10
273.19257860123719
 20
178.983539791672
 30
0.0
 40
2.5
 50
0.0
 51
53.130102354157927
  0
LINE
  5
16988
  8
0
 10
275.69257860123719
 20
178.983539791672
 30
0.0
 11
275.69257860123719
 21
161.4035397916721
 31
0.0
  0
LINE
  5
16989
  8
0
 10
289.09257860123728
 20
163.40353979167199
 30
0.0
 11
289.09257860123728
 21
161.4035397916721
 31
0.0
  0
ARC
  5
1698A
  8
0
 10
342.69257860123753
 20
187.05118229333621
 30
0.0
 40
8.0000000000002007
 50
160.0000000000004
 51
180.0
  0
LINE
  5
1698B
  8
0
 10
293.8227879078994
 20
231.68771748346381
 30
0.0
 11
291.43773720505641
 21
234.3365846425429
 31
0.0
  0
LINE
  5
1698C
  8
0
 10
283.6925786012373
 20
153.40353979167199
 30
0.0
 11
326.6925786012373
 21
153.40353979167199
 31
0.0
  0
ARC
  5
1698D
  8
0
 10
326.1925786012373
 20
161.4035397916721
 30
0.0
 40
4.4000000000000048
 50
180.0
 51
0.0
  0
ARC
  5
1698E
  8
0
 10
332.19257860123719
 20
204.983539791672
 30
0.0
 40
8.0000000000000515
 50
340.00000000000051
 51
91.153423519671463
  0
LINE
  5
1698F
  8
0
 10
280.29257860123732
 20
161.4035397916721
 30
0.0
 11
280.29257860123732
 21
163.40353979167199
 31
0.0
  0
ARC
  5
16990
  8
0
 10
307.19257860123719
 20
220.983539791672
 30
0.0
 40
8.5000000000000071
 50
180.0
 51
271.15342351967149
  0
LINE
  5
16991
  8
0
 10
330.59257860123728
 20
163.40353979167199
 30
0.0
 11
330.59257860123728
 21
161.4035397916721
 31
0.0
  0
ARC
  5
16992
  8
0
 10
326.6925786012373
 20
161.4035397916721
 30
0.0
 40
8.0
 50
270.0
 51
0.0
  0
ARC
  5
16993
  8
0
 10
273.19257860123741
 20
213.98353979167189
 30
0.0
 40
2.4999999999999258
 50
306.86989764584212
 51
0.0
  0
LINE
  5
16994
  8
0
 10
326.6925786012373
 20
357.75459791951278
 30
0.0
 11
326.6925786012373
 21
356.5072130395032
 31
0.0
  0
LINE
  5
16995
  8
0
 10
337.6925786012373
 20
356.5072130395032
 30
0.0
 11
337.6925786012373
 21
357.75459791951278
 31
0.0
  0
ARC
  5
16996
  8
0
 10
332.1925786012373
 20
315.45459791950623
 30
0.0
 40
60.000000000006779
 50
92.626976854983042
 51
95.259496464413076
  0
ARC
  5
16997
  8
0
 10
332.1925786012373
 20
315.45459791950623
 30
0.0
 40
60.000000000006779
 50
84.740503535586924
 51
87.373023145016944
  0
LINE
  5
16998
  8
0
 10
326.6925786012373
 20
375.2019827995224
 30
0.0
 11
326.6925786012373
 21
373.95459791951282
 31
0.0
  0
LINE
  5
16999
  8
0
 10
337.6925786012373
 20
373.95459791951282
 30
0.0
 11
337.6925786012373
 21
375.2019827995224
 31
0.0
  0
ARC
  5
1699A
  8
0
 10
332.1925786012373
 20
416.25459791950738
 30
0.0
 40
59.999999999994593
 50
264.74050353558692
 51
270.0
  0
ARC
  5
1699B
  8
0
 10
332.1925786012373
 20
416.25459791950738
 30
0.0
 40
59.999999999994593
 50
270.0
 51
275.25949646441632
  0
LINE
  5
1699C
  8
0
 10
305.91832516862019
 20
357.75459791951278
 30
0.0
 11
305.91832516862019
 21
356.5072130395032
 31
0.0
  0
LINE
  5
1699D
  8
0
 10
316.91832516862019
 20
356.5072130395032
 30
0.0
 11
316.91832516862019
 21
357.75459791951278
 31
0.0
  0
ARC
  5
1699E
  8
0
 10
311.41832516862019
 20
315.45459791950611
 30
0.0
 40
60.000000000006779
 50
92.626976854983042
 51
95.259496464413076
  0
ARC
  5
1699F
  8
0
 10
311.41832516862019
 20
315.45459791950611
 30
0.0
 40
60.000000000006779
 50
84.740503535586924
 51
87.373023145016944
  0
LINE
  5
169A0
  8
0
 10
305.91832516862019
 20
375.20198279952228
 30
0.0
 11
305.91832516862019
 21
373.95459791951271
 31
0.0
  0
LINE
  5
169A1
  8
0
 10
316.91832516862019
 20
373.95459791951271
 30
0.0
 11
316.91832516862019
 21
375.20198279952228
 31
0.0
  0
ARC
  5
169A2
  8
0
 10
311.41832516862019
 20
416.25459791950732
 30
0.0
 40
59.999999999994628
 50
264.74050353558692
 51
270.0
  0
ARC
  5
169A3
  8
0
 10
311.41832516862019
 20
416.25459791950732
 30
0.0
 40
59.999999999994628
 50
270.0
 51
275.25949646441632
  0
LINE
  5
169B2
  8
0
 10
324.6925786012373
 20
369.5545979195129
 30
0.0
 11
324.89257860123718
 21
369.3545979195128
 31
0.0
  0
LINE
  5
169B3
  8
0
 10
339.49257860123731
 20
369.3545979195128
 30
0.0
 11
339.6925786012373
 21
369.5545979195129
 31
0.0
  0
LINE
  5
169B4
  8
0
 10
339.6925786012373
 20
369.5545979195129
 30
0.0
 11
339.6925786012373
 21
370.25459791951278
 31
0.0
  0
LINE
  5
169B5
  8
0
 10
324.6925786012373
 20
370.25459791951278
 30
0.0
 11
324.6925786012373
 21
369.5545979195129
 31
0.0
  0
LINE
  5
169B6
  8
0
 10
339.6925786012373
 20
370.25459791951278
 30
0.0
 11
339.49257860123731
 21
370.45459791951282
 31
0.0
  0
LINE
  5
169B7
  8
0
 10
324.89257860123718
 20
370.45459791951282
 30
0.0
 11
324.6925786012373
 21
370.25459791951278
 31
0.0
  0
LINE
  5
169B8
  8
0
 10
304.04604607349728
 20
369.55459791951267
 30
0.0
 11
304.19604607349743
 21
369.40459791951258
 31
0.0
  0
LINE
  5
169B9
  8
0
 10
318.84604607349729
 20
369.35459791951268
 30
0.0
 11
319.04604607349739
 21
369.55459791951267
 31
0.0
  0
LINE
  5
169BA
  8
0
 10
319.04604607349739
 20
370.25459791951278
 30
0.0
 11
318.84604607349729
 21
370.45459791951271
 31
0.0
  0
LINE
  5
169BB
  8
0
 10
304.24604607349733
 20
370.45459791951271
 30
0.0
 11
304.04604607349728
 21
370.25459791951278
 31
0.0
  0
LINE
  5
169BC
  8
0
 10
319.04604607349739
 20
369.55459791951267
 30
0.0
 11
319.04604607349739
 21
370.25459791951278
 31
0.0
  0
LINE
  5
169BD
  8
0
 10
304.04604607349728
 20
370.25459791951278
 30
0.0
 11
304.04604607349728
 21
369.55459791951267
 31
0.0
  0
LINE
  5
169C0
  8
0
 10
325.19257860123832
 20
361.50459791952471
 30
0.0
 11
325.44257860124111
 21
361.25459791947378
 31
0.0
  0
LINE
  5
169C1
  8
0
 10
325.1925786012373
 20
362.1045979195128
 30
0.0
 11
325.1925786012373
 21
361.50459791952471
 31
0.0
  0
LINE
  5
169C2
  8
0
 10
339.1925786012373
 20
361.50459791952471
 30
0.0
 11
339.1925786012373
 21
362.1045979195128
 31
0.0
  0
LINE
  5
169C3
  8
0
 10
339.19257860122087
 20
362.1045979195128
 30
0.0
 11
338.94257860119927
 21
362.35459791952587
 31
0.0
  0
LINE
  5
169C4
  8
0
 10
325.44257860127527
 20
362.35459791952587
 30
0.0
 11
325.1925786012535
 21
362.1045979195128
 31
0.0
  0
LINE
  5
169C5
  8
0
 10
338.94257860119927
 20
361.25459791946309
 30
0.0
 11
339.19257860126947
 21
361.50459791952471
 31
0.0
  0
LINE
  5
169C6
  8
0
 10
304.54604607345232
 20
361.5045979195246
 30
0.0
 11
304.79604607348818
 21
361.25459791947372
 31
0.0
  0
LINE
  5
169C7
  8
0
 10
304.54604607349739
 20
362.10459791951268
 30
0.0
 11
304.54604607349739
 21
361.5045979195246
 31
0.0
  0
LINE
  5
169C8
  8
0
 10
318.54604607349728
 20
361.5045979195246
 30
0.0
 11
318.54604607349728
 21
362.10459791951268
 31
0.0
  0
LINE
  5
169C9
  8
0
 10
318.54604607349393
 20
362.10459791951268
 30
0.0
 11
318.29604607345942
 21
362.35459791953861
 31
0.0
  0
LINE
  5
169CA
  8
0
 10
304.7460460735079
 20
362.30459791951279
 30
0.0
 11
304.54604607350092
 21
362.10459791951268
 31
0.0
  0
LINE
  5
169CB
  8
0
 10
318.29604607350637
 20
361.25459791947372
 30
0.0
 11
318.5460460735091
 21
361.5045979195246
 31
0.0
  0
LINE
  5
169CD
  8
0
 10
342.1925786012373
 20
362.3545979195128
 30
0.0
 11
342.1925786012373
 21
369.3545979195128
 31
0.0
  0
LINE
  5
169D0
  8
0
 10
326.6925786012373
 20
356.5072130395032
 30
0.0
 11
337.6925786012373
 21
356.5072130395032
 31
0.0
  0
LINE
  5
169D1
  8
0
 10
334.9425786012373
 20
375.39154395449208
 30
0.0
 11
329.44257860123719
 21
375.39154395449208
 31
0.0
  0
LINE
  5
169D2
  8
0
 10
337.6925786012373
 20
375.20198279952251
 30
0.0
 11
326.69257860123611
 21
375.2019827995224
 31
0.0
  0
LINE
  5
169D6
  8
0
 10
316.91760065960972
 20
356.5072130395032
 30
0.0
 11
316.91832516862019
 21
356.5072130395032
 31
0.0
  0
LINE
  5
169D7
  8
0
 10
305.91832516862019
 20
356.5072130395032
 30
0.0
 11
316.91760065960972
 21
356.5072130395032
 31
0.0
  0
LINE
  5
169D8
  8
0
 10
314.16832516862019
 20
375.39154395449202
 30
0.0
 11
308.66832516862007
 21
375.39154395449202
 31
0.0
  0
LINE
  5
169DA
  8
0
 10
316.91832516862138
 20
375.20198279952228
 30
0.0
 11
305.91832516862019
 21
375.20198279952228
 31
0.0
  0
LINE
  5
169E8
  8
0
 10
342.1925786012373
 20
369.35459791951263
 30
0.0
 11
317.59257860123728
 21
369.35459791951268
 31
0.0
  0
LINE
  5
169F9
  8
0
 10
342.1925786012373
 20
362.35459791951268
 30
0.0
 11
317.59257860123728
 21
362.35459791951268
 31
0.0
  0
POLYLINE
  5
16A26
  8
0
 66
     1
 10
0.0
 20
0.0
 30
0.0
 70
   128
  0
VERTEX
  5
17106
  8
0
 10
273.1925786012373
 20
373.76407293882392
 30
0.0
  0
VERTEX
  5
17107
  8
0
 10
273.96268494764172
 20
373.91003705146949
 30
0.0
  0
VERTEX
  5
17108
  8
0
 10
274.6925786012373
 20
373.95459791951282
 30
0.0
  0
SEQEND
  5
17109
  8
0
  0
ARC
  5
16A27
  8
0
 10
274.69257860123719
 20
367.95459791951288
 30
0.0
 40
2.499999999999801
 50
89.999999999996746
 51
126.869897645842
  0
ARC
  5
16A2B
  8
0
 10
274.6925786012373
 20
363.754597919513
 30
0.0
 40
6.0000000000002274
 50
255.52248781407371
 51
270.0
  0
ARC
  5
16A2D
  8
0
 10
274.69257860123707
 20
363.75459791951232
 30
0.0
 40
2.4999999999995728
 50
233.13010235415331
 51
270.0000000000033
  0
LINE
  5
16A3A
  8
0
 10
272.1925786012373
 20
365.31196348522019
 30
0.0
 11
272.1925786012373
 21
366.39723235380518
 31
0.0
  0
LINE
  5
16A3B
  8
0
 10
268.6925786012373
 20
367.84251408980799
 30
0.0
 11
268.6925786012373
 21
363.86668174921749
 31
0.0
  0
ARC
  5
16A3C
  8
0
 10
274.6925786012373
 20
363.75459791951278
 30
0.0
 40
2.5
 50
224.1343214591387
 51
233.13010235415791
  0
ARC
  5
16A3D
  8
0
 10
274.6925786012373
 20
367.95459791951282
 30
0.0
 40
2.5000000000000111
 50
126.869897645842
 51
135.8656785408705
  0
ARC
  5
16A3E
  8
0
 10
274.6925786012373
 20
367.95459791951282
 30
0.0
 40
6.000000000000024
 50
104.47751218593019
 51
149.31525917687861
  0
ARC
  5
16A3F
  8
0
 10
274.6925786012373
 20
363.75459791951278
 30
0.0
 40
5.9999999999999849
 50
210.68474082312139
 51
255.52248781406971
  0
LINE
  5
16A40
  8
0
 10
337.69257860123719
 20
61.503539791671983
 30
0.0
 11
337.69257860123719
 21
62.75092467168156
 31
0.0
  0
LINE
  5
16A41
  8
0
 10
326.69257860123707
 20
62.75092467168156
 30
0.0
 11
326.69257860123707
 21
61.503539791671983
 31
0.0
  0
ARC
  5
16A42
  8
0
 10
332.19257860123707
 20
103.8035397916786
 30
0.0
 40
60.000000000006793
 50
272.62697685498631
 51
275.25949646441632
  0
ARC
  5
16A43
  8
0
 10
332.19257860123707
 20
103.8035397916786
 30
0.0
 40
60.000000000006793
 50
264.74050353558692
 51
267.3730231450138
  0
LINE
  5
16A44
  8
0
 10
337.69257860123719
 20
44.056154911662468
 30
0.0
 11
337.69257860123719
 21
45.303539791672037
 31
0.0
  0
LINE
  5
16A45
  8
0
 10
326.69257860123707
 20
45.303539791672037
 30
0.0
 11
326.69257860123707
 21
44.056154911662468
 31
0.0
  0
ARC
  5
16A46
  8
0
 10
332.19257860123707
 20
3.00353979167744
 30
0.0
 40
59.999999999994593
 50
84.740503535586924
 51
90.0
  0
ARC
  5
16A47
  8
0
 10
332.19257860123707
 20
3.00353979167744
 30
0.0
 40
59.999999999994593
 50
90.0
 51
95.259496464413076
  0
LINE
  5
16A48
  8
0
 10
316.91832516862002
 20
61.503539791671983
 30
0.0
 11
316.91832516862002
 21
62.75092467168156
 31
0.0
  0
LINE
  5
16A49
  8
0
 10
305.91832516862002
 20
62.75092467168156
 30
0.0
 11
305.91832516862002
 21
61.503539791671983
 31
0.0
  0
ARC
  5
16A4A
  8
0
 10
311.41832516862002
 20
103.8035397916785
 30
0.0
 40
60.0000000000068
 50
272.62697685498631
 51
275.25949646441632
  0
ARC
  5
16A4B
  8
0
 10
311.41832516862002
 20
103.8035397916785
 30
0.0
 40
60.000000000006807
 50
264.74050353558692
 51
267.3730231450138
  0
LINE
  5
16A4C
  8
0
 10
316.91832516862002
 20
44.056154911662361
 30
0.0
 11
316.91832516862002
 21
45.303539791671938
 31
0.0
  0
LINE
  5
16A4D
  8
0
 10
305.91832516862002
 20
45.303539791671938
 30
0.0
 11
305.91832516862002
 21
44.056154911662361
 31
0.0
  0
ARC
  5
16A4E
  8
0
 10
311.41832516862002
 20
3.0035397916773832
 30
0.0
 40
59.999999999994593
 50
84.740503535586924
 51
90.0
  0
ARC
  5
16A4F
  8
0
 10
311.41832516862002
 20
3.0035397916773832
 30
0.0
 40
59.999999999994593
 50
90.0
 51
95.259496464413076
  0
LINE
  5
16A5A
  8
0
 10
339.69257860123719
 20
49.703539791672029
 30
0.0
 11
339.49257860123708
 21
49.90353979167196
 31
0.0
  0
LINE
  5
16A5B
  8
0
 10
324.89257860123712
 20
49.90353979167196
 30
0.0
 11
324.69257860123707
 21
49.703539791672029
 31
0.0
  0
LINE
  5
16A5C
  8
0
 10
324.69257860123707
 20
49.703539791672029
 30
0.0
 11
324.69257860123707
 21
49.003539791671983
 31
0.0
  0
LINE
  5
16A5D
  8
0
 10
339.69257860123707
 20
49.003539791671983
 30
0.0
 11
339.69257860123707
 21
49.703539791672029
 31
0.0
  0
LINE
  5
16A5E
  8
0
 10
324.69257860123707
 20
49.003539791671983
 30
0.0
 11
324.89257860123712
 21
48.803539791672051
 31
0.0
  0
LINE
  5
16A5F
  8
0
 10
339.49257860123708
 20
48.803539791672051
 30
0.0
 11
339.69257860123707
 21
49.003539791671983
 31
0.0
  0
LINE
  5
16A60
  8
0
 10
304.04604607349722
 20
49.703539791671922
 30
0.0
 11
304.04604607349722
 21
49.003539791671983
 31
0.0
  0
LINE
  5
16A61
  8
0
 10
319.04604607349722
 20
49.003539791671983
 30
0.0
 11
319.04604607349722
 21
49.703539791671922
 31
0.0
  0
LINE
  5
16A62
  8
0
 10
304.04604607349722
 20
49.003539791671983
 30
0.0
 11
304.24604607349721
 21
48.80353979167193
 31
0.0
  0
LINE
  5
16A63
  8
0
 10
318.84604607349718
 20
48.80353979167193
 30
0.0
 11
319.04604607349722
 21
49.003539791671983
 31
0.0
  0
LINE
  5
16A64
  8
0
 10
319.04604607349722
 20
49.703539791671922
 30
0.0
 11
318.84604607349718
 21
49.90353979167196
 31
0.0
  0
LINE
  5
16A65
  8
0
 10
304.24604607349721
 20
49.90353979167196
 30
0.0
 11
304.04604607349722
 21
49.703539791671922
 31
0.0
  0
LINE
  5
16A68
  8
0
 10
339.19257860126942
 20
57.75353979166016
 30
0.0
 11
338.9425786011991
 21
58.003539791721778
 31
0.0
  0
LINE
  5
16A69
  8
0
 10
339.19257860123707
 20
57.153539791672081
 30
0.0
 11
339.19257860123707
 21
57.75353979166016
 31
0.0
  0
LINE
  5
16A6A
  8
0
 10
325.19257860123707
 20
57.75353979166016
 30
0.0
 11
325.19257860123707
 21
57.153539791672081
 31
0.0
  0
LINE
  5
16A6B
  8
0
 10
325.1925786012535
 20
57.153539791672081
 30
0.0
 11
325.4425786012751
 21
56.903539791658879
 31
0.0
  0
LINE
  5
16A6C
  8
0
 10
338.9425786011991
 20
56.903539791658879
 30
0.0
 11
339.19257860122082
 21
57.153539791672081
 31
0.0
  0
LINE
  5
16A6D
  8
0
 10
325.44257860124083
 20
58.003539791711091
 30
0.0
 11
325.19257860123821
 21
57.75353979166016
 31
0.0
  0
LINE
  5
16A6E
  8
0
 10
318.54604607350899
 20
57.753539791660053
 30
0.0
 11
318.29604607350632
 21
58.003539791710978
 31
0.0
  0
LINE
  5
16A6F
  8
0
 10
318.54604607349722
 20
57.15353979167196
 30
0.0
 11
318.54604607349722
 21
57.753539791660053
 31
0.0
  0
LINE
  5
16A70
  8
0
 10
304.54604607349722
 20
57.753539791660053
 30
0.0
 11
304.54604607349722
 21
57.15353979167196
 31
0.0
  0
LINE
  5
16A71
  8
0
 10
304.54604607350069
 20
57.15353979167196
 30
0.0
 11
304.79604607353519
 21
56.90353979164604
 31
0.0
  0
LINE
  5
16A72
  8
0
 10
318.29604607345919
 20
56.90353979164604
 30
0.0
 11
318.5460460734937
 21
57.15353979167196
 31
0.0
  0
LINE
  5
16A73
  8
0
 10
304.79604607348813
 20
58.003539791710978
 30
0.0
 11
304.54604607345209
 21
57.753539791660053
 31
0.0
  0
LINE
  5
16A74
  8
0
 10
342.19257860123707
 20
49.903539791672067
 30
0.0
 11
342.19257860123707
 21
56.903539791672067
 31
0.0
  0
LINE
  5
16A75
  8
0
 10
301.55550614347709
 20
56.953539791672029
 30
0.0
 11
301.55550614347709
 21
49.853539791671892
 31
0.0
  0
LINE
  5
16A76
  8
0
 10
340.19257860123707
 20
45.303539791672037
 30
0.0
 11
340.19257860123707
 21
48.803539791672051
 31
0.0
  0
LINE
  5
16A77
  8
0
 10
340.19257860123707
 20
58.003539791671983
 30
0.0
 11
340.19257860123707
 21
61.503539791671983
 31
0.0
  0
LINE
  5
16A78
  8
0
 10
337.69257860123719
 20
62.75092467168156
 30
0.0
 11
326.69257860123707
 21
62.75092467168156
 31
0.0
  0
LINE
  5
16A79
  8
0
 10
332.19257860123707
 20
43.866593756692737
 30
0.0
 11
334.94257860123707
 21
43.866593756692737
 31
0.0
  0
LINE
  5
16A7A
  8
0
 10
329.44257860123707
 20
43.866593756692737
 30
0.0
 11
332.19257860123707
 21
43.866593756692737
 31
0.0
  0
LINE
  5
16A7B
  8
0
 10
326.69257860123588
 20
44.056154911662468
 30
0.0
 11
337.69257860123832
 21
44.056154911662468
 31
0.0
  0
LINE
  5
16A7C
  8
0
 10
316.91832516862002
 20
62.75092467168156
 30
0.0
 11
305.91832516862002
 21
62.75092467168156
 31
0.0
  0
LINE
  5
16A7D
  8
0
 10
311.46296000423712
 20
43.866593756692623
 30
0.0
 11
314.16832516862002
 21
43.866593756692623
 31
0.0
  0
LINE
  5
16A7E
  8
0
 10
308.66832516862002
 20
43.866593756692623
 30
0.0
 11
311.46296000423712
 21
43.866593756692623
 31
0.0
  0
LINE
  5
16A7F
  8
0
 10
305.91832516861882
 20
44.056154911662361
 30
0.0
 11
316.91832516862121
 21
44.056154911662361
 31
0.0
  0
LINE
  5
16A91
  8
0
 10
301.55550614347709
 20
49.90353979167196
 30
0.0
 11
342.19257860123707
 21
49.903539791672017
 31
0.0
  0
LINE
  5
16AA0
  8
0
 10
301.55550614347709
 20
56.90353979167196
 30
0.0
 11
342.19257860123707
 21
56.903539791672017
 31
0.0
  0
LINE
  5
16AA9
  8
0
 10
275.69257860123707
 20
45.303539791672158
 30
0.0
 11
275.69257860123707
 21
48.803539791672172
 31
0.0
  0
LINE
  5
16AB3
  8
0
 10
275.69257860123707
 20
58.00353979167221
 30
0.0
 11
275.69257860123707
 21
61.50353979167221
 31
0.0
  0
POLYLINE
  5
16AB6
  8
0
 66
     1
 10
0.0
 20
0.0
 30
0.0
 70
   128
  0
VERTEX
  5
1710A
  8
0
 10
274.69257860123707
 20
45.303539791672158
 30
0.0
  0
VERTEX
  5
1710B
  8
0
 10
273.9917353032339
 20
45.344612147234443
 30
0.0
  0
VERTEX
  5
1710C
  8
0
 10
273.19257860123719
 20
45.494064772360957
 30
0.0
  0
SEQEND
  5
1710D
  8
0
  0
ARC
  5
16AB8
  8
0
 10
274.69257860123707
 20
51.303539791672172
 30
0.0
 40
2.5
 50
233.13010235415791
 51
270.0
  0
LINE
  5
16AB9
  8
0
 10
371.87704963015813
 20
48.803539791672222
 30
0.0
 11
274.69257860123707
 21
48.803539791672172
 31
0.0
  0
LINE
  5
16ABA
  8
0
 10
371.87704963015813
 20
45.303539791672158
 30
0.0
 11
274.69257860123707
 21
45.303539791672158
 31
0.0
  0
ARC
  5
16ABB
  8
0
 10
274.69257860123719
 20
55.503539791671301
 30
0.0
 40
6.0000000000007878
 50
90.0
 51
104.4775121859294
  0
ARC
  5
16ABC
  8
0
 10
274.69257860123719
 20
55.50353979167209
 30
0.0
 40
2.5000000000000631
 50
90.0
 51
126.869897645842
  0
LINE
  5
16ABE
  8
0
 10
274.69257860123707
 20
61.503539791672097
 30
0.0
 11
371.87704963015813
 21
61.503539791672097
 31
0.0
  0
LINE
  5
16ABF
  8
0
 10
371.87704963015813
 20
58.00353979167209
 30
0.0
 11
274.69257860123707
 21
58.00353979167209
 31
0.0
  0
LINE
  5
16AC0
  8
0
 10
272.19257860123707
 20
52.860905357379472
 30
0.0
 11
272.19257860123707
 21
53.946174225964569
 31
0.0
  0
LINE
  5
16AC1
  8
0
 10
268.69257860123707
 20
55.391455961967146
 30
0.0
 11
268.69257860123707
 21
51.415623621376881
 31
0.0
  0
ARC
  5
16AC2
  8
0
 10
274.69257860123707
 20
55.50353979167209
 30
0.0
 40
2.5
 50
126.869897645842
 51
135.8656785408682
  0
ARC
  5
16AC3
  8
0
 10
274.69257860123707
 20
51.303539791672172
 30
0.0
 40
2.5000000000000022
 50
224.13432145914101
 51
233.13010235415791
  0
ARC
  5
16AC4
  8
0
 10
274.69257860123707
 20
55.50353979167209
 30
0.0
 40
5.9999999999999902
 50
104.47751218593019
 51
149.3152591768814
  0
ARC
  5
16AC5
  8
0
 10
274.69257860123707
 20
51.303539791672172
 30
0.0
 40
6.0
 50
210.68474082312139
 51
255.52248781406971
  0
LINE
  5
16AD6
  8
0
 10
79.792578601236869
 20
199.483539791672
 30
0.0
 11
81.039963481246446
 21
199.483539791672
 31
0.0
  0
LINE
  5
16AD7
  8
0
 10
81.039963481246446
 20
210.483539791672
 30
0.0
 11
80.192578582479712
 21
210.483539791672
 31
0.0
  0
ARC
  5
16AD8
  8
0
 10
122.0925786012434
 20
204.983539791672
 30
0.0
 40
60.000000000006793
 50
182.62697685498631
 51
185.25949646441629
  0
ARC
  5
16AD9
  8
0
 10
122.0925786012434
 20
204.983539791672
 30
0.0
 40
60.000000000006793
 50
174.74050353558371
 51
177.37302314501369
  0
LINE
  5
16ADA
  8
0
 10
62.345193721227297
 20
199.483539791672
 30
0.0
 11
63.59257860123688
 21
199.483539791672
 31
0.0
  0
LINE
  5
16ADB
  8
0
 10
63.192578590354451
 20
210.483539791672
 30
0.0
 11
62.345193721227297
 21
210.483539791672
 31
0.0
  0
ARC
  5
16ADC
  8
0
 10
21.292578601242269
 20
204.983539791672
 30
0.0
 40
59.999999999994593
 50
354.74050353558692
 51
0.0
  0
ARC
  5
16ADD
  8
0
 10
21.292578601242269
 20
204.983539791672
 30
0.0
 40
59.999999999994593
 50
0.0
 51
5.2594964644163156
  0
LINE
  5
16B00
  8
0
 10
81.039963481246446
 20
199.483539791672
 30
0.0
 11
81.039963481246446
 21
210.483539791672
 31
0.0
  0
LINE
  5
16B01
  8
0
 10
62.155632566257559
 20
207.733539791672
 30
0.0
 11
62.155632566257559
 21
202.233539791672
 31
0.0
  0
LINE
  5
16B02
  8
0
 10
62.345193721227297
 20
210.483539791672
 30
0.0
 11
62.345193721227297
 21
199.48353979167069
 31
0.0
  0
LINE
  5
16B27
  8
0
 10
64.392578582479985
 20
181.483539791672
 30
0.0
 11
63.783103581925957
 21
181.483539791672
 31
0.0
  0
POLYLINE
  5
16B28
  8
0
 66
     1
 10
0.0
 20
0.0
 30
0.0
 70
   128
  0
VERTEX
  5
1710E
  8
0
 10
63.592578601237108
 20
180.983539791672
 30
0.0
  0
VERTEX
  5
1710F
  8
0
 10
63.633650956799379
 20
181.3523683134637
 30
0.0
  0
VERTEX
  5
17110
  8
0
 10
63.783103581925957
 20
181.483539791672
 30
0.0
  0
SEQEND
  5
17111
  8
0
  0
LINE
  5
16B29
  8
0
 10
63.592578601237108
 20
208.99353979167179
 30
0.0
 11
63.592578601237108
 21
180.983539791672
 31
0.0
  0
POLYLINE
  5
16B30
  8
0
 66
     1
 10
0.0
 20
0.0
 30
0.0
 70
   128
  0
VERTEX
  5
17112
  8
0
 10
79.602053620548247
 20
181.483539791672
 30
0.0
  0
VERTEX
  5
17113
  8
0
 10
79.687468344470915
 20
181.45420688138461
 30
0.0
  0
VERTEX
  5
17114
  8
0
 10
79.748017733193763
 20
181.36197125278829
 30
0.0
  0
VERTEX
  5
17115
  8
0
 10
79.782034424041001
 20
181.20620583000411
 30
0.0
  0
VERTEX
  5
17116
  8
0
 10
79.792578601237096
 20
180.983539791672
 30
0.0
  0
SEQEND
  5
17117
  8
0
  0
LINE
  5
16B32
  8
0
 10
79.792578601237096
 20
180.983539791672
 30
0.0
 11
79.792578601237039
 21
208.99353979167211
 31
0.0
  0
LINE
  5
16B33
  8
0
 10
79.602053620548247
 20
181.483539791672
 30
0.0
 11
78.99257858247995
 21
181.483539791672
 31
0.0
  0
LINE
  5
16B49
  8
0
 10
67.092578601237093
 20
153.40353979167199
 30
0.0
 11
67.092578601237093
 21
175.09353979167179
 31
0.0
  0
LINE
  5
16B4A
  8
0
 10
63.592578601237108
 20
175.09353979167179
 30
0.0
 11
63.592578601237108
 21
153.40353979167199
 31
0.0
  0
LINE
  5
16B4B
  8
0
 10
63.592578601237051
 20
153.40353979167199
 30
0.0
 11
67.092578601237051
 21
153.40353979167199
 31
0.0
  0
LINE
  5
16B56
  8
0
 10
79.792578601237096
 20
175.0935397916719
 30
0.0
 11
79.792578601237153
 21
153.40353979167199
 31
0.0
  0
LINE
  5
16B57
  8
0
 10
76.292578601237096
 20
175.09353979167179
 30
0.0
 11
76.292578601237039
 21
153.40353979167199
 31
0.0
  0
LINE
  5
16B5A
  8
0
 10
79.792578601237039
 20
153.40353979167199
 30
0.0
 11
76.292578601237039
 21
153.40353979167199
 31
0.0
  0
LINE
  5
16B5D
  8
0
 10
543.24257858248097
 20
210.483539791672
 30
0.0
 11
541.9951937024714
 21
210.483539791672
 31
0.0
  0
LINE
  5
16B5E
  8
0
 10
541.9951937024714
 20
199.483539791672
 30
0.0
 11
543.24257858248097
 21
199.483539791672
 31
0.0
  0
ARC
  5
16B5F
  8
0
 10
500.94257858247448
 20
204.983539791672
 30
0.0
 40
60.000000000006779
 50
2.6269768549863111
 51
5.2594964644163156
  0
ARC
  5
16B60
  8
0
 10
500.94257858247448
 20
204.983539791672
 30
0.0
 40
60.000000000006779
 50
354.74050353558692
 51
357.37302314501687
  0
LINE
  5
16B61
  8
0
 10
560.68996346249071
 20
210.483539791672
 30
0.0
 11
559.44257858248113
 21
210.483539791672
 31
0.0
  0
LINE
  5
16B62
  8
0
 10
559.44257858248113
 20
199.483539791672
 30
0.0
 11
560.68996346249071
 21
199.483539791672
 31
0.0
  0
ARC
  5
16B63
  8
0
 10
601.74257858247574
 20
204.983539791672
 30
0.0
 40
59.999999999994571
 50
174.74050353558371
 51
180.0
  0
ARC
  5
16B64
  8
0
 10
601.74257858247574
 20
204.983539791672
 30
0.0
 40
59.999999999994571
 50
180.0
 51
185.25949646441629
  0
LINE
  5
16B65
  8
0
 10
543.24257858248109
 20
230.03812416400271
 30
0.0
 11
541.99519370247162
 21
230.03812416400271
 31
0.0
  0
LINE
  5
16B66
  8
0
 10
541.99519370247162
 20
219.03812416400271
 30
0.0
 11
543.24257858248109
 21
219.03812416400271
 31
0.0
  0
ARC
  5
16B67
  8
0
 10
500.9425785824746
 20
224.5381241640028
 30
0.0
 40
60.000000000006779
 50
2.6269768549863111
 51
5.2594964644163156
  0
ARC
  5
16B68
  8
0
 10
500.9425785824746
 20
224.5381241640028
 30
0.0
 40
60.000000000006779
 50
354.74050353558692
 51
357.37302314501687
  0
LINE
  5
16B69
  8
0
 10
560.68996346249082
 20
230.03812416400271
 30
0.0
 11
559.44257858248125
 21
230.03812416400271
 31
0.0
  0
LINE
  5
16B6A
  8
0
 10
559.44257858248125
 20
219.03812416400271
 30
0.0
 11
560.68996346249082
 21
219.03812416400271
 31
0.0
  0
ARC
  5
16B6B
  8
0
 10
601.74257858247574
 20
224.5381241640028
 30
0.0
 40
59.999999999994571
 50
174.74050353558371
 51
180.0
  0
ARC
  5
16B6C
  8
0
 10
601.74257858247574
 20
224.5381241640028
 30
0.0
 40
59.999999999994571
 50
180.0
 51
185.25949646441629
  0
LINE
  5
16B71
  8
0
 10
543.24257858248131
 20
232.483539791672
 30
0.0
 11
541.99519370247174
 21
232.483539791672
 31
0.0
  0
ARC
  5
16B72
  8
0
 10
500.9425785824746
 20
226.983539791672
 30
0.0
 40
60.0000000000068
 50
2.6269768549863111
 51
5.2594964644163156
  0
LINE
  5
16B73
  8
0
 10
560.68996346249094
 20
232.483539791672
 30
0.0
 11
559.44257858248125
 21
232.483539791672
 31
0.0
  0
ARC
  5
16B74
  8
0
 10
601.74257858247574
 20
226.983539791672
 30
0.0
 40
59.999999999994593
 50
174.74050353558371
 51
181.16768078410769
  0
LINE
  5
16B75
  8
0
 10
555.04257858248116
 20
212.483539791672
 30
0.0
 11
554.84257858248111
 21
212.2835397916721
 31
0.0
  0
LINE
  5
16B76
  8
0
 10
554.84257858248111
 20
197.68353979167199
 30
0.0
 11
555.04257858248116
 21
197.483539791672
 31
0.0
  0
LINE
  5
16B77
  8
0
 10
555.04257858248116
 20
197.483539791672
 30
0.0
 11
555.74257858248097
 21
197.483539791672
 31
0.0
  0
LINE
  5
16B78
  8
0
 10
555.74257858248097
 20
212.483539791672
 30
0.0
 11
555.04257858248116
 21
212.483539791672
 31
0.0
  0
LINE
  5
16B79
  8
0
 10
555.74257858248097
 20
197.483539791672
 30
0.0
 11
555.94257858248102
 21
197.68353979167199
 31
0.0
  0
LINE
  5
16B7A
  8
0
 10
555.94257858248102
 20
212.2835397916721
 30
0.0
 11
555.74257858248097
 21
212.483539791672
 31
0.0
  0
LINE
  5
16B7B
  8
0
 10
555.04257858248116
 20
216.61680296306369
 30
0.0
 11
555.74257858248109
 21
216.61680296306369
 31
0.0
  0
LINE
  5
16B7C
  8
0
 10
555.74257858248109
 20
231.61680296306369
 30
0.0
 11
555.04257858248116
 21
231.61680296306369
 31
0.0
  0
LINE
  5
16B7D
  8
0
 10
555.74257858248109
 20
216.61680296306369
 30
0.0
 11
555.94257858248125
 21
216.81680296306371
 31
0.0
  0
LINE
  5
16B7E
  8
0
 10
555.94257858248125
 20
231.4168029630637
 30
0.0
 11
555.74257858248109
 21
231.61680296306369
 31
0.0
  0
LINE
  5
16B7F
  8
0
 10
555.04257858248116
 20
231.61680296306369
 30
0.0
 11
554.84257858248122
 21
231.4168029630637
 31
0.0
  0
LINE
  5
16B80
  8
0
 10
554.84257858248122
 20
216.81680296306371
 30
0.0
 11
555.04257858248116
 21
216.61680296306369
 31
0.0
  0
LINE
  5
16B83
  8
0
 10
546.74257858243141
 20
198.23353979170989
 30
0.0
 11
546.99257858249302
 21
197.9835397916398
 31
0.0
  0
LINE
  5
16B84
  8
0
 10
547.59257858248111
 20
211.983539791672
 30
0.0
 11
546.99257858249302
 21
211.983539791672
 31
0.0
  0
LINE
  5
16B85
  8
0
 10
546.99257858249302
 20
197.983539791672
 30
0.0
 11
547.59257858248111
 21
197.983539791672
 31
0.0
  0
LINE
  5
16B86
  8
0
 10
547.59257858248111
 20
197.98353979168829
 30
0.0
 11
547.84257858249407
 21
198.23353979170989
 31
0.0
  0
LINE
  5
16B87
  8
0
 10
547.84257858249407
 20
211.733539791634
 30
0.0
 11
547.59257858248111
 21
211.9835397916558
 31
0.0
  0
LINE
  5
16B88
  8
0
 10
546.99257858249302
 20
211.98353979167101
 30
0.0
 11
546.74257858244209
 21
211.73353979166819
 31
0.0
  0
LINE
  5
16B89
  8
0
 10
546.74257858244209
 20
217.3668029630546
 30
0.0
 11
546.99257858249314
 21
217.1168029630519
 31
0.0
  0
LINE
  5
16B8A
  8
0
 10
547.59257858248122
 20
231.11680296306369
 30
0.0
 11
546.99257858249314
 21
231.11680296306369
 31
0.0
  0
LINE
  5
16B8B
  8
0
 10
546.99257858249314
 20
217.11680296306369
 30
0.0
 11
547.59257858248122
 21
217.11680296306369
 31
0.0
  0
LINE
  5
16B8C
  8
0
 10
547.59257858248122
 20
217.1168029630671
 30
0.0
 11
547.84257858250714
 21
217.36680296310169
 31
0.0
  0
LINE
  5
16B8D
  8
0
 10
547.84257858250714
 20
230.86680296302561
 30
0.0
 11
547.59257858248122
 21
231.11680296306019
 31
0.0
  0
LINE
  5
16B8E
  8
0
 10
546.99257858249314
 20
231.11680296310871
 30
0.0
 11
546.74257858244209
 21
230.86680296307279
 31
0.0
  0
LINE
  5
16B8F
  8
0
 10
547.84257858248111
 20
194.983539791672
 30
0.0
 11
554.84257858248111
 21
194.983539791672
 31
0.0
  0
LINE
  5
16B91
  8
0
 10
559.44257858248113
 20
212.983539791672
 30
0.0
 11
555.94257858248113
 21
212.983539791672
 31
0.0
  0
LINE
  5
16B92
  8
0
 10
546.74257858248097
 20
212.983539791672
 30
0.0
 11
543.24257858248097
 21
212.983539791672
 31
0.0
  0
LINE
  5
16B93
  8
0
 10
541.9951937024714
 20
210.48353979167189
 30
0.0
 11
541.9951937024714
 21
199.483539791672
 31
0.0
  0
LINE
  5
16B95
  8
0
 10
560.87952461746045
 20
202.233539791672
 30
0.0
 11
560.87952461746045
 21
207.733539791672
 31
0.0
  0
LINE
  5
16B96
  8
0
 10
560.68996346249071
 20
199.48353979167069
 30
0.0
 11
560.68996346249071
 21
210.483539791672
 31
0.0
  0
LINE
  5
16B98
  8
0
 10
541.99519370247162
 20
232.483539791672
 30
0.0
 11
541.99519370247162
 21
219.03812416400271
 31
0.0
  0
LINE
  5
16B9A
  8
0
 10
560.87952461746045
 20
221.78812416400271
 30
0.0
 11
560.87952461746056
 21
227.75121048150049
 31
0.0
  0
LINE
  5
16B9B
  8
0
 10
560.68996346249082
 20
219.03812416400149
 30
0.0
 11
560.68996346249082
 21
232.483539791672
 31
0.0
  0
LINE
  5
16B9E
  8
0
 10
560.87952461746056
 20
227.75121048150049
 30
0.0
 11
560.87952461746056
 21
229.733539791672
 31
0.0
  0
LINE
  5
16BAA
  8
0
 10
554.84257858248111
 20
194.983539791672
 30
0.0
 11
554.84257858248111
 21
233.36236467574699
 31
0.0
  0
LINE
  5
16BBA
  8
0
 10
547.84257858248111
 20
194.983539791672
 30
0.0
 11
547.84257858248111
 21
233.36236467574699
 31
0.0
  0
LINE
  5
16BC3
  8
0
 10
555.94257858248113
 20
212.983539791672
 30
0.0
 11
555.94257858248102
 21
153.40353979167199
 31
0.0
  0
LINE
  5
16BC4
  8
0
 10
559.44257858248091
 20
153.40353979167199
 30
0.0
 11
559.44257858248113
 21
212.983539791672
 31
0.0
  0
LINE
  5
16BC5
  8
0
 10
546.74257858248097
 20
153.40353979167199
 30
0.0
 11
546.74257858248097
 21
212.983539791672
 31
0.0
  0
LINE
  5
16BC7
  8
0
 10
543.24257858248086
 20
153.40353979167199
 30
0.0
 11
543.24257858248097
 21
212.983539791672
 31
0.0
  0
LINE
  5
16BD4
  8
0
 10
559.44257858248113
 20
153.40353979167199
 30
0.0
 11
555.94257858248113
 21
153.40353979167199
 31
0.0
  0
LINE
  5
16BDB
  8
0
 10
543.24257858248097
 20
153.40353979167199
 30
0.0
 11
546.74257858248097
 21
153.40353979167199
 31
0.0
  0
POLYLINE
  5
16BF2
  8
0
 66
     1
 10
0.0
 20
0.0
 30
0.0
 70
   128
  0
VERTEX
  5
17118
  8
0
 10
555.94257858248125
 20
180.983539791672
 30
0.0
  0
VERTEX
  5
17119
  8
0
 10
555.87950554183976
 20
181.29928477287251
 30
0.0
  0
VERTEX
  5
1711A
  8
0
 10
555.66453117961839
 20
181.45832537706781
 30
0.0
  0
VERTEX
  5
1711B
  8
0
 10
555.44257858248125
 20
181.483539791672
 30
0.0
  0
SEQEND
  5
1711C
  8
0
  0
POLYLINE
  5
16BF3
  8
0
 66
     1
 10
0.0
 20
0.0
 30
0.0
 70
   128
  0
VERTEX
  5
1711D
  8
0
 10
546.74257858248131
 20
211.983539791672
 30
0.0
  0
VERTEX
  5
1711E
  8
0
 10
546.75682624380295
 20
211.8090195690566
 30
0.0
  0
VERTEX
  5
1711F
  8
0
 10
546.77255725733892
 20
211.76351846655939
 30
0.0
  0
SEQEND
  5
17120
  8
0
  0
POLYLINE
  5
16BF4
  8
0
 66
     1
 10
0.0
 20
0.0
 30
0.0
 70
   128
  0
VERTEX
  5
17121
  8
0
 10
547.24257858248131
 20
181.483539791672
 30
0.0
  0
VERTEX
  5
17122
  8
0
 10
547.06805835986586
 20
181.46929213035011
 30
0.0
  0
VERTEX
  5
17123
  8
0
 10
546.9268336012808
 20
181.4204667510306
 30
0.0
  0
VERTEX
  5
17124
  8
0
 10
546.82872709035166
 20
181.3348314923891
 30
0.0
  0
VERTEX
  5
17125
  8
0
 10
546.76779299708551
 20
181.20549238880901
 30
0.0
  0
VERTEX
  5
17126
  8
0
 10
546.74862510680293
 20
181.1027647338062
 30
0.0
  0
VERTEX
  5
17127
  8
0
 10
546.74257858248131
 20
180.983539791672
 30
0.0
  0
SEQEND
  5
17128
  8
0
  0
LINE
  5
16BF5
  8
0
 10
555.44257858248125
 20
181.483539791672
 30
0.0
 11
547.24257858248131
 21
181.483539791672
 31
0.0
  0
ARC
  5
16C90
  8
0
 10
405.82113514386549
 20
140.53656431114209
 30
0.0
 40
125.318060337953
 50
89.761593855719667
 51
100.10090027749941
  0
ARC
  5
16C91
  8
0
 10
406.85770843040359
 20
140.46338797188849
 30
0.0
 40
125.39120994762411
 50
79.902123752309222
 51
90.235382114475215
  0
ARC
  5
16C92
  8
0
 10
406.82202360235681
 20
335.05995736146252
 30
0.0
 40
101.6975477287348
 50
269.72988260341612
 51
282.50529586908789
  0
ARC
  5
16C93
  8
0
 10
405.85451146101502
 20
334.9795117084505
 30
0.0
 40
101.6171440167699
 50
257.489628841826
 51
270.27519268566471
  0
LINE
  5
16C94
  8
0
 10
407.27918614749422
 20
253.863539791672
 30
0.0
 11
405.40597105498063
 21
253.863539791672
 31
0.0
  0
LINE
  5
16C95
  8
0
 10
407.27918614749422
 20
245.863539791672
 30
0.0
 11
407.27918614749422
 21
253.863539791672
 31
0.0
  0
LINE
  5
16C96
  8
0
 10
405.40597105498063
 20
245.863539791672
 30
0.0
 11
407.27918614749422
 21
245.863539791672
 31
0.0
  0
LINE
  5
16C97
  8
0
 10
405.40597105498063
 20
253.863539791672
 30
0.0
 11
405.40597105498063
 21
245.863539791672
 31
0.0
  0
LINE
  5
16C98
  8
0
 10
412.3384840052442
 20
245.863539791672
 30
0.0
 11
412.33848400524448
 21
253.863539791672
 31
0.0
  0
LINE
  5
16C99
  8
0
 10
410.4686133676185
 20
253.863539791672
 30
0.0
 11
410.4686133676185
 21
245.863539791672
 31
0.0
  0
LINE
  5
16C9A
  8
0
 10
410.4686133676185
 20
253.863539791672
 30
0.0
 11
412.33848400524448
 21
253.863539791672
 31
0.0
  0
LINE
  5
16C9B
  8
0
 10
410.4686133676185
 20
245.863539791672
 30
0.0
 11
412.3384840052442
 21
245.863539791672
 31
0.0
  0
LINE
  5
16C9C
  8
0
 10
402.21654383485691
 20
245.863539791672
 30
0.0
 11
402.21654383485702
 21
253.863539791672
 31
0.0
  0
LINE
  5
16C9D
  8
0
 10
400.34667319723059
 20
245.863539791672
 30
0.0
 11
402.21654383485691
 21
245.863539791672
 31
0.0
  0
LINE
  5
16C9E
  8
0
 10
400.34667319723059
 20
253.863539791672
 30
0.0
 11
400.34667319723059
 21
245.863539791672
 31
0.0
  0
LINE
  5
16C9F
  8
0
 10
400.34667319723059
 20
253.863539791672
 30
0.0
 11
402.21654383485702
 21
253.863539791672
 31
0.0
  0
LINE
  5
16CA0
  8
0
 10
417.38382052907798
 20
245.863539791672
 30
0.0
 11
417.38382052907838
 21
253.863539791672
 31
0.0
  0
LINE
  5
16CA1
  8
0
 10
415.52399112586482
 20
245.863539791672
 30
0.0
 11
417.38382052907798
 21
245.863539791672
 31
0.0
  0
LINE
  5
16CA2
  8
0
 10
415.52399112586482
 20
253.863539791672
 30
0.0
 11
415.52399112586482
 21
245.863539791672
 31
0.0
  0
LINE
  5
16CA3
  8
0
 10
415.52399112586482
 20
253.863539791672
 30
0.0
 11
417.38382052907838
 21
253.863539791672
 31
0.0
  0
LINE
  5
16CA4
  8
0
 10
397.16116607661041
 20
245.863539791672
 30
0.0
 11
397.16116607661053
 21
253.863539791672
 31
0.0
  0
LINE
  5
16CA5
  8
0
 10
395.30133667339658
 20
253.863539791672
 30
0.0
 11
395.30133667339658
 21
245.863539791672
 31
0.0
  0
LINE
  5
16CA6
  8
0
 10
395.30133667339658
 20
253.863539791672
 30
0.0
 11
397.16116607661053
 21
253.863539791672
 31
0.0
  0
LINE
  5
16CA7
  8
0
 10
395.30133667339658
 20
245.863539791672
 30
0.0
 11
397.16116607661041
 21
245.863539791672
 31
0.0
  0
LINE
  5
16CB8
  8
0
 10
422.43301795165178
 20
245.863539791672
 30
0.0
 11
422.43301795165149
 21
253.863539791672
 31
0.0
  0
LINE
  5
16CB9
  8
0
 10
420.59006530691192
 20
245.863539791672
 30
0.0
 11
422.43301795165178
 21
245.863539791672
 31
0.0
  0
LINE
  5
16CBA
  8
0
 10
420.59006530691192
 20
253.863539791672
 30
0.0
 11
420.59006530691192
 21
245.863539791672
 31
0.0
  0
LINE
  5
16CBB
  8
0
 10
420.59006530691192
 20
253.863539791672
 30
0.0
 11
422.43301795165149
 21
253.863539791672
 31
0.0
  0
ARC
  5
16CC0
  8
0
 10
424.14222706349398
 20
271.40911896484619
 30
0.0
 40
35.942702425914248
 50
277.51428985234122
 51
306.08852912036332
  0
ARC
  5
16CC1
  8
0
 10
420.11324044341751
 20
208.5743387396997
 30
0.0
 40
56.022187873003482
 50
63.26719900833875
 51
81.035683892093445
  0
ARC
  5
16CC4
  8
0
 10
388.5406630297839
 20
271.40345119185309
 30
0.0
 40
35.93678688005032
 50
233.90906907961559
 51
262.48811194768439
  0
ARC
  5
16CC5
  8
0
 10
392.5736904891653
 20
208.56883026110211
 30
0.0
 40
56.027905457225359
 50
98.965230070323585
 51
116.7318870292426
  0
ARC
  5
16CC8
  8
0
 10
439.78663932408568
 20
252.58526713591041
 30
0.0
 40
11.62034208966668
 50
298.40093289566352
 51
353.96494301571232
  0
ARC
  5
16CC9
  8
0
 10
442.02886470596587
 20
249.7441501725057
 30
0.0
 40
9.4534485380534772
 50
9.8634978158677367
 51
69.66691811768851
  0
ARC
  5
16CCA
  8
0
 10
372.89848039482831
 20
252.58524202668471
 30
0.0
 40
11.620302173959891
 50
222.02810183122619
 51
241.5991707919805
  0
LINE
  5
16CCB
  8
0
 10
364.2667276476696
 20
253.86353979167191
 30
0.0
 11
364.26672764766931
 21
244.80550764008461
 31
0.0
  0
ARC
  5
16CCD
  8
0
 10
370.43769855445601
 20
250.00828267713231
 30
0.0
 40
9.1305198087972599
 50
109.6227555995692
 51
155.02400490040111
  0
LINE
  5
16CD0
  8
0
 10
346.95077984937132
 20
239.86353979167191
 30
0.0
 11
371.340838995257
 21
239.86353979167191
 31
0.0
  0
ARC
  5
16CD1
  8
0
 10
346.9507798493712
 20
229.863539791672
 30
0.0
 40
9.9999999999999538
 50
90.0
 51
130.00000000000259
  0
LINE
  5
16CD2
  8
0
 10
317.02766708841631
 20
217.8091398036012
 30
0.0
 11
340.52290375250578
 21
237.52398422286171
 31
0.0
  0
ARC
  5
16CD3
  8
0
 10
311.24257860123743
 20
224.70353979167189
 30
0.0
 40
9.0000000000000213
 50
219.4967138501305
 51
310.00000000000261
  0
LINE
  5
16CD4
  8
0
 10
283.1476290267255
 20
244.6392341213319
 30
0.0
 11
304.29762902672547
 21
218.9792341213319
 31
0.0
  0
ARC
  5
16CD5
  8
0
 10
290.09257860123728
 20
250.363539791672
 30
0.0
 40
9.0000000000000036
 50
71.609999999998422
 51
219.4967138501305
  0
LINE
  5
16CD6
  8
0
 10
306.55662092113818
 20
254.37422890825431
 30
0.0
 11
292.93192939954668
 21
258.90391958674769
 31
0.0
  0
ARC
  5
16CD7
  8
0
 10
309.71145514148191
 20
263.86353979167171
 30
0.0
 40
9.9999999999999147
 50
251.60999999999851
 51
270.0
  0
LINE
  5
16CD8
  8
0
 10
364.2667276476696
 20
253.863539791672
 30
0.0
 11
309.71145514148191
 21
253.86353979167171
 31
0.0
  0
LINE
  5
16CD9
  8
0
 10
312.59257860123739
 20
255.263539791672
 30
0.0
 11
317.59257860123728
 21
255.263539791672
 31
0.0
  0
LINE
  5
16CDA
  8
0
 10
312.59257860123739
 20
255.26353979167189
 30
0.0
 11
312.59257860123739
 21
253.86353979167191
 31
0.0
  0
LINE
  5
16CDB
  8
0
 10
317.59257860123739
 20
253.863539791672
 30
0.0
 11
317.59257860123739
 21
255.263539791672
 31
0.0
  0
LINE
  5
16D13
  8
0
 10
312.59257860123739
 20
369.35459791951268
 30
0.0
 11
311.58274939208451
 21
369.35459791951268
 31
0.0
  0
LINE
  5
16D14
  8
0
 10
312.59257860123739
 20
362.35459791951268
 30
0.0
 11
311.58274939208451
 21
362.35459791951268
 31
0.0
  0
LINE
  5
16D15
  8
0
 10
275.6925786012373
 20
357.75459791951209
 30
0.0
 11
275.6925786012373
 21
361.25459791951278
 31
0.0
  0
LINE
  5
16D16
  8
0
 10
275.6925786012373
 20
370.45459791951282
 30
0.0
 11
275.6925786012373
 21
373.95459791951271
 31
0.0
  0
LINE
  5
16DCC
  8
0
 10
546.74257858248097
 20
180.99353979167211
 30
0.0
 11
555.94257858248102
 21
180.99353979167211
 31
0.0
  0
ARC
  5
16DCD
  8
0
 10
547.23735892304455
 20
202.64820439501059
 30
0.0
 40
27.555044960033829
 50
268.97113762883657
 51
269.69895383400592
  0
LINE
  5
16DCE
  8
0
 10
546.74257858248097
 20
175.09353979167199
 30
0.0
 11
555.94257858248102
 21
175.09353979167491
 31
0.0
  0
LINE
  5
16DCF
  8
0
 10
559.44257858248113
 20
180.99353979167211
 30
0.0
 11
559.84257858248134
 21
180.99353979167211
 31
0.0
  0
ARC
  5
16DD0
  8
0
 10
555.44718801161036
 20
202.65556510150009
 30
0.0
 40
27.562408777131509
 50
278.33484479979307
 51
279.1761623612062
  0
LINE
  5
16DD1
  8
0
 10
559.44257858248113
 20
175.09353979167199
 30
0.0
 11
559.84257858248134
 21
175.09353979167199
 31
0.0
  0
LINE
  5
16DD8
  8
0
 10
547.84257858248111
 20
213.99353979167239
 30
0.0
 11
542.84257858248145
 21
213.99353979167239
 31
0.0
  0
LINE
  5
16DE9
  8
0
 10
334.69257860123707
 20
61.50353979167204
 30
0.0
 11
334.69257860123707
 21
58.00353979167221
 31
0.0
  0
LINE
  5
16DEA
  8
0
 10
334.69257860123707
 20
48.803539791672101
 30
0.0
 11
334.69257860123707
 21
45.303539791672037
 31
0.0
  0
ARC
  5
16E12
  8
0
 10
417.5835854336471
 20
388.0560009987031
 30
0.0
 40
0.200000000000023
 50
182.77835206365319
 51
262.37999531430631
  0
ARC
  5
16E13
  8
0
 10
412.5373112833866
 20
388.57795513741559
 30
0.0
 40
0.2000000000021387
 50
186.207726608689
 51
265.80939005157899
  0
ARC
  5
16E14
  8
0
 10
400.14784591908682
 20
388.57795513741581
 30
0.0
 40
0.2000000000023755
 50
274.19062004488131
 51
353.79227339132098
  0
ARC
  5
16E15
  8
0
 10
395.10157177172022
 20
388.0560010583315
 30
0.0
 40
0.2000000000001306
 50
277.61999161506088
 51
357.22163083397959
  0
ARC
  5
16E16
  8
0
 10
407.47636668354801
 20
342.91218018537819
 30
0.0
 40
0.2000000000000075
 50
90.766325495420887
 51
170.3679788424613
  0
ARC
  5
16E17
  8
0
 10
405.20879051892632
 20
342.91218018537819
 30
0.0
 40
0.2000000000001609
 50
9.6320211575386985
 51
89.233689793961261
  0
ARC
  5
16E18
  8
0
 10
406.34257860123768
 20
343.10459791951291
 30
0.0
 40
0.9500000000002431
 50
189.63202115753859
 51
350.3679788424613
  0
ARC
  5
16E19
  8
0
 10
410.2737836694152
 20
342.99579918963911
 30
0.0
 40
0.2000000000021387
 50
13.05631570705888
 51
92.657979149946684
  0
ARC
  5
16E1A
  8
0
 10
411.3940544340731
 20
343.25559413542749
 30
0.0
 40
0.9500000000006368
 50
193.05631570676491
 51
353.79227339159621
  0
ARC
  5
16E1B
  8
0
 10
402.41137353305999
 20
342.99579918963911
 30
0.0
 40
0.2000000000023755
 50
87.342030946520495
 51
166.94368429295449
  0
ARC
  5
16E1C
  8
0
 10
401.29110276840129
 20
343.25559413542749
 30
0.0
 40
0.9500000000004725
 50
186.20772660840379
 51
346.94368429323498
  0
ARC
  5
16E1D
  8
0
 10
415.33221299817887
 20
343.3825958396373
 30
0.0
 40
0.200000000000023
 50
16.48569025142119
 51
96.087333502069384
  0
ARC
  5
16E1E
  8
0
 10
416.43493723237168
 20
343.70893808839332
 30
0.0
 40
0.9500000000002369
 50
196.4856902514212
 51
357.22164793634681
  0
ARC
  5
16E1F
  8
0
 10
397.35294420429631
 20
343.3825958396373
 30
0.0
 40
0.2000000000001306
 50
83.912656401637733
 51
163.5142956205496
  0
ARC
  5
16E20
  8
0
 10
396.25021997010282
 20
343.70893808839332
 30
0.0
 40
0.9500000000001873
 50
182.77835206365319
 51
343.5143127229216
  0
ARC
  5
16E21
  8
0
 10
422.63300382845159
 20
344.48456033084568
 30
0.0
 40
0.2000000000004996
 50
101.07925985977791
 51
180.6809132066868
  0
ARC
  5
16E22
  8
0
 10
420.40206115323952
 20
344.07860905017009
 30
0.0
 40
0.2000000000000308
 50
19.944955521776301
 51
99.546608868734396
  0
ARC
  5
16E23
  8
0
 10
421.48308503685638
 20
344.47089384856213
 30
0.0
 40
0.9500000000002827
 50
199.94495552174851
 51
0.6809132066738181
  0
ARC
  5
16E24
  8
0
 10
417.5835854336471
 20
343.6531948403225
 30
0.0
 40
0.200000000000023
 50
97.620004685693701
 51
177.2216479363467
  0
ARC
  5
16E25
  8
0
 10
412.5373112833866
 20
343.13124070161012
 30
0.0
 40
0.2000000000021387
 50
94.190609948420942
 51
173.7922733913077
  0
ARC
  5
16E26
  8
0
 10
400.14784591908682
 20
343.13124070160978
 30
0.0
 40
0.2000000000023755
 50
6.2077266086789749
 51
85.8093799551187
  0
ARC
  5
16E27
  8
0
 10
395.10157177172022
 20
343.65319478069409
 30
0.0
 40
0.2000000000001306
 50
2.7783691660171348
 51
82.380008384939146
  0
LINE
  5
16E3B
  8
1
 10
456.34505920144289
 20
365.85459791951268
 30
0.0
 11
166.69257860123699
 21
365.85459791951268
 31
0.0
  0
LINE
  5
16E3C
  8
1
 10
182.69257860123719
 20
353.75459791951278
 30
0.0
 11
182.69257860123719
 21
377.95459791951259
 31
0.0
  0
CIRCLE
  5
16E3D
  8
0
 10
182.6925786012375
 20
365.85459791951268
 30
0.0
 40
5.0
  0
CIRCLE
  5
16E3E
  8
3
 10
182.6925786012375
 20
365.85459791951268
 30
0.0
 40
4.1879999999999988
  0
LINE
  5
16E44
  8
1
 10
236.6925786012373
 20
357.75459791951261
 30
0.0
 11
236.6925786012373
 21
373.95459791951271
 31
0.0
  0
ARC
  5
16E5E
  8
0
 10
407.47636668354522
 20
76.34595752573972
 30
0.0
 40
0.2000000000000075
 50
189.63202115753859
 51
269.23367450457908
  0
ARC
  5
16E5F
  8
0
 10
405.20879051892348
 20
76.34595752573972
 30
0.0
 40
0.2000000000001609
 50
270.76631020603872
 51
350.36797884246772
  0
ARC
  5
16E60
  8
0
 10
406.34257860123489
 20
76.153539791605056
 30
0.0
 40
0.9500000000002431
 50
9.6320211575419101
 51
170.36797884246451
  0
ARC
  5
16E61
  8
0
 10
410.27378366941241
 20
76.262338521478853
 30
0.0
 40
0.2000000000021387
 50
267.34202085005319
 51
346.9436842929411
  0
ARC
  5
16E62
  8
0
 10
411.39405443407043
 20
76.002543575690481
 30
0.0
 40
0.9500000000006368
 50
6.207726608400594
 51
166.9436842932318
  0
ARC
  5
16E63
  8
0
 10
402.41137353305737
 20
76.262338521478853
 30
0.0
 40
0.2000000000023755
 50
193.05631570703909
 51
272.65796905347952
  0
ARC
  5
16E64
  8
0
 10
401.2911027683985
 20
76.002543575690481
 30
0.0
 40
0.9500000000004725
 50
13.05631570676106
 51
173.79227339159939
  0
ARC
  5
16E65
  8
0
 10
415.3322129981762
 20
75.875541871480607
 30
0.0
 40
0.200000000000023
 50
263.91266649793062
 51
343.5143097485859
  0
ARC
  5
16E66
  8
0
 10
416.4349372323689
 20
75.549199622724643
 30
0.0
 40
0.9500000000002369
 50
2.7783520636532808
 51
163.51430974858189
  0
ARC
  5
16E67
  8
0
 10
397.35294420429352
 20
75.875541871480607
 30
0.0
 40
0.2000000000001306
 50
196.48570437944309
 51
276.08734359836228
  0
ARC
  5
16E68
  8
0
 10
396.25021997009998
 20
75.549199622724643
 30
0.0
 40
0.9500000000001873
 50
16.485687277081549
 51
177.2216479363434
  0
ARC
  5
16E69
  8
0
 10
422.63300382844898
 20
74.773577380272215
 30
0.0
 40
0.2000000000004996
 50
179.31908679331309
 51
258.92074014022211
  0
ARC
  5
16E6A
  8
0
 10
420.40206115323667
 20
75.179528660947824
 30
0.0
 40
0.2000000000000308
 50
260.45339113126562
 51
340.05504447822369
  0
ARC
  5
16E6B
  8
0
 10
421.48308503685371
 20
74.78724386255584
 30
0.0
 40
0.9500000000002827
 50
359.31908679332292
 51
160.0550444782576
  0
ARC
  5
16E6C
  8
0
 10
417.58358543364437
 20
75.604942870795469
 30
0.0
 40
0.200000000000023
 50
182.77835206365319
 51
262.37999531430631
  0
ARC
  5
16E6D
  8
0
 10
412.53731128338387
 20
76.1268970095079
 30
0.0
 40
0.2000000000021387
 50
186.207726608689
 51
265.80939005157899
  0
ARC
  5
16E6E
  8
0
 10
400.1478459190842
 20
76.126897009508127
 30
0.0
 40
0.2000000000023755
 50
274.19062004488131
 51
353.79227339132098
  0
ARC
  5
16E6F
  8
0
 10
395.10157177171749
 20
75.604942930423874
 30
0.0
 40
0.2000000000001306
 50
277.61999161506088
 51
357.22163083397959
  0
ARC
  5
16E70
  8
0
 10
407.47636668354522
 20
30.461122057470622
 30
0.0
 40
0.2000000000000075
 50
90.766325495420887
 51
170.3679788424613
  0
ARC
  5
16E71
  8
0
 10
405.20879051892348
 20
30.461122057470622
 30
0.0
 40
0.2000000000001609
 50
9.6320211575386985
 51
89.233689793961261
  0
ARC
  5
16E72
  8
0
 10
406.34257860123489
 20
30.65353979160529
 30
0.0
 40
0.9500000000002431
 50
189.63202115753859
 51
350.3679788424613
  0
ARC
  5
16E73
  8
0
 10
410.27378366941241
 20
30.544741061731489
 30
0.0
 40
0.2000000000021387
 50
13.05631570705888
 51
92.657979149946684
  0
ARC
  5
16E74
  8
0
 10
411.39405443407043
 20
30.804536007519861
 30
0.0
 40
0.9500000000006368
 50
193.05631570676491
 51
353.79227339159621
  0
ARC
  5
16E75
  8
0
 10
402.41137353305737
 20
30.544741061731489
 30
0.0
 40
0.2000000000023755
 50
87.342030946520495
 51
166.94368429295449
  0
ARC
  5
16E76
  8
0
 10
401.2911027683985
 20
30.804536007519861
 30
0.0
 40
0.9500000000004725
 50
186.20772660840379
 51
346.94368429323498
  0
ARC
  5
16E77
  8
0
 10
415.3322129981762
 20
30.931537711729732
 30
0.0
 40
0.200000000000023
 50
16.48569025142119
 51
96.087333502069384
  0
ARC
  5
16E78
  8
0
 10
416.4349372323689
 20
31.257879960485699
 30
0.0
 40
0.9500000000002369
 50
196.4856902514212
 51
357.22164793634681
  0
ARC
  5
16E79
  8
0
 10
397.35294420429352
 20
30.931537711729732
 30
0.0
 40
0.2000000000001306
 50
83.912656401637733
 51
163.5142956205496
  0
ARC
  5
16E7A
  8
0
 10
396.25021997009998
 20
31.257879960485699
 30
0.0
 40
0.9500000000001873
 50
182.77835206365319
 51
343.5143127229216
  0
ARC
  5
16E7B
  8
0
 10
422.63300382844898
 20
32.033502202938109
 30
0.0
 40
0.2000000000004996
 50
101.07925985977791
 51
180.6809132066868
  0
ARC
  5
16E7C
  8
0
 10
420.40206115323667
 20
31.627550922262522
 30
0.0
 40
0.2000000000000308
 50
19.944955521776301
 51
99.546608868734396
  0
ARC
  5
16E7D
  8
0
 10
421.48308503685371
 20
32.019835720654498
 30
0.0
 40
0.9500000000002827
 50
199.94495552174851
 51
0.6809132066738181
  0
ARC
  5
16E7E
  8
0
 10
417.58358543364437
 20
31.20213671241487
 30
0.0
 40
0.200000000000023
 50
97.620004685693701
 51
177.2216479363467
  0
ARC
  5
16E7F
  8
0
 10
412.53731128338387
 20
30.680182573702439
 30
0.0
 40
0.2000000000021387
 50
94.190609948420942
 51
173.7922733913077
  0
ARC
  5
16E80
  8
0
 10
400.1478459190842
 20
30.680182573702211
 30
0.0
 40
0.2000000000023755
 50
6.2077266086789749
 51
85.8093799551187
  0
ARC
  5
16E81
  8
0
 10
395.10157177171749
 20
31.202136652786461
 30
0.0
 40
0.2000000000001306
 50
2.7783691660171348
 51
82.380008384939146
  0
CIRCLE
  5
16E97
  8
0
 10
182.6925786012369
 20
53.403539791672301
 30
0.0
 40
8.5000000000001972
  0
LINE
  5
16E9F
  8
1
 10
456.34505920144278
 20
53.403539791672081
 30
0.0
 11
166.6925786012369
 21
53.403539791672081
 31
0.0
  0
LINE
  5
16EA0
  8
1
 10
182.69257860123699
 20
41.303539791672172
 30
0.0
 11
182.69257860123699
 21
65.503539791671983
 31
0.0
  0
LINE
  5
16EA1
  8
1
 10
236.6925786012371
 20
45.303539791672037
 30
0.0
 11
236.6925786012371
 21
61.503539791672097
 31
0.0
  0
LINE
  5
16EAE
  8
0
 10
67.09257859741615
 20
255.263539791672
 30
0.0
 11
68.142114916555101
 21
255.263539791672
 31
0.0
  0
LINE
  5
16EAF
  8
0
 10
75.243042248403583
 20
255.263539791672
 30
0.0
 11
76.292578597416195
 21
255.263539791672
 31
0.0
  0
LINE
  5
16EC5
  8
3
 10
178.50457860123751
 20
181.49353979167199
 30
0.0
 11
178.50457860123751
 21
208.9935397916725
 31
0.0
  0
LINE
  5
16EC6
  8
3
 10
186.88057860123749
 20
181.49353979167199
 30
0.0
 11
186.88057860123749
 21
208.99353979167199
 31
0.0
  0
LINE
  5
16ECF
  8
3
 10
186.88057860123749
 20
233.1767616313879
 30
0.0
 11
186.88057860123749
 21
236.3855397916781
 31
0.0
  0
LINE
  5
16ED0
  8
3
 10
178.50457860123751
 20
231.0883902795735
 30
0.0
 11
178.50457860123751
 21
236.3855397916781
 31
0.0
  0
LINE
  5
16ED1
  8
3
 10
67.50457858247978
 20
181.49353979167191
 30
0.0
 11
67.50457858247978
 21
208.9935397916723
 31
0.0
  0
LINE
  5
16ED2
  8
3
 10
67.50457858247978
 20
229.57667324577579
 30
0.0
 11
67.50457858247978
 21
236.38553979167801
 31
0.0
  0
LINE
  5
16ED3
  8
3
 10
75.880578582479757
 20
181.49353979167191
 30
0.0
 11
75.880578582479757
 21
208.99353979167191
 31
0.0
  0
LINE
  5
16ED4
  8
3
 10
75.880578582479757
 20
229.57667324577579
 30
0.0
 11
75.880578582479757
 21
236.38553979167801
 31
0.0
  0
LINE
  5
16ED5
  8
1
 10
71.69257860123713
 20
270.85462464909517
 30
0.0
 11
71.69257860123713
 21
148.40353979167199
 31
0.0
  0
LINE
  5
16EF1
  8
1
 10
62.592578601237101
 20
163.40353979167199
 30
0.0
 11
68.092578601237108
 21
163.40353979167199
 31
0.0
  0
LINE
  5
16EF2
  8
1
 10
62.592578601237101
 20
161.4035397916721
 30
0.0
 11
68.092578601237108
 21
161.4035397916721
 31
0.0
  0
LINE
  5
16EF7
  8
1
 10
75.292578601237039
 20
163.40353979167199
 30
0.0
 11
80.792578601237153
 21
163.40353979167199
 31
0.0
  0
LINE
  5
16EF8
  8
1
 10
75.292578601237039
 20
161.4035397916721
 30
0.0
 11
80.792578601237153
 21
161.4035397916721
 31
0.0
  0
LINE
  5
16EF9
  8
1
 10
551.3425786012383
 20
270.85462464909517
 30
0.0
 11
551.3425786012383
 21
148.40353979167199
 31
0.0
  0
LINE
  5
16EFA
  8
1
 10
542.24257860123828
 20
163.40353979167199
 30
0.0
 11
547.74257860123839
 21
163.40353979167199
 31
0.0
  0
LINE
  5
16EFB
  8
1
 10
554.94257860123832
 20
163.40353979167199
 30
0.0
 11
560.44257860123844
 21
163.40353979167199
 31
0.0
  0
LINE
  5
16EFC
  8
1
 10
542.24257860123828
 20
161.4035397916721
 30
0.0
 11
547.74257860123839
 21
161.4035397916721
 31
0.0
  0
LINE
  5
16EFD
  8
1
 10
554.94257860123832
 20
161.4035397916721
 30
0.0
 11
560.44257860123844
 21
161.4035397916721
 31
0.0
  0
LINE
  5
16F05
  8
1
 10
182.6925786012375
 20
239.49353979166679
 30
0.0
 11
182.6925786012375
 21
172.09353979167179
 31
0.0
  0
LINE
  5
16F08
  8
1
 10
296.59257860123728
 20
250.363539791672
 30
0.0
 11
283.59257860123722
 21
250.363539791672
 31
0.0
  0
LINE
  5
16F09
  8
1
 10
290.09257860123728
 20
256.86353979167211
 30
0.0
 11
290.09257860123728
 21
243.86353979167191
 31
0.0
  0
LINE
  5
16F0B
  8
1
 10
317.9183251686203
 20
224.5381241640028
 30
0.0
 11
304.91832516862007
 21
224.5381241640028
 31
0.0
  0
LINE
  5
16F0C
  8
1
 10
311.41832516862019
 20
231.0381241640028
 30
0.0
 11
311.41832516862019
 21
218.0381241640026
 31
0.0
  0
LINE
  5
16F0D
  8
1
 10
291.1925786012373
 20
226.983539791672
 30
0.0
 11
278.19257860123719
 21
226.983539791672
 31
0.0
  0
LINE
  5
16F0E
  8
1
 10
284.6925786012373
 20
233.48353979167209
 30
0.0
 11
284.6925786012373
 21
220.48353979167189
 31
0.0
  0
LINE
  5
16F0F
  8
1
 10
338.6925786012373
 20
204.983539791672
 30
0.0
 11
325.69257860123719
 21
204.983539791672
 31
0.0
  0
LINE
  5
16F10
  8
1
 10
332.19257860123719
 20
211.48353979167209
 30
0.0
 11
332.19257860123719
 21
198.4835397916718
 31
0.0
  0
LINE
  5
16F11
  8
1
 10
290.09257860123728
 20
163.40353979167199
 30
0.0
 11
279.29257860123732
 21
163.40353979167199
 31
0.0
  0
LINE
  5
16F12
  8
1
 10
284.6925786012373
 20
168.80353979167199
 30
0.0
 11
284.6925786012373
 21
156.0035397916721
 31
0.0
  0
LINE
  5
16F13
  8
1
 10
290.09257860123728
 20
161.4035397916721
 30
0.0
 11
279.29257860123732
 21
161.4035397916721
 31
0.0
  0
LINE
  5
16F16
  8
1
 10
331.59257860123728
 20
163.40353979167199
 30
0.0
 11
320.79257860123732
 21
163.40353979167199
 31
0.0
  0
LINE
  5
16F17
  8
1
 10
326.1925786012373
 20
168.80353979167199
 30
0.0
 11
326.1925786012373
 21
156.0035397916721
 31
0.0
  0
LINE
  5
16F18
  8
1
 10
331.59257860123728
 20
161.4035397916721
 30
0.0
 11
320.79257860123732
 21
161.4035397916721
 31
0.0
  0
TEXT
  5
1702D
  8
0
 62
     3
 10
0.0
 20
0.0
 30
0.0
 40
10.0
  1
TCDHS10250
  7
STANDARD1
  0
VIEWPORT
  5
16D42
 67
     1
  8
0
 10
143.91525098843641
 20
120.4444400250395
 30
0.0
 40
1018.050289358976
 41
567.95420334497794
 68
     1
 69
     1
1001
ACAD
1000
MVIEW
1002
{
1070
    16
1010
0.0
1020
0.0
1030
0.0
1010
0.0
1020
0.0
1030
1.0
1040
0.0
1040
567.95420334497794
1040
143.91525098843641
1040
120.4444400250395
1040
50.0
1040
0.0
1040
0.0
1070
     0
1070
  1000
1070
     1
1070
     1
1070
     0
1070
     0
1070
     0
1070
     0
1040
0.0
1040
0.0
1040
0.0
1040
10.0
1040
10.0
1040
10.0
1040
10.0
1070
     0
1002
{
1002
}
1002
}
  0
VIEWPORT
  5
16D46
 67
     1
  8
0
 10
128.5
 20
97.5
 30
0.0
 40
205.59999999999999
 41
156.0
 68
     2
 69
     2
1001
ACAD
1000
MVIEW
1002
{
1070
    16
1010
0.0
1020
0.0
1030
0.0
1010
0.0
1020
0.0
1030
1.0
1040
0.0
1040
1964.414627253145
1040
999.61338105220489
1040
283.5927917937716
1040
50.0
1040
0.0
1040
0.0
1070
     0
1070
  1000
1070
     1
1070
     3
1070
     0
1070
     0
1070
     0
1070
     0
1040
0.0
1040
0.0
1040
0.0
1040
10.0
1040
10.0
1040
10.0
1040
10.0
1070
     0
1002
{
1002
}
1002
}
  0
ENDSEC
  0
EOF
